  0
SECTION
  2
HEADER
  9
$ACADVER
  1
AC1009
  9
$INSBASE
 10
377.1615231002073756
 20
53.7678515488079611
 30
0.0
  9
$EXTMIN
 10
373.9997522955159184
 20
53.3677575901969803
 30
-0.0000000349181948
  9
$EXTMAX
 10
377.8044288792667089
 20
63.4051101525137426
 30
0.0000000814935746
  9
$LIMMIN
 10
0.0
 20
0.0
  9
$LIMMAX
 10
11.6929133858000007
 20
8.2677165353999982
  9
$ORTHOMODE
 70
     0
  9
$REGENMODE
 70
     1
  9
$FILLMODE
 70
     1
  9
$QTEXTMODE
 70
     0
  9
$MIRRTEXT
 70
     0
  9
$DRAGMODE
 70
     2
  9
$LTSCALE
 40
0.6431102362
  9
$OSMODE
 70
  4095
  9
$ATTMODE
 70
     1
  9
$TEXTSIZE
 40
0.2
  9
$TRACEWID
 40
0.05
  9
$TEXTSTYLE
  7
STANDARD
  9
$CLAYER
  8
0
  9
$CELTYPE
  6
BYLAYER
  9
$CECOLOR
 62
   256
  9
$DIMSCALE
 40
1.0
  9
$DIMASZ
 40
0.1875
  9
$DIMEXO
 40
0.0625
  9
$DIMDLI
 40
0.4443307087
  9
$DIMRND
 40
0.0
  9
$DIMDLE
 40
0.0
  9
$DIMEXE
 40
0.125
  9
$DIMTP
 40
0.01
  9
$DIMTM
 40
0.01
  9
$DIMTXT
 40
1.0
  9
$DIMCEN
 40
0.1052362205
  9
$DIMTSZ
 40
0.0
  9
$DIMTOL
 70
     1
  9
$DIMLIM
 70
     0
  9
$DIMTIH
 70
     0
  9
$DIMTOH
 70
     1
  9
$DIMSE1
 70
     0
  9
$DIMSE2
 70
     0
  9
$DIMTAD
 70
     0
  9
$DIMZIN
 70
     0
  9
$DIMBLK
  1

  9
$DIMASO
 70
     1
  9
$DIMSHO
 70
     1
  9
$DIMPOST
  1
\X
  9
$DIMAPOST
  1

  9
$DIMALT
 70
     1
  9
$DIMALTD
 70
     2
  9
$DIMALTF
 40
25.3999999999999986
  9
$DIMLFAC
 40
1.0
  9
$DIMTOFL
 70
     0
  9
$DIMTVP
 40
0.0
  9
$DIMTIX
 70
     0
  9
$DIMSOXD
 70
     0
  9
$DIMSAH
 70
     0
  9
$DIMBLK1
  1

  9
$DIMBLK2
  1

  9
$DIMSTYLE
  2
STANDARD
  9
$DIMCLRD
 70
     0
  9
$DIMCLRE
 70
     0
  9
$DIMCLRT
 70
     0
  9
$DIMTFAC
 40
1.0
  9
$DIMGAP
 40
0.09
  9
$LUNITS
 70
     2
  9
$LUPREC
 70
     4
  9
$SKETCHINC
 40
0.1
  9
$FILLETRAD
 40
0.0
  9
$AUNITS
 70
     0
  9
$AUPREC
 70
     0
  9
$MENU
  1
.
  9
$ELEVATION
 40
0.0
  9
$PELEVATION
 40
0.0
  9
$THICKNESS
 40
0.0
  9
$LIMCHECK
 70
     0
  9
$BLIPMODE
 70
     0
  9
$CHAMFERA
 40
0.0
  9
$CHAMFERB
 40
0.0
  9
$SKPOLY
 70
     0
  9
$TDCREATE
 40
2458172.5207638889551163
  9
$TDUPDATE
 40
2459087.5735300919041038
  9
$TDINDWG
 40
0.2974161806
  9
$TDUSRTIMER
 40
0.2974161806
  9
$USRTIMER
 70
     1
  9
$ANGBASE
 50
0.0
  9
$ANGDIR
 70
     0
  9
$PDMODE
 70
     0
  9
$PDSIZE
 40
0.3125
  9
$PLINEWID
 40
0.0
  9
$COORDS
 70
     1
  9
$SPLFRAME
 70
     0
  9
$SPLINETYPE
 70
     6
  9
$SPLINESEGS
 70
     8
  9
$ATTDIA
 70
     1
  9
$ATTREQ
 70
     1
  9
$HANDLING
 70
     1
  9
$HANDSEED
  5
13D87
  9
$SURFTAB1
 70
     6
  9
$SURFTAB2
 70
     6
  9
$SURFTYPE
 70
     6
  9
$SURFU
 70
     6
  9
$SURFV
 70
     6
  9
$UCSNAME
  2

  9
$UCSORG
 10
0.0
 20
0.0
 30
0.0
  9
$UCSXDIR
 10
1.0
 20
0.0
 30
0.0
  9
$UCSYDIR
 10
0.0
 20
1.0
 30
0.0
  9
$PUCSNAME
  2

  9
$PUCSORG
 10
0.0
 20
0.0
 30
0.0
  9
$PUCSXDIR
 10
1.0
 20
0.0
 30
0.0
  9
$PUCSYDIR
 10
0.0
 20
1.0
 30
0.0
  9
$USERI1
 70
     0
  9
$USERI2
 70
     0
  9
$USERI3
 70
     0
  9
$USERI4
 70
     0
  9
$USERI5
 70
     0
  9
$USERR1
 40
0.0
  9
$USERR2
 40
0.0
  9
$USERR3
 40
0.0
  9
$USERR4
 40
0.0
  9
$USERR5
 40
0.0
  9
$WORLDVIEW
 70
     1
  9
$SHADEDGE
 70
     3
  9
$SHADEDIF
 70
    70
  9
$TILEMODE
 70
     1
  9
$MAXACTVP
 70
    64
  9
$PLIMCHECK
 70
     0
  9
$PEXTMIN
 10
1.0000000000000000E+20
 20
1.0000000000000000E+20
 30
1.0000000000000000E+20
  9
$PEXTMAX
 10
-1.0000000000000000E+20
 20
-1.0000000000000000E+20
 30
-1.0000000000000000E+20
  9
$PLIMMIN
 10
0.0
 20
0.0
  9
$PLIMMAX
 10
12.0
 20
9.0
  9
$UNITMODE
 70
     0
  9
$VISRETAIN
 70
     1
  9
$PLINEGEN
 70
     0
  9
$PSLTSCALE
 70
     1
  0
ENDSEC
  0
SECTION
  2
TABLES
  0
TABLE
  2
VPORT
 70
     1
  0
VPORT
  2
*ACTIVE
 70
     0
 10
0.0
 20
0.0
 11
1.0
 21
1.0
 12
-53.727198520662462
 22
-11.3161076408633203
 13
0.0
 23
0.0
 14
1.0
 24
1.0
 15
0.0
 25
0.0
 16
0.0
 26
0.0
 36
14.6338572656650907
 17
429.6292891080536833
 27
69.7025415122186871
 37
0.0
 40
10.12088115506835
 41
2.6486111111111108
 42
50.0
 43
0.0
 44
0.0
 50
0.0
 51
0.0
 71
     0
 72
   100
 73
     1
 74
     1
 75
     0
 76
     0
 77
     0
 78
     0
  0
ENDTAB
  0
TABLE
  2
LTYPE
 70
     2
  0
LTYPE
  2
CONTINUOUS
 70
     0
  3
Solid line
 72
    65
 73
     0
 40
0.0
  0
LTYPE
  2
PHANTOM2
 70
     0
  3
___ _ _ ___ _ _ ___ _ _ ___ _ _
 72
    65
 73
     6
 40
1.25
 49
0.625
 49
-0.125
 49
0.125
 49
-0.125
 49
0.125
 49
-0.125
  0
ENDTAB
  0
TABLE
  2
LAYER
 70
     2
  0
LAYER
  2
0
 70
     0
 62
   255
  6
CONTINUOUS
  0
LAYER
  2
DEFPOINTS
 70
     0
 62
     7
  6
CONTINUOUS
  0
ENDTAB
  0
TABLE
  2
STYLE
 70
     1
  0
STYLE
  2
STANDARD
 70
     0
 40
0.0
 41
0.8
 50
0.0
 71
     0
 42
0.2
  3
txt
  4

  0
ENDTAB
  0
TABLE
  2
VIEW
 70
     0
  0
ENDTAB
  0
TABLE
  2
UCS
 70
     0
  0
ENDTAB
  0
TABLE
  2
APPID
 70
    10
  0
APPID
  2
ACAD
 70
     0
  0
APPID
  2
ACAD_MLEADERVER
 70
     0
  0
APPID
  2
ACAD_EXEMPT_FROM_CAD_STANDARDS
 70
     0
  0
APPID
  2
ACAD_DSTYLE_DIMJAG
 70
     0
  0
APPID
  2
ACAD_DSTYLE_DIMTALN
 70
     0
  0
APPID
  2
ACAD_NAV_VCDISPLAY
 70
     0
  0
APPID
  2
ACAECLAYERSTANDARD
 70
     0
  0
APPID
  2
ACCMTRANSPARENCY
 70
     0
  0
APPID
  2
DCO15
 70
     0
  0
APPID
  2
ACDBATTR
 70
     0
  0
ENDTAB
  0
TABLE
  2
DIMSTYLE
 70
     1
  0
DIMSTYLE
  2
STANDARD
 70
     0
  3

  4

  5

  6

  7

 40
1.0
 41
0.1875
 42
0.0625
 43
0.38
 44
0.125
 45
0.0
 46
0.0
 47
0.01
 48
0.01
140
0.15625
141
0.09
142
0.0
143
25.3999999999999986
144
1.0
145
0.0
146
1.0
147
0.09
 71
     1
 72
     0
 73
     1
 74
     1
 75
     0
 76
     0
 77
     0
 78
     4
170
     0
171
     2
172
     0
173
     0
174
     0
175
     0
176
     0
177
     0
178
     0
  0
ENDTAB
  0
ENDSEC
  0
SECTION
  2
BLOCKS
  0
BLOCK
  8
0
  2
$MODEL_SPACE
 70
     0
 10
0.0
 20
0.0
 30
0.0
  3
$MODEL_SPACE
  1

  0
ENDBLK
  5
21
  8
0
  0
BLOCK
 67
     1
  8
0
  2
$PAPER_SPACE
 70
     0
 10
0.0
 20
0.0
 30
0.0
  3
$PAPER_SPACE
  1

  0
ENDBLK
  5
1D
 67
     1
  8
0
  0
BLOCK
  8
0
  2
_FILLED
 70
     0
 10
0.0
 20
0.0
 30
0.0
  3
_FILLED
  1

  0
SOLID
  5
87E2
  8
0
  6
BYBLOCK
 62
     0
 10
0.0
 20
0.0
 30
0.0
 11
-1.0
 21
0.1666666667
 31
0.0
 12
-1.0
 22
-0.1666666667
 32
0.0
 13
-1.0
 23
-0.1666666667
 33
0.0
  0
ENDBLK
  5
87E3
  8
0
  6
BYBLOCK
 62
     0
  0
ENDSEC
  0
SECTION
  2
ENTITIES
  0
ATTDEF
  5
1315E
  8
DEFPOINTS
 10
377.161835674558688
 20
53.7717812809272573
 30
0.0
 40
0.001
  1
K-45973T-E2
  3

  2
MODELNUMBER
 70
     0
1001
ACDBATTR
1070
     0
1070
     1
  0
ATTDEF
  5
1315F
  8
DEFPOINTS
 10
377.161835674558688
 20
53.7701146142605992
 30
0.0
 40
0.001
  1
RAIN DUET
  3

  2
TRADENAME
 70
     0
1001
ACDBATTR
1070
     0
1070
     1
  0
ATTDEF
  5
13160
  8
DEFPOINTS
 10
377.161835674558688
 20
53.768447947593927
 30
0.0
 40
0.001
  1
HANDSHOWER
  3

  2
PRODUCT
 70
     0
1001
ACDBATTR
1070
     0
1070
     1
  0
LINE
  5
137FA
  8
0
 10
375.3006639455159075
 20
58.820159190295783
 30
0.0
 11
374.0764211614073815
 21
63.08964154300795
 31
0.0
  0
LINE
  5
137FB
  8
0
 10
374.0847108071807838
 20
63.0607318391491489
 30
0.0
 11
374.0771830072235957
 21
63.0585300113700029
 31
0.0
  0
ARC
  5
137FC
  8
0
 10
374.0804990179740912
 20
63.0471929459454827
 30
0.0
 40
0.0118120692403003
 50
106.3038214347707964
 51
180.2936818055109995
  0
LINE
  5
137FD
  8
0
 10
374.068687103902505
 20
63.0471324009164888
 30
0.0
 11
374.074111684376021
 21
62.7612555288633018
 31
0.0
  0
LINE
  5
137FE
  8
0
 10
374.07289985476109
 20
62.8250563448635901
 30
0.0
 11
374.0216579079598205
 21
62.8022417671930313
 31
0.0
  0
ARC
  5
137FF
  8
0
 10
374.0312664348068097
 20
62.7806608451773513
 30
0.0
 40
0.0236232932339083
 50
114.0001801594606974
 51
195.9656882310194987
  0
LINE
  5
13800
  8
0
 10
374.0085543725504067
 20
62.7741629831230625
 30
0.0
 11
374.0499644674746946
 21
62.6294217365241295
 31
0.0
  0
ARC
  5
13801
  8
0
 10
374.0726402559957933
 20
62.6359092207569006
 30
0.0
 40
0.0235855641595388
 50
195.9656882310104038
 51
274.3549279477368259
  0
LINE
  5
13802
  8
0
 10
374.0744312179616031
 20
62.6123917529518721
 30
0.0
 11
374.0963191903616121
 21
62.6139471611518701
 31
0.0
  0
ARC
  5
13803
  8
0
 10
374.0962901737073025
 20
62.6143087547822716
 30
0.0
 40
0.0003636475115623
 50
274.5833264319350064
 51
311.6718293723164948
  0
ARC
  5
13804
  8
0
 10
374.077552560473805
 20
62.6209979017573986
 30
0.0
 40
0.0202155794830901
 50
339.8592535740776839
 51
358.5426841511073235
  0
ARC
  5
13805
  8
0
 10
373.2733391458324945
 20
62.6464210751279822
 30
0.0
 40
0.8248303634521391
 50
358.19800175355482
 51
8.4362980371375631
  0
ARC
  5
13806
  8
0
 10
374.0887596340222103
 20
62.7672150901884578
 30
0.0
 40
0.0005310589661018
 50
24.0730261178477392
 51
115.2123459201532967
  0
LINE
  5
13807
  8
0
 10
374.0885334165769223
 20
62.7676955579739584
 30
0.0
 11
374.0380069619312735
 21
62.745127693265843
 31
0.0
  0
ARC
  5
13808
  8
0
 10
374.0477781224249156
 20
62.7234169130254813
 30
0.0
 40
0.0238082665483258
 50
114.2306188748871989
 51
192.0418772108992869
  0
LINE
  5
13809
  8
0
 10
375.2923741396842274
 20
58.8490694523491626
 30
0.0
 11
375.2168674559616193
 21
58.8278454806518667
 31
0.0
  0
ARC
  5
1380A
  8
0
 10
372.2593350861369004
 20
57.9582214880722475
 30
0.0
 40
3.082733139120398
 50
13.6441355459030103
 51
16.3852882388996584
  0
ARC
  5
1380B
  8
0
 10
374.8352474072290761
 20
58.5691535933296521
 30
0.0
 40
0.43562409008121
 50
4.2539982686536568
 51
15.4782539969728301
  0
ARC
  5
1380C
  8
0
 10
374.9830214648920901
 20
58.5755151396679565
 30
0.0
 40
0.2878223036051024
 50
337.8877061297012006
 51
5.1732423484294152
  0
ARC
  5
1380D
  8
0
 10
375.125751323400209
 20
58.519089778956527
 30
0.0
 40
0.1343585637075929
 50
304.8808092423872154
 51
337.2686517545744778
  0
ARC
  5
1380E
  8
0
 10
375.1281952174009007
 20
58.5818840559046166
 30
0.0
 40
0.1883299025164113
 50
236.3329443244149104
 51
293.2664970476507165
  0
ARC
  5
1380F
  8
0
 10
375.1515152112274905
 20
58.6826899998100515
 30
0.0
 40
0.2874790928819728
 50
182.7114072535374021
 51
243.6221674693848058
  0
ARC
  5
13810
  8
0
 10
375.4976423185798922
 20
58.6518739748540625
 30
0.0
 40
0.6335183480832867
 50
148.5098457295742946
 51
178.4427165490290008
  0
ARC
  5
13811
  8
0
 10
373.3588040897740825
 20
59.7711833837984514
 30
0.0
 40
1.782452954079222
 50
333.7488880204502948
 51
337.4216437499376866
  0
ARC
  5
13812
  8
0
 10
397.0584180662381186
 20
51.4834682287495085
 30
0.0
 40
23.3276653097213185
 50
160.7084722604330125
 51
160.9776494445625019
  0
LINE
  5
13813
  8
0
 10
374.1350592001616064
 20
62.5994805936518688
 30
0.0
 11
374.0860243443686954
 21
62.5773868077483399
 31
0.0
  0
ARC
  5
13814
  8
0
 10
374.0957309551582739
 20
62.55584399646267
 30
0.0
 40
0.0236286057800747
 50
114.2550450332169021
 51
197.2800139148484106
  0
LINE
  5
13815
  8
0
 10
374.0731688389615783
 20
62.5488253125518696
 30
0.0
 11
374.0974650113723214
 21
62.4640942640683221
 31
0.0
  0
ARC
  5
13816
  8
0
 10
374.1210828039510261
 20
62.4687179170814417
 30
0.0
 40
0.0240661233578888
 50
191.0766992407965859
 51
273.5976458329653269
  0
LINE
  5
13817
  8
0
 10
374.1225929414616189
 20
62.4446992206518701
 30
0.0
 11
374.1450201350799034
 21
62.4463641932235589
 31
0.0
  0
ARC
  5
13818
  8
0
 10
374.1445630504534279
 20
62.4588447351043783
 30
0.0
 40
0.012488909159518
 50
272.097450617310983
 51
276.7341051177555187
  0
ARC
  5
13819
  8
0
 10
374.1457811694667726
 20
62.4476851983968118
 30
0.0
 40
0.0012673854712654
 50
281.2084974645100033
 51
313.4163547774091967
  0
ARC
  5
1381A
  8
0
 10
374.1026105139760034
 20
62.4649072828141314
 30
0.0
 40
0.0476322414240848
 50
337.6111237314760842
 51
0.40193252197694
  0
ARC
  5
1381B
  8
0
 10
373.578325096753872
 20
62.4844861696528824
 30
0.0
 40
0.5722401838258684
 50
358.0727485046169818
 51
9.6617129721895285
  0
ARC
  5
1381C
  8
0
 10
374.0768756963167903
 20
62.5705161058124233
 30
0.0
 40
0.0663324005626309
 50
8.679045178185623
 51
24.8485780410727095
  0
ARC
  5
1381D
  8
0
 10
374.1354371038286217
 20
62.5977826264671293
 30
0.0
 40
0.0017396652781199
 50
20.4487572911055615
 51
102.5164051731719042
  0
LINE
  5
1381E
  8
0
 10
374.1159434733860962
 20
62.4296805748806705
 30
0.0
 11
374.0669086175931284
 21
62.4075867889771274
 31
0.0
  0
ARC
  5
1381F
  8
0
 10
374.0766152283827068
 20
62.3860439776914717
 30
0.0
 40
0.0236286057800747
 50
114.2550450332169021
 51
197.2800139148484106
  0
LINE
  5
13820
  8
0
 10
374.054053112186125
 20
62.3790252937806571
 30
0.0
 11
374.0783492845968112
 21
62.2942942452971167
 31
0.0
  0
ARC
  5
13821
  8
0
 10
374.1019670771755159
 20
62.2989178983102292
 30
0.0
 40
0.0240661233578888
 50
191.0766992407965859
 51
273.5976458329653269
  0
LINE
  5
13822
  8
0
 10
374.1034772146861087
 20
62.2748992018806575
 30
0.0
 11
374.1259044083043932
 21
62.2765641744523535
 31
0.0
  0
ARC
  5
13823
  8
0
 10
374.1254473236779177
 20
62.2890447163331729
 30
0.0
 40
0.012488909159518
 50
272.097450617310983
 51
276.7341051177555187
  0
ARC
  5
13824
  8
0
 10
374.1266654426913192
 20
62.2778851796255992
 30
0.0
 40
0.0012673854712654
 50
281.2084974645100033
 51
313.4163547774091967
  0
ARC
  5
13825
  8
0
 10
374.0834947872003795
 20
62.2951072640429189
 30
0.0
 40
0.0476322414240848
 50
337.6111237314760842
 51
0.40193252197694
  0
ARC
  5
13826
  8
0
 10
373.5592093699783049
 20
62.3146861508816698
 30
0.0
 40
0.5722401838258684
 50
358.0727485046169818
 51
9.6617129721895285
  0
ARC
  5
13827
  8
0
 10
374.05775996954128
 20
62.4007160870412108
 30
0.0
 40
0.0663324005626309
 50
8.679045178185623
 51
24.8485780410727095
  0
ARC
  5
13828
  8
0
 10
374.1163213770531115
 20
62.4279826076959168
 30
0.0
 40
0.0017396652781199
 50
20.4487572911055615
 51
102.5164051731719042
  0
LINE
  5
13829
  8
0
 10
374.2155603417870111
 20
62.3319319579603288
 30
0.0
 11
374.1665254859939864
 21
62.3098381720568
 31
0.0
  0
ARC
  5
1382A
  8
0
 10
374.1762320967836217
 20
62.2882953607711372
 30
0.0
 40
0.0236286057800747
 50
114.2550450332169021
 51
197.2800139148484106
  0
LINE
  5
1382B
  8
0
 10
374.153669980586983
 20
62.2812766768603296
 30
0.0
 11
374.1779661529977261
 21
62.1965456283767821
 31
0.0
  0
ARC
  5
1382C
  8
0
 10
374.2015839455763739
 20
62.2011692813899018
 30
0.0
 40
0.0240661233578888
 50
191.0766992407965859
 51
273.5976458329653269
  0
LINE
  5
1382D
  8
0
 10
374.2030940830870236
 20
62.1771505849603301
 30
0.0
 11
374.2255212767051944
 21
62.1788155575320118
 31
0.0
  0
ARC
  5
1382E
  8
0
 10
374.2250641920787189
 20
62.1912960994128312
 30
0.0
 40
0.012488909159518
 50
272.097450617310983
 51
276.7341051177555187
  0
ARC
  5
1382F
  8
0
 10
374.2262823110921772
 20
62.1801365627052576
 30
0.0
 40
0.0012673854712654
 50
281.2084974645100033
 51
313.4163547774091967
  0
ARC
  5
13830
  8
0
 10
374.1831116556012944
 20
62.1973586471225914
 30
0.0
 40
0.0476322414240848
 50
337.6111237314760842
 51
0.40193252197694
  0
ARC
  5
13831
  8
0
 10
373.6588262383792198
 20
62.2169375339613424
 30
0.0
 40
0.5722401838258684
 50
358.0727485046169818
 51
9.6617129721895285
  0
ARC
  5
13832
  8
0
 10
374.1573768379420812
 20
62.3029674701208691
 30
0.0
 40
0.0663324005626309
 50
8.679045178185623
 51
24.8485780410727095
  0
ARC
  5
13833
  8
0
 10
374.2159382454540264
 20
62.3302339907755822
 30
0.0
 40
0.0017396652781199
 50
20.4487572911055615
 51
102.5164051731719042
  0
LINE
  5
13834
  8
0
 10
374.1585290229925249
 20
62.2392253145701488
 30
0.0
 11
374.1094941671995002
 21
62.2171315286666129
 31
0.0
  0
ARC
  5
13835
  8
0
 10
374.1192007779890787
 20
62.1955887173809501
 30
0.0
 40
0.0236286057800747
 50
114.2550450332169021
 51
197.2800139148484106
  0
LINE
  5
13836
  8
0
 10
374.0966386617924968
 20
62.1885700334701426
 30
0.0
 11
374.1209348342031831
 21
62.1038389849865879
 31
0.0
  0
ARC
  5
13837
  8
0
 10
374.1445526267818877
 20
62.1084626379997218
 30
0.0
 40
0.0240661233578888
 50
191.0766992407965859
 51
273.5976458329653269
  0
LINE
  5
13838
  8
0
 10
374.1460627642924806
 20
62.084443941570143
 30
0.0
 11
374.1684899579108219
 21
62.0861089141418319
 31
0.0
  0
ARC
  5
13839
  8
0
 10
374.1680328732841758
 20
62.0985894560226512
 30
0.0
 40
0.012488909159518
 50
272.097450617310983
 51
276.7341051177555187
  0
ARC
  5
1383A
  8
0
 10
374.169250992297691
 20
62.0874299193150776
 30
0.0
 40
0.0012673854712654
 50
281.2084974645100033
 51
313.4163547774091967
  0
ARC
  5
1383B
  8
0
 10
374.1260803368068082
 20
62.1046520037323972
 30
0.0
 40
0.0476322414240848
 50
337.6111237314760842
 51
0.40193252197694
  0
ARC
  5
1383C
  8
0
 10
373.6017949195847905
 20
62.1242308905711482
 30
0.0
 40
0.5722401838258684
 50
358.0727485046169818
 51
9.6617129721895285
  0
ARC
  5
1383D
  8
0
 10
374.1003455191477087
 20
62.2102608267306891
 30
0.0
 40
0.0663324005626309
 50
8.679045178185623
 51
24.8485780410727095
  0
ARC
  5
1383E
  8
0
 10
374.1589069266594834
 20
62.2375273473854023
 30
0.0
 40
0.0017396652781199
 50
20.4487572911055615
 51
102.5164051731719042
  0
LINE
  5
1383F
  8
0
 10
374.1610623602765031
 20
62.0898450787616412
 30
0.0
 11
374.1120275044834784
 21
62.0677512928580981
 31
0.0
  0
ARC
  5
13840
  8
0
 10
374.1217341152731137
 20
62.0462084815724424
 30
0.0
 40
0.0236286057800747
 50
114.2550450332169021
 51
197.2800139148484106
  0
LINE
  5
13841
  8
0
 10
374.099171999076475
 20
62.039189797661642
 30
0.0
 11
374.1234681714872181
 21
61.9544587491780803
 31
0.0
  0
ARC
  5
13842
  8
0
 10
374.1470859640659228
 20
61.959082402191207
 30
0.0
 40
0.0240661233578888
 50
191.0766992407965859
 51
273.5976458329653269
  0
LINE
  5
13843
  8
0
 10
374.1485961015765156
 20
61.9350637057616282
 30
0.0
 11
374.1710232951948001
 21
61.9367286783333171
 31
0.0
  0
ARC
  5
13844
  8
0
 10
374.1705662105683245
 20
61.9492092202141365
 30
0.0
 40
0.012488909159518
 50
272.097450617310983
 51
276.7341051177555187
  0
ARC
  5
13845
  8
0
 10
374.1717843295817261
 20
61.938049683506577
 30
0.0
 40
0.0012673854712654
 50
281.2084974645100033
 51
313.4163547774091967
  0
ARC
  5
13846
  8
0
 10
374.1286136740907864
 20
61.9552717679238896
 30
0.0
 40
0.0476322414240848
 50
337.6111237314760842
 51
0.40193252197694
  0
ARC
  5
13847
  8
0
 10
373.6043282568687118
 20
61.9748506547626405
 30
0.0
 40
0.5722401838258684
 50
358.0727485046169818
 51
9.6617129721895285
  0
ARC
  5
13848
  8
0
 10
374.1028788564316869
 20
62.0608805909221815
 30
0.0
 40
0.0663324005626309
 50
8.679045178185623
 51
24.8485780410727095
  0
ARC
  5
13849
  8
0
 10
374.1614402639435184
 20
62.0881471115768875
 30
0.0
 40
0.0017396652781199
 50
20.4487572911055615
 51
102.5164051731719042
  0
LINE
  5
1384A
  8
0
 10
374.3122731209123799
 20
61.9793967661319911
 30
0.0
 11
374.2632382651194121
 21
61.9573029802284623
 31
0.0
  0
ARC
  5
1384B
  8
0
 10
374.2729448759089905
 20
61.9357601689427923
 30
0.0
 40
0.0236286057800747
 50
114.2550450332169021
 51
197.2800139148484106
  0
LINE
  5
1384C
  8
0
 10
374.2503827597124086
 20
61.9287414850319919
 30
0.0
 11
374.2746789321230949
 21
61.8440104365484373
 31
0.0
  0
ARC
  5
1384D
  8
0
 10
374.2982967247017996
 20
61.8486340895615569
 30
0.0
 40
0.0240661233578888
 50
191.0766992407965859
 51
273.5976458329653269
  0
LINE
  5
1384E
  8
0
 10
374.2998068622123924
 20
61.8246153931319924
 30
0.0
 11
374.3222340558306769
 21
61.8262803657036812
 31
0.0
  0
ARC
  5
1384F
  8
0
 10
374.3217769712042013
 20
61.8387609075845006
 30
0.0
 40
0.012488909159518
 50
272.097450617310983
 51
276.7341051177555187
  0
ARC
  5
13850
  8
0
 10
374.3229950902176029
 20
61.8276013708769412
 30
0.0
 40
0.0012673854712654
 50
281.2084974645100033
 51
313.4163547774091967
  0
ARC
  5
13851
  8
0
 10
374.27982443472672
 20
61.8448234552942466
 30
0.0
 40
0.0476322414240848
 50
337.6111237314760842
 51
0.40193252197694
  0
ARC
  5
13852
  8
0
 10
373.7555390175045886
 20
61.8644023421329976
 30
0.0
 40
0.5722401838258684
 50
358.0727485046169818
 51
9.6617129721895285
  0
ARC
  5
13853
  8
0
 10
374.2540896170676206
 20
61.9504322782925385
 30
0.0
 40
0.0663324005626309
 50
8.679045178185623
 51
24.8485780410727095
  0
ARC
  5
13854
  8
0
 10
374.3126510245793952
 20
61.9776987989472516
 30
0.0
 40
0.0017396652781199
 50
20.4487572911055615
 51
102.5164051731719042
  0
LINE
  5
13855
  8
0
 10
374.2222958841978766
 20
61.8856716611079776
 30
0.0
 11
374.1732610284050224
 21
61.8635778752044487
 31
0.0
  0
ARC
  5
13856
  8
0
 10
374.1829676391946009
 20
61.8420350639187788
 30
0.0
 40
0.0236286057800747
 50
114.2550450332169021
 51
197.2800139148484106
  0
LINE
  5
13857
  8
0
 10
374.1604055229979053
 20
61.8350163800079784
 30
0.0
 11
374.1847016954085916
 21
61.7502853315244309
 31
0.0
  0
ARC
  5
13858
  8
0
 10
374.2083194879872963
 20
61.7549089845375505
 30
0.0
 40
0.0240661233578888
 50
191.0766992407965859
 51
273.5976458329653269
  0
LINE
  5
13859
  8
0
 10
374.2098296254978891
 20
61.7308902881079788
 30
0.0
 11
374.2322568191161736
 21
61.7325552606796677
 31
0.0
  0
ARC
  5
1385A
  8
0
 10
374.231799734489698
 20
61.7450358025604871
 30
0.0
 40
0.012488909159518
 50
272.097450617310983
 51
276.7341051177555187
  0
ARC
  5
1385B
  8
0
 10
374.2330178535030996
 20
61.7338762658529205
 30
0.0
 40
0.0012673854712654
 50
281.2084974645100033
 51
313.4163547774091967
  0
ARC
  5
1385C
  8
0
 10
374.1898471980122167
 20
61.7510983502702402
 30
0.0
 40
0.0476322414240848
 50
337.6111237314760842
 51
0.40193252197694
  0
ARC
  5
1385D
  8
0
 10
373.665561780790199
 20
61.7706772371089912
 30
0.0
 40
0.5722401838258684
 50
358.0727485046169818
 51
9.6617129721895285
  0
ARC
  5
1385E
  8
0
 10
374.1641123803531173
 20
61.8567071732685321
 30
0.0
 40
0.0663324005626309
 50
8.679045178185623
 51
24.8485780410727095
  0
ARC
  5
1385F
  8
0
 10
374.2226737878648919
 20
61.883973693923231
 30
0.0
 40
0.0017396652781199
 50
20.4487572911055615
 51
102.5164051731719042
  0
LINE
  5
13860
  8
0
 10
374.4316095430360747
 20
61.5646052243172122
 30
0.0
 11
374.3825746872432205
 21
61.5425114384136691
 31
0.0
  0
ARC
  5
13861
  8
0
 10
374.3922812980326853
 20
61.5209686271279992
 30
0.0
 40
0.0236286057800747
 50
114.2550450332169021
 51
197.2800139148484106
  0
LINE
  5
13862
  8
0
 10
374.3697191818362171
 20
61.5139499432171917
 30
0.0
 11
374.3940153542467897
 21
61.4292188947336513
 31
0.0
  0
ARC
  5
13863
  8
0
 10
374.4176331468254944
 20
61.4338425477467709
 30
0.0
 40
0.0240661233578888
 50
191.0766992407965859
 51
273.5976458329653269
  0
LINE
  5
13864
  8
0
 10
374.4191432843360872
 20
61.4098238513171992
 30
0.0
 11
374.4415704779543717
 21
61.4114888238888881
 31
0.0
  0
ARC
  5
13865
  8
0
 10
374.4411133933278961
 20
61.4239693657697075
 30
0.0
 40
0.012488909159518
 50
272.097450617310983
 51
276.7341051177555187
  0
ARC
  5
13866
  8
0
 10
374.4423315123412976
 20
61.4128098290621409
 30
0.0
 40
0.0012673854712654
 50
281.2084974645100033
 51
313.4163547774091967
  0
ARC
  5
13867
  8
0
 10
374.3991608568504716
 20
61.4300319134794606
 30
0.0
 40
0.0476322414240848
 50
337.6111237314760842
 51
0.40193252197694
  0
ARC
  5
13868
  8
0
 10
373.8748754396283971
 20
61.4496108003182115
 30
0.0
 40
0.5722401838258684
 50
358.0727485046169818
 51
9.6617129721895285
  0
ARC
  5
13869
  8
0
 10
374.3734260391913153
 20
61.5356407364777525
 30
0.0
 40
0.0663324005626309
 50
8.679045178185623
 51
24.8485780410727095
  0
ARC
  5
1386A
  8
0
 10
374.4319874467032037
 20
61.5629072571324585
 30
0.0
 40
0.0017396652781199
 50
20.4487572911055615
 51
102.5164051731719042
  0
LINE
  5
1386B
  8
0
 10
374.3470699302765183
 20
61.6574059998616377
 30
0.0
 11
374.2980350744836073
 21
61.6353122139581018
 31
0.0
  0
ARC
  5
1386C
  8
0
 10
374.3077416852730721
 20
61.6137694026724532
 30
0.0
 40
0.0236286057800747
 50
114.2550450332169021
 51
197.2800139148484106
  0
LINE
  5
1386D
  8
0
 10
374.2851795690764902
 20
61.6067507187616386
 30
0.0
 11
374.3094757414871765
 21
61.522019670278091
 31
0.0
  0
ARC
  5
1386E
  8
0
 10
374.3330935340658812
 20
61.5266433232912107
 30
0.0
 40
0.0240661233578888
 50
191.0766992407965859
 51
273.5976458329653269
  0
LINE
  5
1386F
  8
0
 10
374.334603671576474
 20
61.502624626861639
 30
0.0
 11
374.3570308651948153
 21
61.5042895994333207
 31
0.0
  0
ARC
  5
13870
  8
0
 10
374.3565737805682829
 20
61.5167701413141401
 30
0.0
 40
0.012488909159518
 50
272.097450617310983
 51
276.7341051177555187
  0
ARC
  5
13871
  8
0
 10
374.3577918995816844
 20
61.5056106046065665
 30
0.0
 40
0.0012673854712654
 50
281.2084974645100033
 51
313.4163547774091967
  0
ARC
  5
13872
  8
0
 10
374.3146212440908016
 20
61.5228326890238932
 30
0.0
 40
0.0476322414240848
 50
337.6111237314760842
 51
0.40193252197694
  0
ARC
  5
13873
  8
0
 10
373.7903358268687271
 20
61.5424115758626371
 30
0.0
 40
0.5722401838258684
 50
358.0727485046169818
 51
9.6617129721895285
  0
ARC
  5
13874
  8
0
 10
374.2888864264317021
 20
61.628441512022178
 30
0.0
 40
0.0663324005626309
 50
8.679045178185623
 51
24.8485780410727095
  0
ARC
  5
13875
  8
0
 10
374.3474478339434768
 20
61.6557080326768912
 30
0.0
 40
0.0017396652781199
 50
20.4487572911055615
 51
102.5164051731719042
  0
LINE
  5
13876
  8
0
 10
374.5669773411988217
 20
61.1284082601807484
 30
0.0
 11
374.517942485405797
 21
61.1063144742772195
 31
0.0
  0
ARC
  5
13877
  8
0
 10
374.5276490961953755
 20
61.0847716629915567
 30
0.0
 40
0.0236286057800747
 50
114.2550450332169021
 51
197.2800139148484106
  0
LINE
  5
13878
  8
0
 10
374.5050869799987936
 20
61.0777529790807492
 30
0.0
 11
374.529383152409423
 21
60.9930219305972017
 31
0.0
  0
ARC
  5
13879
  8
0
 10
374.5530009449881845
 20
60.9976455836103213
 30
0.0
 40
0.0240661233578888
 50
191.0766992407965859
 51
273.5976458329653269
  0
LINE
  5
1387A
  8
0
 10
374.5545110824987773
 20
60.9736268871807425
 30
0.0
 11
374.5769382761171187
 21
60.9752918597524314
 31
0.0
  0
ARC
  5
1387B
  8
0
 10
374.5764811914904726
 20
60.9877724016332508
 30
0.0
 40
0.012488909159518
 50
272.097450617310983
 51
276.7341051177555187
  0
ARC
  5
1387C
  8
0
 10
374.5776993105038741
 20
60.9766128649256913
 30
0.0
 40
0.0012673854712654
 50
281.2084974645100033
 51
313.4163547774091967
  0
ARC
  5
1387D
  8
0
 10
374.534528655013105
 20
60.993834949343011
 30
0.0
 40
0.0476322414240848
 50
337.6111237314760842
 51
0.40193252197694
  0
ARC
  5
1387E
  8
0
 10
374.0102432377909736
 20
61.013413836181762
 30
0.0
 40
0.5722401838258684
 50
358.0727485046169818
 51
9.6617129721895285
  0
ARC
  5
1387F
  8
0
 10
374.5087938373540055
 20
61.0994437723412886
 30
0.0
 40
0.0663324005626309
 50
8.679045178185623
 51
24.8485780410727095
  0
ARC
  5
13880
  8
0
 10
374.5673552448657802
 20
61.1267102929960089
 30
0.0
 40
0.0017396652781199
 50
20.4487572911055615
 51
102.5164051731719042
  0
LINE
  5
13881
  8
0
 10
374.4553157737615834
 20
61.2828333227523885
 30
0.0
 11
374.4062809179686724
 21
61.2607395368488525
 31
0.0
  0
ARC
  5
13882
  8
0
 10
374.4159875287583077
 20
61.2391967255631826
 30
0.0
 40
0.0236286057800747
 50
114.2550450332169021
 51
197.2800139148484106
  0
LINE
  5
13883
  8
0
 10
374.3934254125616121
 20
61.2321780416523822
 30
0.0
 11
374.4177215849722984
 21
61.1474469931688276
 31
0.0
  0
ARC
  5
13884
  8
0
 10
374.4413393775510031
 20
61.1520706461819472
 30
0.0
 40
0.0240661233578888
 50
191.0766992407965859
 51
273.5976458329653269
  0
LINE
  5
13885
  8
0
 10
374.4428495150615959
 20
61.1280519497523827
 30
0.0
 11
374.4652767086798804
 21
61.1297169223240715
 31
0.0
  0
ARC
  5
13886
  8
0
 10
374.4648196240534048
 20
61.1421974642048909
 30
0.0
 40
0.012488909159518
 50
272.097450617310983
 51
276.7341051177555187
  0
ARC
  5
13887
  8
0
 10
374.4660377430668063
 20
61.1310379274973315
 30
0.0
 40
0.0012673854712654
 50
281.2084974645100033
 51
313.4163547774091967
  0
ARC
  5
13888
  8
0
 10
374.4228670875759235
 20
61.1482600119146369
 30
0.0
 40
0.0476322414240848
 50
337.6111237314760842
 51
0.40193252197694
  0
ARC
  5
13889
  8
0
 10
373.8985816703539058
 20
61.1678388987533879
 30
0.0
 40
0.5722401838258684
 50
358.0727485046169818
 51
9.6617129721895285
  0
ARC
  5
1388A
  8
0
 10
374.397132269916824
 20
61.2538688349129288
 30
0.0
 40
0.0663324005626309
 50
8.679045178185623
 51
24.8485780410727095
  0
ARC
  5
1388B
  8
0
 10
374.4556936774285987
 20
61.2811353555676419
 30
0.0
 40
0.0017396652781199
 50
20.4487572911055615
 51
102.5164051731719042
  0
LINE
  5
1388C
  8
0
 10
374.3712828517765274
 20
61.3120799283616407
 30
0.0
 11
374.3222479959836164
 21
61.2899861424580976
 31
0.0
  0
ARC
  5
1388D
  8
0
 10
374.3319546067730812
 20
61.2684433311724419
 30
0.0
 40
0.0236286057800747
 50
114.2550450332169021
 51
197.2800139148484106
  0
LINE
  5
1388E
  8
0
 10
374.3093924905764993
 20
61.2614246472616273
 30
0.0
 11
374.3336886629871856
 21
61.1766935987780798
 31
0.0
  0
ARC
  5
1388F
  8
0
 10
374.3573064555658902
 20
61.1813172517912065
 30
0.0
 40
0.0240661233578888
 50
191.0766992407965859
 51
273.5976458329653269
  0
LINE
  5
13890
  8
0
 10
374.3588165930764831
 20
61.1572985553616277
 30
0.0
 11
374.3812437866948244
 21
61.1589635279333166
 31
0.0
  0
ARC
  5
13891
  8
0
 10
374.380786702068292
 20
61.1714440698141431
 30
0.0
 40
0.012488909159518
 50
272.097450617310983
 51
276.7341051177555187
  0
ARC
  5
13892
  8
0
 10
374.3820048210816935
 20
61.1602845331065765
 30
0.0
 40
0.0012673854712654
 50
281.2084974645100033
 51
313.4163547774091967
  0
ARC
  5
13893
  8
0
 10
374.3388341655908107
 20
61.1775066175238891
 30
0.0
 40
0.0476322414240848
 50
337.6111237314760842
 51
0.40193252197694
  0
ARC
  5
13894
  8
0
 10
373.8145487483686793
 20
61.1970855043626401
 30
0.0
 40
0.5722401838258684
 50
358.0727485046169818
 51
9.6617129721895285
  0
ARC
  5
13895
  8
0
 10
374.3130993479317112
 20
61.283115440522181
 30
0.0
 40
0.0663324005626309
 50
8.679045178185623
 51
24.8485780410727095
  0
ARC
  5
13896
  8
0
 10
374.3716607554434859
 20
61.310381961176887
 30
0.0
 40
0.0017396652781199
 50
20.4487572911055615
 51
102.5164051731719042
  0
LINE
  5
13897
  8
0
 10
374.4685843883615917
 20
60.9680904246518693
 30
0.0
 11
374.4337424189200192
 21
60.9525777804812492
 31
0.0
  0
ARC
  5
13898
  8
0
 10
374.4439771025628829
 20
60.9295903045351679
 30
0.0
 40
0.0251629251010809
 50
113.9999998937250041
 51
192.9370879547018944
  0
LINE
  5
13899
  8
0
 10
374.4194529011086274
 20
60.9239568027226781
 30
0.0
 11
374.4439090090683067
 21
60.8386682184060987
 31
0.0
  0
ARC
  5
1389A
  8
0
 10
374.4666509645616088
 20
60.8450573251518634
 30
0.0
 40
0.0236220472000039
 50
195.9999999999770921
 51
269.9999999999837996
  0
ARC
  5
1389B
  8
0
 10
374.3018549794064143
 20
62.1859612212295119
 30
0.0
 40
1.3744412561477499
 50
276.8863514264029959
 51
278.3768476390513911
  0
ARC
  5
1389C
  8
0
 10
374.4694950570296896
 20
60.9656912911212601
 30
0.0
 40
0.0025650286230612
 50
61.2972627885428096
 51
110.7928711014350966
  0
ARC
  5
1389D
  8
0
 10
374.3619686199440935
 20
60.8821173404427611
 30
0.0
 40
0.1385427688276366
 50
14.7776587143295401
 51
38.2778142895310722
  0
ARC
  5
1389E
  8
0
 10
374.1041982806534065
 20
60.7875059508973123
 30
0.0
 40
0.4127222122109688
 50
11.3330306921378892
 51
18.3523044298018192
  0
LINE
  5
1389F
  8
0
 10
374.5446778661615781
 20
60.8854238698518699
 30
0.0
 11
374.5104508565685819
 21
60.8693698091404585
 31
0.0
  0
ARC
  5
138A0
  8
0
 10
374.5205166301420263
 20
60.8479097352780016
 30
0.0
 40
0.0237034716405323
 50
115.128763446315304
 51
195.7629064676011978
  0
LINE
  5
138A1
  8
0
 10
374.4977045496615915
 20
60.8414705154518671
 30
0.0
 11
374.5221276579949858
 21
60.7549473142059924
 31
0.0
  0
ARC
  5
138A2
  8
0
 10
374.5446379693345875
 20
60.7613013529441304
 30
0.0
 40
0.0233899107499436
 50
195.7629064675963946
 51
278.5111375670575171
  0
LINE
  5
138A3
  8
0
 10
374.5480997149616087
 20
60.738169032651868
 30
0.0
 11
374.5873589241879245
 21
60.7429684981309492
 31
0.0
  0
ARC
  5
138A4
  8
0
 10
374.5863029322022726
 20
60.7477111082686605
 30
0.0
 40
0.0048587518965045
 50
282.5527357081472815
 51
347.5096575633871794
  0
ARC
  5
138A5
  8
0
 10
374.4435544860016876
 20
60.7607464787097484
 30
0.0
 40
0.1481633255455278
 50
354.5445308654848873
 51
17.6279552051496715
  0
ARC
  5
138A6
  8
0
 10
374.3171966090415026
 20
60.7403814435042193
 30
0.0
 40
0.2754013876353667
 50
13.7018225088445593
 51
29.2153859641971501
  0
ARC
  5
138A7
  8
0
 10
374.5314257573583063
 20
60.8602055319521824
 30
0.0
 40
0.0299386870670495
 50
29.1820530288056688
 51
57.4419816016881484
  0
ARC
  5
138A8
  8
0
 10
374.5461267223292907
 20
60.8818818982016907
 30
0.0
 40
0.0038268456155674
 50
68.3696546647154832
 51
112.2471912354238981
  0
LINE
  5
138A9
  8
0
 10
374.6770081122693909
 20
60.6563048112429684
 30
0.0
 11
374.6427811026763948
 21
60.6402507505315498
 31
0.0
  0
ARC
  5
138AA
  8
0
 10
374.652846876249896
 20
60.6187906766691
 30
0.0
 40
0.0237034716405323
 50
115.128763446315304
 51
195.7629064676011978
  0
LINE
  5
138AB
  8
0
 10
374.630034795769518
 20
60.6123514568429584
 30
0.0
 11
374.6544579041027987
 21
60.5258282555970908
 31
0.0
  0
ARC
  5
138AC
  8
0
 10
374.6769682154424004
 20
60.5321822943352288
 30
0.0
 40
0.0233899107499436
 50
195.7629064675963946
 51
278.5111375670575171
  0
LINE
  5
138AD
  8
0
 10
374.6804299610694216
 20
60.5090499740429593
 30
0.0
 11
374.7196891702956805
 21
60.5138494395220476
 31
0.0
  0
ARC
  5
138AE
  8
0
 10
374.7186331783100854
 20
60.5185920496597589
 30
0.0
 40
0.0048587518965045
 50
282.5527357081472815
 51
347.5096575633871794
  0
ARC
  5
138AF
  8
0
 10
374.5758847321095004
 20
60.5316274201008397
 30
0.0
 40
0.1481633255455278
 50
354.5445308654848873
 51
17.6279552051496715
  0
ARC
  5
138B0
  8
0
 10
374.4495268551493723
 20
60.5112623848953177
 30
0.0
 40
0.2754013876353667
 50
13.7018225088445593
 51
29.2153859641971501
  0
ARC
  5
138B1
  8
0
 10
374.6637560034661192
 20
60.6310864733432808
 30
0.0
 40
0.0299386870670495
 50
29.1820530288056688
 51
57.4419816016881484
  0
ARC
  5
138B2
  8
0
 10
374.6784569684372173
 20
60.652762839592782
 30
0.0
 40
0.0038268456155674
 50
68.3696546647154832
 51
112.2471912354238981
  0
LINE
  5
138B3
  8
0
 10
374.5588726314101109
 20
60.6357827319185105
 30
0.0
 11
374.5246456218171147
 21
60.6197286712070991
 31
0.0
  0
ARC
  5
138B4
  8
0
 10
374.5347113953905023
 20
60.5982685973446493
 30
0.0
 40
0.0237034716405323
 50
115.128763446315304
 51
195.7629064676011978
  0
LINE
  5
138B5
  8
0
 10
374.5118993149101243
 20
60.5918293775185219
 30
0.0
 11
374.5363224232435186
 21
60.5053061762726401
 31
0.0
  0
ARC
  5
138B6
  8
0
 10
374.5588327345831203
 20
60.5116602150107781
 30
0.0
 40
0.0233899107499436
 50
195.7629064675963946
 51
278.5111375670575171
  0
LINE
  5
138B7
  8
0
 10
374.5622944802100847
 20
60.4885278947185085
 30
0.0
 11
374.6015536894364004
 21
60.4933273601975969
 31
0.0
  0
ARC
  5
138B8
  8
0
 10
374.6004976974508054
 20
60.4980699703353082
 30
0.0
 40
0.0048587518965045
 50
282.5527357081472815
 51
347.5096575633871794
  0
ARC
  5
138B9
  8
0
 10
374.4577492512501067
 20
60.5111053407764032
 30
0.0
 40
0.1481633255455278
 50
354.5445308654848873
 51
17.6279552051496715
  0
ARC
  5
138BA
  8
0
 10
374.3313913742900922
 20
60.4907403055708599
 30
0.0
 40
0.2754013876353667
 50
13.7018225088445593
 51
29.2153859641971501
  0
ARC
  5
138BB
  8
0
 10
374.5456205226067823
 20
60.610564394018823
 30
0.0
 40
0.0299386870670495
 50
29.1820530288056688
 51
57.4419816016881484
  0
ARC
  5
138BC
  8
0
 10
374.5603214875778235
 20
60.6322407602683171
 30
0.0
 40
0.0038268456155674
 50
68.3696546647154832
 51
112.2471912354238981
  0
LINE
  5
138BD
  8
0
 10
374.6540308091057909
 20
60.5003290904532705
 30
0.0
 11
374.6198037995127947
 21
60.484275029741859
 31
0.0
  0
ARC
  5
138BE
  8
0
 10
374.629869573086296
 20
60.4628149558794021
 30
0.0
 40
0.0237034716405323
 50
115.128763446315304
 51
195.7629064676011978
  0
LINE
  5
138BF
  8
0
 10
374.6070574926058043
 20
60.4563757360532819
 30
0.0
 11
374.6314806009391987
 21
60.3698525348073929
 31
0.0
  0
ARC
  5
138C0
  8
0
 10
374.6539909122788004
 20
60.3762065735455522
 30
0.0
 40
0.0233899107499436
 50
195.7629064675963946
 51
278.5111375670575171
  0
LINE
  5
138C1
  8
0
 10
374.6574526579058215
 20
60.3530742532532827
 30
0.0
 11
374.6967118671320804
 21
60.3578737187323711
 31
0.0
  0
ARC
  5
138C2
  8
0
 10
374.6956558751464854
 20
60.3626163288700681
 30
0.0
 40
0.0048587518965045
 50
282.5527357081472815
 51
347.5096575633871794
  0
ARC
  5
138C3
  8
0
 10
374.5529074289459004
 20
60.3756516993111703
 30
0.0
 40
0.1481633255455278
 50
354.5445308654848873
 51
17.6279552051496715
  0
ARC
  5
138C4
  8
0
 10
374.4265495519857723
 20
60.3552866641056269
 30
0.0
 40
0.2754013876353667
 50
13.7018225088445593
 51
29.2153859641971501
  0
ARC
  5
138C5
  8
0
 10
374.6407787003025192
 20
60.4751107525535829
 30
0.0
 40
0.0299386870670495
 50
29.1820530288056688
 51
57.4419816016881484
  0
ARC
  5
138C6
  8
0
 10
374.6554796652735035
 20
60.4967871188030912
 30
0.0
 40
0.0038268456155674
 50
68.3696546647154832
 51
112.2471912354238981
  0
LINE
  5
138C7
  8
0
 10
374.7947413066099216
 20
60.2339388567228298
 30
0.0
 11
374.7605142970169254
 21
60.2178847960114112
 31
0.0
  0
ARC
  5
138C8
  8
0
 10
374.770580070590313
 20
60.1964247221489615
 30
0.0
 40
0.0237034716405323
 50
115.128763446315304
 51
195.7629064676011978
  0
LINE
  5
138C9
  8
0
 10
374.7477679901098782
 20
60.1899855023228199
 30
0.0
 11
374.7636995098433772
 21
60.1335452626433806
 31
0.0
  0
ARC
  5
138CA
  8
0
 10
374.7947014097828173
 20
60.1098163398150902
 30
0.0
 40
0.0233899107499436
 50
237.1370220172995005
 51
278.5111375670575171
  0
LINE
  5
138CB
  8
0
 10
374.7981631554098954
 20
60.0866840195228278
 30
0.0
 11
374.8374223646360974
 21
60.0914834850019091
 31
0.0
  0
ARC
  5
138CC
  8
0
 10
374.8363663726506161
 20
60.0962260951396203
 30
0.0
 40
0.0048587518965045
 50
282.5527357081472815
 51
347.5096575633871794
  0
ARC
  5
138CD
  8
0
 10
374.6936179264499174
 20
60.1092614655807083
 30
0.0
 40
0.1481633255455278
 50
354.5445308654848873
 51
17.6279552051496715
  0
ARC
  5
138CE
  8
0
 10
374.5672600494899029
 20
60.0888964303751791
 30
0.0
 40
0.2754013876353667
 50
13.7018225088445593
 51
29.2153859641971501
  0
ARC
  5
138CF
  8
0
 10
374.781489197806593
 20
60.2087205188231422
 30
0.0
 40
0.0299386870670495
 50
29.1820530288056688
 51
57.4419816016881484
  0
ARC
  5
138D0
  8
0
 10
374.7961901627775774
 20
60.2303968850726434
 30
0.0
 40
0.0038268456155674
 50
68.3696546647154832
 51
112.2471912354238981
  0
LINE
  5
138D1
  8
0
 10
374.7475416155953098
 20
60.1501903049362525
 30
0.0
 11
374.7133146060023137
 21
60.1341362442248268
 31
0.0
  0
ARC
  5
138D2
  8
0
 10
374.7233803795757012
 20
60.1126761703623771
 30
0.0
 40
0.0237034716405323
 50
115.128763446315304
 51
195.7629064676011978
  0
LINE
  5
138D3
  8
0
 10
374.7005682990953233
 20
60.1062369505362426
 30
0.0
 11
374.7249914074287176
 21
60.0197137492903678
 31
0.0
  0
ARC
  5
138D4
  8
0
 10
374.7475017187682056
 20
60.0260677880284987
 30
0.0
 40
0.0233899107499436
 50
195.7629064675963946
 51
278.5111375670575171
  0
LINE
  5
138D5
  8
0
 10
374.7509634643952836
 20
60.0029354677362434
 30
0.0
 11
374.7902226736215994
 21
60.0077349332153318
 31
0.0
  0
ARC
  5
138D6
  8
0
 10
374.7891666816360043
 20
60.0124775433530289
 30
0.0
 40
0.0048587518965045
 50
282.5527357081472815
 51
347.5096575633871794
  0
ARC
  5
138D7
  8
0
 10
374.6464182354354193
 20
60.0255129137941168
 30
0.0
 40
0.1481633255455278
 50
354.5445308654848873
 51
17.6279552051496715
  0
ARC
  5
138D8
  8
0
 10
374.5200603584752912
 20
60.0051478785885877
 30
0.0
 40
0.2754013876353667
 50
13.7018225088445593
 51
29.2153859641971501
  0
ARC
  5
138D9
  8
0
 10
374.7342895067919812
 20
60.1249719670365508
 30
0.0
 40
0.0299386870670495
 50
29.1820530288056688
 51
57.4419816016881484
  0
ARC
  5
138DA
  8
0
 10
374.7489904717630225
 20
60.146648333286052
 30
0.0
 40
0.0038268456155674
 50
68.3696546647154832
 51
112.2471912354238981
  0
LINE
  5
138DB
  8
0
 10
374.9055589117422187
 20
59.8410429661667393
 30
0.0
 11
374.8713319021491088
 21
59.8249889054553208
 31
0.0
  0
ARC
  5
138DC
  8
0
 10
374.8813976757224964
 20
59.803528831592871
 30
0.0
 40
0.0237034716405323
 50
115.128763446315304
 51
195.7629064676011978
  0
LINE
  5
138DD
  8
0
 10
374.8585855952421753
 20
59.7970896117667294
 30
0.0
 11
374.8830087035756264
 21
59.7105664105208618
 31
0.0
  0
ARC
  5
138DE
  8
0
 10
374.9055190149151144
 20
59.7169204492589998
 30
0.0
 40
0.0233899107499436
 50
195.7629064675963946
 51
278.5111375670575171
  0
LINE
  5
138DF
  8
0
 10
374.9089807605420788
 20
59.6937881289667374
 30
0.0
 11
374.9482399697685082
 21
59.6985875944458328
 31
0.0
  0
ARC
  5
138E0
  8
0
 10
374.9471839777827995
 20
59.7033302045835299
 30
0.0
 40
0.0048587518965045
 50
282.5527357081472815
 51
347.5096575633871794
  0
ARC
  5
138E1
  8
0
 10
374.8044355315822145
 20
59.7163655750246178
 30
0.0
 40
0.1481633255455278
 50
354.5445308654848873
 51
17.6279552051496715
  0
ARC
  5
138E2
  8
0
 10
374.6780776546220864
 20
59.6960005398190887
 30
0.0
 40
0.2754013876353667
 50
13.7018225088445593
 51
29.2153859641971501
  0
ARC
  5
138E3
  8
0
 10
374.8923068029388901
 20
59.8158246282670376
 30
0.0
 40
0.0299386870670495
 50
29.1820530288056688
 51
57.4419816016881484
  0
ARC
  5
138E4
  8
0
 10
374.9070077679098745
 20
59.8375009945165388
 30
0.0
 40
0.0038268456155674
 50
68.3696546647154832
 51
112.2471912354238981
  0
LINE
  5
138E5
  8
0
 10
374.8283781330213174
 20
59.8420178211071772
 30
0.0
 11
374.7941511234283212
 21
59.8259637603957728
 31
0.0
  0
ARC
  5
138E6
  8
0
 10
374.8042168970017087
 20
59.804503686533323
 30
0.0
 40
0.0237034716405323
 50
115.128763446315304
 51
195.7629064676011978
  0
LINE
  5
138E7
  8
0
 10
374.7814048165212739
 20
59.7980644667071815
 30
0.0
 11
374.8058279248547251
 21
59.7115412654613067
 31
0.0
  0
ARC
  5
138E8
  8
0
 10
374.8283382361943268
 20
59.7178953041994376
 30
0.0
 40
0.0233899107499436
 50
195.7629064675963946
 51
278.5111375670575171
  0
LINE
  5
138E9
  8
0
 10
374.8317999818212911
 20
59.6947629839071823
 30
0.0
 11
374.8710591910476069
 21
59.6995624493862707
 31
0.0
  0
ARC
  5
138EA
  8
0
 10
374.8700031990618982
 20
59.7043050595239677
 30
0.0
 40
0.0048587518965045
 50
282.5527357081472815
 51
347.5096575633871794
  0
ARC
  5
138EB
  8
0
 10
374.7272547528614268
 20
59.7173404299650628
 30
0.0
 40
0.1481633255455278
 50
354.5445308654848873
 51
17.6279552051496715
  0
ARC
  5
138EC
  8
0
 10
374.600896875901185
 20
59.6969753947595265
 30
0.0
 40
0.2754013876353667
 50
17.9820443588737717
 51
29.2153859641971501
  0
ARC
  5
138ED
  8
0
 10
374.8151260242179887
 20
59.8167994832074896
 30
0.0
 40
0.0299386870670495
 50
29.1820530288056688
 51
57.4419816016881484
  0
ARC
  5
138EE
  8
0
 10
374.8298269891889731
 20
59.8384758494569908
 30
0.0
 40
0.0038268456155674
 50
68.3696546647154832
 51
112.2471912354238981
  0
LINE
  5
138EF
  8
0
 10
374.8328731669629974
 20
59.6737694862576831
 30
0.0
 11
374.7986461573698875
 21
59.6577154255462716
 31
0.0
  0
ARC
  5
138F0
  8
0
 10
374.8087119309432751
 20
59.6362553516838219
 30
0.0
 40
0.0237034716405323
 50
115.128763446315304
 51
195.7629064676011978
  0
LINE
  5
138F1
  8
0
 10
374.7858998504630108
 20
59.6298161318576803
 30
0.0
 11
374.8103229587964051
 21
59.5432929306118126
 31
0.0
  0
ARC
  5
138F2
  8
0
 10
374.8328332701358931
 20
59.5496469693499435
 30
0.0
 40
0.0233899107499436
 50
195.7629064675963946
 51
278.5111375670575171
  0
LINE
  5
138F3
  8
0
 10
374.8362950157629143
 20
59.5265146490576811
 30
0.0
 11
374.8755542249891732
 21
59.5313141145367695
 31
0.0
  0
ARC
  5
138F4
  8
0
 10
374.8744982330035782
 20
59.5360567246744665
 30
0.0
 40
0.0048587518965045
 50
282.5527357081472815
 51
347.5096575633871794
  0
ARC
  5
138F5
  8
0
 10
374.7317497868029932
 20
59.5490920951155616
 30
0.0
 40
0.1481633255455278
 50
354.5445308654848873
 51
17.6279552051496715
  0
ARC
  5
138F6
  8
0
 10
374.6053919098429219
 20
59.5287270599100324
 30
0.0
 40
0.2754013876353667
 50
13.7018225088445593
 51
29.2153859641971501
  0
ARC
  5
138F7
  8
0
 10
374.8196210581597256
 20
59.6485511483579884
 30
0.0
 40
0.0299386870670495
 50
29.1820530288056688
 51
57.4419816016881484
  0
ARC
  5
138F8
  8
0
 10
374.83432202313071
 20
59.6702275146074896
 30
0.0
 40
0.0038268456155674
 50
68.3696546647154832
 51
112.2471912354238981
  0
LINE
  5
138F9
  8
0
 10
374.9935456097435917
 20
59.5241076764260981
 30
0.0
 11
374.9593186001505956
 21
59.5080536157146796
 31
0.0
  0
ARC
  5
138FA
  8
0
 10
374.9693843737240968
 20
59.4865935418522298
 30
0.0
 40
0.0237034716405323
 50
115.128763446315304
 51
195.7629064676011978
  0
LINE
  5
138FB
  8
0
 10
374.9465722932436051
 20
59.4801543220260882
 30
0.0
 11
374.9709954015769995
 21
59.3936311207802206
 31
0.0
  0
ARC
  5
138FC
  8
0
 10
374.9935057129166012
 20
59.3999851595183586
 30
0.0
 40
0.0233899107499436
 50
195.7629064675963946
 51
278.5111375670575171
  0
LINE
  5
138FD
  8
0
 10
374.9969674585436223
 20
59.376852839226089
 30
0.0
 11
375.0362266677698813
 21
59.3816523047051774
 31
0.0
  0
ARC
  5
138FE
  8
0
 10
375.0351706757842862
 20
59.3863949148428887
 30
0.0
 40
0.0048587518965045
 50
282.5527357081472815
 51
347.5096575633871794
  0
ARC
  5
138FF
  8
0
 10
374.8924222295837012
 20
59.3994302852839695
 30
0.0
 40
0.1481633255455278
 50
354.5445308654848873
 51
17.6279552051496715
  0
ARC
  5
13900
  8
0
 10
374.7660643526235731
 20
59.3790652500784475
 30
0.0
 40
0.2754013876353667
 50
13.7018225088445593
 51
29.2153859641971501
  0
ARC
  5
13901
  8
0
 10
374.98029350094032
 20
59.4988893385264106
 30
0.0
 40
0.0299386870670495
 50
29.1820530288056688
 51
57.4419816016881484
  0
ARC
  5
13902
  8
0
 10
374.9949944659113044
 20
59.5205657047759118
 30
0.0
 40
0.0038268456155674
 50
68.3696546647154832
 51
112.2471912354238981
  0
LINE
  5
13903
  8
0
 10
374.9350531667498103
 20
59.476212024911483
 30
0.0
 11
374.9008261571567004
 21
59.4601579642000573
 31
0.0
  0
ARC
  5
13904
  8
0
 10
374.910891930730088
 20
59.4386978903376075
 30
0.0
 40
0.0237034716405323
 50
115.128763446315304
 51
195.7629064676011978
  0
LINE
  5
13905
  8
0
 10
374.88807985024971
 20
59.4322586705114801
 30
0.0
 11
374.9125029585831044
 21
59.3457354692655983
 31
0.0
  0
ARC
  5
13906
  8
0
 10
374.9350132699227061
 20
59.3520895080037434
 30
0.0
 40
0.0233899107499436
 50
195.7629064675963946
 51
278.5111375670575171
  0
LINE
  5
13907
  8
0
 10
374.9384750155497272
 20
59.328957187711481
 30
0.0
 11
374.9777342247759861
 21
59.3337566531905622
 31
0.0
  0
ARC
  5
13908
  8
0
 10
374.9766782327903911
 20
59.3384992633282593
 30
0.0
 40
0.0048587518965045
 50
282.5527357081472815
 51
347.5096575633871794
  0
ARC
  5
13909
  8
0
 10
374.8339297865898061
 20
59.3515346337693614
 30
0.0
 40
0.1481633255455278
 50
354.5445308654848873
 51
11.7210843818416102
  0
ARC
  5
1390A
  8
0
 10
374.707571909629678
 20
59.3311695985638181
 30
0.0
 40
0.2754013876353667
 50
26.6049504874021885
 51
29.2153859641971501
  0
ARC
  5
1390B
  8
0
 10
374.9218010579464249
 20
59.4509936870117812
 30
0.0
 40
0.0299386870670495
 50
29.1820530288056688
 51
57.4419816016881484
  0
ARC
  5
1390C
  8
0
 10
374.9365020229174092
 20
59.4726700532612824
 30
0.0
 40
0.0038268456155674
 50
68.3696546647154832
 51
112.2471912354238981
  0
LINE
  5
1390D
  8
0
 10
375.0650311277482274
 20
59.3141742519365707
 30
0.0
 11
375.0308041181551175
 21
59.2981201912251592
 31
0.0
  0
ARC
  5
1390E
  8
0
 10
375.0408698917286188
 20
59.2766601173627024
 30
0.0
 40
0.0237034716405323
 50
115.128763446315304
 51
195.7629064676011978
  0
LINE
  5
1390F
  8
0
 10
375.018057811248184
 20
59.2702208975365679
 30
0.0
 11
375.0424809195815214
 21
59.1836976962907002
 31
0.0
  0
ARC
  5
13910
  8
0
 10
375.0649912309211231
 20
59.1900517350288382
 30
0.0
 40
0.0233899107499436
 50
195.7629064675963946
 51
278.5111375670575171
  0
LINE
  5
13911
  8
0
 10
375.0684529765480875
 20
59.1669194147365829
 30
0.0
 11
375.1077121857745169
 21
59.1717188802156713
 31
0.0
  0
ARC
  5
13912
  8
0
 10
375.1066561937888082
 20
59.1764614903533683
 30
0.0
 40
0.0048587518965045
 50
282.5527357081472815
 51
347.5096575633871794
  0
ARC
  5
13913
  8
0
 10
374.9639077475882232
 20
59.1894968607944634
 30
0.0
 40
0.1481633255455278
 50
354.5445308654848873
 51
17.6279552051496715
  0
ARC
  5
13914
  8
0
 10
374.8375498706280951
 20
59.1691318255889271
 30
0.0
 40
0.2754013876353667
 50
13.7018225088445593
 51
29.2153859641971501
  0
ARC
  5
13915
  8
0
 10
375.0517790189447851
 20
59.2889559140368831
 30
0.0
 40
0.0299386870670495
 50
29.1820530288056688
 51
57.4419816016881484
  0
ARC
  5
13916
  8
0
 10
375.0664799839158832
 20
59.3106322802863772
 30
0.0
 40
0.0038268456155674
 50
68.3696546647154832
 51
112.2471912354238981
  0
LINE
  5
13917
  8
0
 10
374.0826407086403833
 20
62.6129748023884432
 30
0.0
 11
374.0848622083191799
 21
62.5768244958194586
 31
0.0
  0
LINE
  5
13918
  8
0
 10
374.0976528586065228
 20
62.4632210129862884
 30
0.0
 11
374.100915306710192
 21
62.4229092875649201
 31
0.0
  0
LINE
  5
13919
  8
0
 10
374.1097378372359117
 20
62.2753639842785134
 30
0.0
 11
374.1158126864381188
 21
62.2199784833282905
 31
0.0
  0
LINE
  5
1391A
  8
0
 10
374.0802210757515809
 20
62.5242310142214919
 30
0.0
 11
374.0413022002401249
 21
62.5068967797194404
 31
0.0
  0
ARC
  5
1391B
  8
0
 10
374.0509132914755241
 20
62.4853179287308294
 30
0.0
 40
0.0236224445120433
 50
114.0079054380376959
 51
196.0594193020089051
  0
LINE
  5
1391C
  8
0
 10
374.028212705161593
 20
62.4787831551518735
 30
0.0
 11
374.053521843702697
 21
62.3908639216786725
 31
0.0
  0
LINE
  5
1391D
  8
0
 10
374.1114132782504953
 20
62.2600886849554414
 30
0.0
 11
374.0635810952156817
 21
62.2387726786790907
 31
0.0
  0
ARC
  5
1391E
  8
0
 10
374.0731964805790994
 20
62.2171961757124521
 30
0.0
 40
0.0236220472431485
 50
114.019737040799896
 51
195.9999997968893979
  0
LINE
  5
1391F
  8
0
 10
374.0504895113616044
 20
62.2106850571518706
 30
0.0
 11
374.063061633832092
 21
62.1668408550720599
 31
0.0
  0
LINE
  5
13920
  8
0
 10
374.0972440463434054
 20
62.2043187200470271
 30
0.0
 11
374.0761606509615831
 21
62.1949317876518677
 31
0.0
  0
ARC
  5
13921
  8
0
 10
374.0857686033892833
 20
62.1733519731485202
 30
0.0
 40
0.0236220478335929
 50
113.9999999716014969
 51
196.01221675942611
  0
LINE
  5
13922
  8
0
 10
374.0630630224616198
 20
62.1668360128518671
 30
0.0
 11
374.0875709382423793
 21
62.0814354824931129
 31
0.0
  0
ARC
  5
13923
  8
0
 10
374.1102967821660172
 20
62.0879572577864067
 30
0.0
 40
0.0236431287062091
 50
196.0122167594111033
 51
261.634808157686507
  0
ARC
  5
13924
  8
0
 10
374.165920281265926
 20
61.9286657888698784
 30
0.0
 40
0.0931334732684238
 50
14.6669646297622602
 51
29.0697954140057284
  0
ARC
  5
13925
  8
0
 10
374.2432773173866281
 20
61.9716687646759965
 30
0.0
 40
0.0046271629534667
 50
29.0697954139721908
 51
91.7227949254572934
  0
LINE
  5
13926
  8
0
 10
374.2431382067616141
 20
61.9762938360518731
 30
0.0
 11
374.1990263695615795
 21
61.9563180601518724
 31
0.0
  0
ARC
  5
13927
  8
0
 10
374.2087706575397874
 20
61.9347984727180716
 30
0.0
 40
0.0236209487298125
 50
114.3612172724821932
 51
195.9938795024301044
  0
LINE
  5
13928
  8
0
 10
374.1860640489297793
 20
61.928290082415451
 30
0.0
 11
374.2010263998557207
 21
61.8760891186499222
 31
0.0
  0
LINE
  5
13929
  8
0
 10
374.1520255529351857
 20
61.9353183048231699
 30
0.0
 11
374.172671975863409
 21
61.8633026525851903
 31
0.0
  0
LINE
  5
1392A
  8
0
 10
374.2105495727032007
 20
61.730943736273197
 30
0.0
 11
374.2493107152615721
 21
61.5957675678518726
 31
0.0
  0
LINE
  5
1392B
  8
0
 10
374.2842959430304859
 20
61.6108354323583924
 30
0.0
 11
374.2480702231817986
 21
61.5954118625608302
 31
0.0
  0
ARC
  5
1392C
  8
0
 10
374.2571540785925777
 20
61.5740763866898604
 30
0.0
 40
0.0231887679656734
 50
113.0625084328193992
 51
196.9468355215481949
  0
LINE
  5
1392D
  8
0
 10
374.2349722681616981
 20
61.5673172265518716
 30
0.0
 11
374.259442551661607
 21
61.4819792063518733
 31
0.0
  0
ARC
  5
1392E
  8
0
 10
374.2821692697615958
 20
61.4884214523518722
 30
0.0
 40
0.0236220471999922
 50
196.0000000000036096
 51
278.0000000000205205
  0
LINE
  5
1392F
  8
0
 10
374.2854568233215105
 20
61.4650292932914084
 30
0.0
 11
374.3184118462107222
 21
61.4696608197159122
 31
0.0
  0
ARC
  5
13930
  8
0
 10
374.3155275328791163
 20
61.4744558975085909
 30
0.0
 40
0.0055957157212276
 50
301.0275582285422047
 51
357.0747116976010034
  0
ARC
  5
13931
  8
0
 10
373.7017435778316781
 20
61.5081565216236115
 30
0.0
 40
0.6203041233734502
 50
356.8592163212122159
 51
359.7329468315796248
  0
LINE
  5
13932
  8
0
 10
374.2825474097152778
 20
61.4648024319637472
 30
0.0
 11
374.3314820222806247
 21
61.2941467461090213
 31
0.0
  0
LINE
  5
13933
  8
0
 10
374.3700301898857106
 20
61.1581310416474793
 30
0.0
 11
374.4299914041166062
 21
60.950508551082379
 31
0.0
  0
LINE
  5
13934
  8
0
 10
374.4670292223080992
 20
60.8214383066499025
 30
0.0
 11
374.5246456218171147
 21
60.6197286712071133
 31
0.0
  0
LINE
  5
13935
  8
0
 10
374.5624614821974205
 20
60.488548310826971
 30
0.0
 11
374.614446206849891
 21
60.307334324347778
 31
0.0
  0
LINE
  5
13936
  8
0
 10
374.6474342508615791
 20
60.3222180727518733
 30
0.0
 11
374.614446206849891
 21
60.307334324347778
 31
0.0
  0
ARC
  5
13937
  8
0
 10
374.6229126014800954
 20
60.2885695756368065
 30
0.0
 40
0.0205862971954535
 50
114.2842367268217032
 51
202.7981555046306994
  0
LINE
  5
13938
  8
0
 10
374.6039345958615741
 20
60.2805926755518726
 30
0.0
 11
374.6282535011977188
 21
60.1957825738799173
 31
0.0
  0
ARC
  5
13939
  8
0
 10
374.6511369857904015
 20
60.2017098986755812
 30
0.0
 40
0.0236386769159605
 50
194.5217138673017132
 51
270.9068225024877279
  0
LINE
  5
1393A
  8
0
 10
374.6515111004181904
 20
60.1780741823847194
 30
0.0
 11
374.6993663407629924
 21
60.1846178051931915
 31
0.0
  0
ARC
  5
1393B
  8
0
 10
374.6901606719363258
 20
60.1926352024418065
 30
0.0
 40
0.0122074975806387
 50
318.9467553379187734
 51
24.9548296401863503
  0
ARC
  5
1393C
  8
0
 10
374.3625200709863066
 20
60.1310758182499399
 30
0.0
 40
0.3452152719320099
 50
11.1419906109795903
 51
33.4015190719914088
  0
ARC
  5
1393D
  8
0
 10
374.6480729924491015
 20
60.3186758279050323
 30
0.0
 40
0.0035993734691628
 50
42.7225258870991667
 51
100.2217945904325944
  0
LINE
  5
1393E
  8
0
 10
374.651496510661616
 20
60.1781250628518691
 30
0.0
 11
374.6908757803616936
 21
60.0407933931518727
 31
0.0
  0
LINE
  5
1393F
  8
0
 10
374.7158328301320012
 20
60.0521596368387733
 30
0.0
 11
374.6908757803616936
 21
60.0407933931518727
 31
0.0
  0
ARC
  5
13940
  8
0
 10
374.7029132783982277
 20
60.020624896498191
 30
0.0
 40
0.0234876481634366
 50
120.8307200204961021
 51
196.1328267672691936
  0
LINE
  5
13941
  8
0
 10
374.6803505711616253
 20
60.0140984994518689
 30
0.0
 11
374.7041126691407271
 21
59.9312302158756935
 31
0.0
  0
ARC
  5
13942
  8
0
 10
374.7284025957048925
 20
59.9359352304172717
 30
0.0
 40
0.0247414165787765
 50
190.9625623066484081
 51
226.533691805663409
  0
ARC
  5
13943
  8
0
 10
374.7275427379768757
 20
59.93502806167443
 30
0.0
 40
0.023491492404998
 50
226.533691805672305
 51
281.4295844907533137
  0
LINE
  5
13944
  8
0
 10
374.7321978937180802
 20
59.9120024294260105
 30
0.0
 11
374.7788344010576225
 21
59.9185589671523289
 31
0.0
  0
ARC
  5
13945
  8
0
 10
374.7785943603028045
 20
59.919675726939758
 30
0.0
 40
0.0011422661628202
 50
282.130810339542677
 51
330.4305580640594826
  0
ARC
  5
13946
  8
0
 10
374.7646340770428992
 20
59.9231870365065831
 30
0.0
 40
0.015499066532141
 50
344.7566877844266173
 51
14.6413157202941999
  0
ARC
  5
13947
  8
0
 10
374.3550813764804843
 20
59.8190001440859689
 30
0.0
 40
0.438095874101779
 50
14.2858693159462806
 51
24.8540848143238513
  0
LINE
  5
13948
  8
0
 10
374.7533396095615785
 20
59.8382675966518818
 30
0.0
 11
374.7321978937412723
 21
59.9120024294292719
 31
0.0
  0
LINE
  5
13949
  8
0
 10
374.7784473825220743
 20
59.8494462974626131
 30
0.0
 11
374.7520835865233266
 21
59.837708379146008
 31
0.0
  0
ARC
  5
1394A
  8
0
 10
374.7617213867425221
 20
59.816061525589781
 30
0.0
 40
0.0236954312463012
 50
114.0000001529157032
 51
200.184661588676704
  0
LINE
  5
1394B
  8
0
 10
374.7394812002775097
 20
59.8078854893893492
 30
0.0
 11
374.7634756640172782
 21
59.7242068503923704
 31
0.0
  0
ARC
  5
1394C
  8
0
 10
374.7861826332155033
 20
59.7307179690917565
 30
0.0
 40
0.0236220472628135
 50
196.0000001334213948
 51
277.9999996999582095
  0
LINE
  5
1394D
  8
0
 10
374.7894701866616174
 20
59.7073258099518682
 30
0.0
 11
374.8064276719754275
 21
59.7097090290017789
 31
0.0
  0
ARC
  5
1394E
  8
0
 10
374.7985511372615974
 20
59.6875838690518918
 30
0.0
 40
0.023622047199985
 50
124.231771722807693
 51
196.0000000000329123
  0
LINE
  5
1394F
  8
0
 10
374.7758441681086197
 20
59.6810727504226719
 30
0.0
 11
374.7864004492757886
 21
59.6442586230071115
 31
0.0
  0
LINE
  5
13950
  8
0
 10
374.8734592897794755
 20
59.5310580072585367
 30
0.0
 11
374.8845509136033911
 21
59.4923771047965815
 31
0.0
  0
ARC
  5
13951
  8
0
 10
374.9072593579044792
 20
59.4988886778412507
 30
0.0
 40
0.023623590457207
 50
196.0000732612195122
 51
277.8716986325794096
  0
LINE
  5
13952
  8
0
 10
374.9104947329985862
 20
59.4754876869628575
 30
0.0
 11
374.9465300734780726
 21
59.4804698624484587
 31
0.0
  0
ARC
  5
13953
  8
0
 10
374.1496514740114208
 20
59.1254661505525902
 30
0.0
 40
0.8955076904469894
 50
25.2918767944192808
 51
33.2393195751494517
  0
ARC
  5
13954
  8
0
 10
374.8959264949056092
 20
59.6145466091095528
 30
0.0
 40
0.0032487023987422
 50
33.2393195751598327
 51
108.6377982419326003
  0
LINE
  5
13955
  8
0
 10
374.8948882600184902
 20
59.6176249423590434
 30
0.0
 11
374.8699037295689891
 21
59.6054044459939902
 31
0.0
  0
LINE
  5
13956
  8
0
 10
374.9314043127457126
 20
59.328979697251917
 30
0.0
 11
374.9379350461719014
 21
59.3062043232315617
 31
0.0
  0
ARC
  5
13957
  8
0
 10
374.9681950744496248
 20
59.3148812467356095
 30
0.0
 40
0.0314794903526417
 50
196.0000000393422113
 51
265.2653062496474945
  0
LINE
  5
13958
  8
0
 10
374.9655966950616062
 20
59.283509177351867
 30
0.0
 11
375.0191654566615966
 21
59.2910377757518674
 31
0.0
  0
LINE
  5
13959
  8
0
 10
375.0191654566615966
 20
59.2910377757518674
 30
0.0
 11
374.9944954329399138
 21
59.3382740914934814
 31
0.0
  0
LINE
  5
1395A
  8
0
 10
374.9810566840426986
 20
59.3363929312976524
 30
0.0
 11
375.0046823148616113
 21
59.3397000543518729
 31
0.0
  0
ARC
  5
1395B
  8
0
 10
375.0036544270051877
 20
59.3404354702381767
 30
0.0
 40
0.001263878938507
 50
324.4176761322643756
 51
20.0089541817179715
  0
LINE
  5
1395C
  8
0
 10
375.0048420171473254
 20
59.3408679278956797
 30
0.0
 11
374.9908620168570792
 21
59.376745133786109
 31
0.0
  0
ARC
  5
1395D
  8
0
 10
375.0670144453704893
 20
59.1602079697516814
 30
0.0
 40
0.02128138083175
 50
144.9168748871022956
 51
193.3800439731753897
  0
LINE
  5
1395E
  8
0
 10
375.0463107149200823
 20
59.1552832651372498
 30
0.0
 11
375.0718020047528967
 21
59.0661773600304301
 31
0.0
  0
ARC
  5
1395F
  8
0
 10
375.0945399019752244
 20
59.0726000774400717
 30
0.0
 40
0.0236275954978673
 50
195.7732624470494045
 51
277.9715009614358223
  0
LINE
  5
13960
  8
0
 10
375.0978165892615834
 20
59.0492007913518719
 30
0.0
 11
375.153220080186486
 21
59.0569591440492516
 31
0.0
  0
LINE
  5
13961
  8
0
 10
375.153220080186486
 20
59.0569591440492516
 30
0.0
 11
375.0915542102334825
 21
59.1697435565311167
 31
0.0
  0
LINE
  5
13962
  8
0
 10
375.129543335810979
 20
59.0535805618450169
 30
0.0
 11
375.2576917397159946
 21
58.8393206693404522
 31
0.0
  0
ARC
  5
13963
  8
0
 10
374.1604031802735904
 20
61.9187334764119015
 30
0.0
 40
0.007874015596134
 50
132.8694885238737129
 51
184.2027949838530958
  0
LINE
  5
13964
  8
0
 10
374.1525503386664013
 20
61.9181564146300687
 30
0.0
 11
374.1583479987551755
 21
61.8460569619396097
 31
0.0
  0
ARC
  5
13965
  8
0
 10
374.1810073658347164
 20
61.8405509881347086
 30
0.0
 40
0.0232805254521727
 50
132.2819780772288141
 51
166.6229952760197079
  0
ARC
  5
13966
  8
0
 10
374.1840848147663223
 20
61.8398191414720628
 30
0.0
 40
0.0264437977237574
 50
166.622995276020788
 51
203.5462645535739057
  0
LINE
  5
13967
  8
0
 10
374.1598427858696141
 20
61.8292551236274335
 30
0.0
 11
374.1626506818615781
 21
61.7992194350518673
 31
0.0
  0
ARC
  5
13968
  8
0
 10
374.1587334304504111
 20
61.7988222998313503
 30
0.0
 40
0.0039373309490733
 50
288.5017058603734199
 51
5.7889295716341822
  0
LINE
  5
13969
  8
0
 10
374.159982875061587
 20
61.7950884729518819
 30
0.0
 11
374.118955410861588
 21
61.7813615613518721
 31
0.0
  0
ARC
  5
1396A
  8
0
 10
374.123952343599683
 20
61.7664273321703803
 30
0.0
 40
0.0157480328337694
 50
108.4976866311432957
 51
196.018243642104494
  0
LINE
  5
1396B
  8
0
 10
374.1088157457616035
 20
61.7620817661518728
 30
0.0
 11
374.2223122071358148
 21
61.3667476981491333
 31
0.0
  0
ARC
  5
1396C
  8
0
 10
374.2374602520019948
 20
61.3710965504950323
 30
0.0
 40
0.0157599422585956
 50
196.018243642113589
 51
282.9818329697415038
  0
LINE
  5
1396D
  8
0
 10
374.2410005984503982
 20
61.3557394112099885
 30
0.0
 11
374.2475521300237915
 21
61.3572497635683831
 31
0.0
  0
ARC
  5
1396E
  8
0
 10
374.2434635217700247
 20
61.3623274670806822
 30
0.0
 40
0.0065191863304762
 50
308.8413008456284956
 51
353.0600633534355097
  0
ARC
  5
1396F
  8
0
 10
373.9681778676176123
 20
61.3872386027242385
 30
0.0
 40
0.2829266349034961
 50
354.7885168155273732
 51
7.11283276966416
  0
ARC
  5
13970
  8
0
 10
373.1533835654764175
 20
61.316653704449557
 30
0.0
 40
1.100622970619199
 50
5.5066886184665167
 51
12.9594563427227207
  0
ARC
  5
13971
  8
0
 10
374.0387347119049082
 20
61.5245607814762892
 30
0.0
 40
0.1912401754891543
 50
11.74259840327408
 51
24.856771042429429
  0
ARC
  5
13972
  8
0
 10
374.2082602757898258
 20
61.6032753756359313
 30
0.0
 40
0.0043344727702268
 50
22.7110428087408316
 51
85.049708515342715
  0
LINE
  5
13973
  8
0
 10
374.2086343036615972
 20
61.6075936805518722
 30
0.0
 11
374.1722903859667895
 21
61.595433175740169
 31
0.0
  0
ARC
  5
13974
  8
0
 10
374.1772851961329138
 20
61.5804658773472582
 30
0.0
 40
0.0157787245929043
 50
108.4546214104669986
 51
190.125181830325289
  0
LINE
  5
13975
  8
0
 10
374.1904673535119059
 20
61.4776705883933232
 30
0.0
 11
374.1707443354143834
 21
61.4708388335653311
 31
0.0
  0
ARC
  5
13976
  8
0
 10
374.1733215440245885
 20
61.4633985296701582
 30
0.0
 40
0.0078740158923089
 50
109.1053109032684034
 51
154.8070825442482032
  0
LINE
  5
13977
  8
0
 10
374.1661965070616134
 20
61.4667502418518694
 30
0.0
 11
374.1507180799553112
 21
61.4338463529492174
 31
0.0
  0
ARC
  5
13978
  8
0
 10
374.1685619859936764
 20
61.4254523421462935
 30
0.0
 40
0.0197196450289507
 50
154.8070825442470948
 51
190.8940577696945127
  0
LINE
  5
13979
  8
0
 10
374.1491977221211869
 20
61.4217254554104173
 30
0.0
 11
374.1499262013375073
 21
61.4179404024236675
 31
0.0
  0
LINE
  5
1397A
  8
0
 10
374.1503067343728048
 20
61.4180805578357294
 30
0.0
 11
374.1436507639616025
 21
61.4158847709518696
 31
0.0
  0
ARC
  5
1397B
  8
0
 10
374.1455010902388949
 20
61.4102759766544892
 30
0.0
 40
0.0059061223152415
 50
108.2575850507675028
 51
189.7119443823006861
  0
LINE
  5
1397C
  8
0
 10
374.139679612561622
 20
61.4092796441518729
 30
0.0
 11
374.1734319819763073
 21
61.2338283316173531
 31
0.0
  0
LINE
  5
1397D
  8
0
 10
374.1537290187387725
 20
61.3314070947518175
 30
0.0
 11
374.125552898535318
 21
61.3209720088187922
 31
0.0
  0
ARC
  5
1397E
  8
0
 10
374.1296548588616133
 20
61.3098961702518679
 30
0.0
 40
0.0118110235999955
 50
110.3222174383198961
 51
196.0000000000241016
  0
LINE
  5
1397F
  8
0
 10
374.1183013742851244
 20
61.3066406109372792
 30
0.0
 11
374.1825773644470132
 21
61.0824835944550131
 31
0.0
  0
ARC
  5
13980
  8
0
 10
374.1939308490777876
 20
61.0857391537851768
 30
0.0
 40
0.0118110236565034
 50
196.0000000000356124
 51
281.9996924424957001
  0
LINE
  5
13981
  8
0
 10
374.1963864369615749
 20
61.0741862161518725
 30
0.0
 11
374.2109828377850249
 21
61.0772886950318821
 31
0.0
  0
LINE
  5
13982
  8
0
 10
374.1661965070616134
 20
61.4667502418518694
 30
0.0
 11
374.516807092561578
 21
60.2440258218518707
 31
0.0
  0
LINE
  5
13983
  8
0
 10
374.7032447809615974
 20
59.9342640196518701
 30
0.0
 11
374.6664115728979141
 21
60.008924217414787
 31
0.0
  0
LINE
  5
13984
  8
0
 10
374.6705571886615758
 20
60.0099195263518723
 30
0.0
 11
374.6297195805846059
 21
60.0001152494573873
 31
0.0
  0
ARC
  5
13985
  8
0
 10
374.6260432664462883
 20
60.0154281458150507
 30
0.0
 40
0.015748018304024
 50
195.9999542044627958
 51
283.5000459300487137
  0
LINE
  5
13986
  8
0
 10
374.6109052961941757
 20
60.0110874157898806
 30
0.0
 11
374.550849438000796
 21
60.2205277148928673
 31
0.0
  0
ARC
  5
13987
  8
0
 10
374.5659886340346816
 20
60.2248687964042517
 30
0.0
 40
0.0157492934838549
 50
109.4742509314424979
 51
195.9999542044770067
  0
ARC
  5
13988
  8
0
 10
374.5904553482375832
 20
60.1556781226628274
 30
0.0
 40
0.0891384577840235
 50
107.2994934071484039
 51
109.4742509314391015
  0
ARC
  5
13989
  8
0
 10
374.5629681116374741
 20
60.2439322273938629
 30
0.0
 40
0.0032971153346884
 50
287.2994934071926991
 51
342.7176361513190272
  0
ARC
  5
1398A
  8
0
 10
374.5723888711044083
 20
60.2445407585555088
 30
0.0
 40
0.0064704055973307
 50
168.4836698397043904
 51
194.2073359406682016
  0
ARC
  5
1398B
  8
0
 10
374.5664732078702741
 20
60.2456160884205474
 30
0.0
 40
0.0004764884056148
 50
56.3910848220760599
 51
152.980104112510503
  0
ARC
  5
1398C
  8
0
 10
374.5275496341506027
 20
60.2091276572424405
 30
0.0
 40
0.0538160665063634
 50
27.7558508844436815
 51
43.266686241742697
  0
ARC
  5
1398D
  8
0
 10
373.8650440825883265
 20
59.8319187261092935
 30
0.0
 40
0.8161532946383292
 50
25.9361569350581611
 51
29.5305119827863116
  0
ARC
  5
1398E
  8
0
 10
372.8967666120134936
 20
59.3429252399588805
 30
0.0
 40
1.900847968397025
 50
21.004812381513279
 51
26.4259168968064984
  0
ARC
  5
1398F
  8
0
 10
374.5960500816456147
 20
59.9955922678192906
 30
0.0
 40
0.0805354521046878
 50
9.6399674649830605
 51
20.8656995758007291
  0
ARC
  5
13990
  8
0
 10
374.6737321713848132
 20
60.0088679739836195
 30
0.0
 40
0.0017290176741689
 50
325.2602441537416098
 51
6.9921417179136078
  0
ARC
  5
13991
  8
0
 10
374.6748731884384824
 20
60.0082990118345805
 30
0.0
 40
0.0005016070686655
 50
246.4323942015745104
 51
303.9044479149641802
  0
ARC
  5
13992
  8
0
 10
374.6712958214412765
 20
60.0062698207201279
 30
0.0
 40
0.0037236983741564
 50
24.9273697089391284
 51
101.4410721921937011
  0
ARC
  5
13993
  8
0
 10
374.5393630196800245
 20
60.232849219974419
 30
0.0
 40
0.0224513049079065
 50
17.8123742169572488
 51
41.8803073409380886
  0
ARC
  5
13994
  8
0
 10
374.5514217191009152
 20
60.24148813741688
 30
0.0
 40
0.0078740158447604
 50
53.7388387446329503
 51
102.999997496872993
  0
LINE
  5
13995
  8
0
 10
374.5496504512698834
 20
60.2491603428230533
 30
0.0
 11
374.5234166889310927
 21
60.2431038015818814
 31
0.0
  0
ARC
  5
13996
  8
0
 10
374.5211138725694013
 20
60.2507476206370569
 30
0.0
 40
0.0079831655966697
 50
237.3515667026115921
 51
286.7657240471020259
  0
LINE
  5
13997
  8
0
 10
374.516807092561578
 20
60.2440258218518707
 30
0.0
 11
374.4862440991283847
 21
60.2637276281710328
 31
0.0
  0
ARC
  5
13998
  8
0
 10
374.4971904632591873
 20
60.2806376434205404
 30
0.0
 40
0.0201437703053035
 50
198.1140101372768072
 51
237.0845894769315123
  0
LINE
  5
13999
  8
0
 10
374.4780450235347757
 20
60.2743747670947769
 30
0.0
 11
374.47147053935862
 21
60.2727355640626072
 31
0.0
  0
ARC
  5
1399A
  8
0
 10
374.4700631917892792
 20
60.2786562117854103
 30
0.0
 40
0.006085613919236
 50
192.716983742725688
 51
283.3711532460648073
  0
LINE
  5
1399B
  8
0
 10
374.4641268620338224
 20
60.2773165529451873
 30
0.0
 11
374.4584423270728166
 21
60.2911333275070618
 31
0.0
  0
ARC
  5
1399C
  8
0
 10
374.4547080874937137
 20
60.2866137079600719
 30
0.0
 40
0.005862721729902
 50
50.4355037297977304
 51
102.1800291979133988
  0
LINE
  5
1399D
  8
0
 10
374.4534711464306724
 20
60.2923444568543019
 30
0.0
 11
374.4224650750715
 21
60.2857563082696402
 31
0.0
  0
ARC
  5
1399E
  8
0
 10
374.4200064171052986
 20
60.2973041357319133
 30
0.0
 40
0.0118066641390946
 50
195.9916663265620116
 51
282.0194213216454955
  0
LINE
  5
1399F
  8
0
 10
374.4086566498850743
 20
60.2940514288372782
 30
0.0
 11
374.3475629478865017
 21
60.507227506105032
 31
0.0
  0
ARC
  5
139A0
  8
0
 10
374.3594754968040093
 20
60.5087138250951568
 30
0.0
 40
0.0120049142375981
 50
110.3279444028031975
 51
187.1119945710615866
  0
LINE
  5
139A1
  8
0
 10
374.3553050731616167
 20
60.5199710686518628
 30
0.0
 11
374.4062772027966162
 21
60.5385234068898725
 31
0.0
  0
ARC
  5
139A2
  8
0
 10
374.4234982839719237
 20
60.5462777480228027
 30
0.0
 40
0.0584072397685339
 50
178.8410685535623941
 51
201.4204124166926135
  0
ARC
  5
139A3
  8
0
 10
374.3729457933603726
 20
60.54583298641748
 30
0.0
 40
0.0080096013408094
 50
100.7378278051382949
 51
168.2864939091506926
  0
LINE
  5
139A4
  8
0
 10
374.3714533455395781
 20
60.5537022953256567
 30
0.0
 11
374.3150390870242177
 21
60.7347419745436099
 31
0.0
  0
LINE
  5
139A5
  8
0
 10
374.3169175812615777
 20
60.73515028705188
 30
0.0
 11
374.2949452202989278
 21
60.7304708912876734
 31
0.0
  0
ARC
  5
139A6
  8
0
 10
374.2924860805442222
 20
60.7420179176709425
 30
0.0
 40
0.0118059809685094
 50
195.9771749360249942
 51
282.0225178296118997
  0
LINE
  5
139A7
  8
0
 10
374.2811361477851051
 20
60.7387682695372675
 30
0.0
 11
374.2471056560190732
 21
60.8576253818817676
 31
0.0
  0
ARC
  5
139A8
  8
0
 10
374.2584778125423099
 20
60.8608813929970722
 30
0.0
 40
0.0118290976989699
 50
110.3211437846245957
 51
195.9771749360415072
  0
LINE
  5
139A9
  8
0
 10
374.2543697829599978
 20
60.8719742576100771
 30
0.0
 11
374.2744412064733979
 21
60.8792796583963423
 31
0.0
  0
ARC
  5
139AA
  8
0
 10
374.273982378895596
 20
60.8823762346872783
 30
0.0
 40
0.003130384556517
 50
278.428336613981628
 51
11.0286061408510392
  0
ARC
  5
139AB
  8
0
 10
374.2810972830744731
 20
60.8837629188047771
 30
0.0
 40
0.0041183914999408
 50
146.1383529344714987
 51
191.0286061408708065
  0
ARC
  5
139AC
  8
0
 10
374.2784657833182109
 20
60.8855286575259598
 30
0.0
 40
0.0009493815284798
 50
29.7946779306574783
 51
146.1383529345930867
  0
ARC
  5
139AD
  8
0
 10
374.0883902461440016
 20
60.7766948163171676
 30
0.0
 40
0.2199779523230794
 50
16.0304667506007412
 51
29.7946779306585299
  0
ARC
  5
139AE
  8
0
 10
372.3769350573920178
 20
60.2849579021779007
 30
0.0
 40
2.0006755841048509
 50
13.3138904448254998
 51
16.0304667506007412
  0
ARC
  5
139AF
  8
0
 10
374.2954161711135157
 20
60.7389587434027618
 30
0.0
 40
0.0292074642665514
 50
344.3881321974648131
 51
13.3138904448251001
  0
ARC
  5
139B0
  8
0
 10
374.3249656392230804
 20
60.7350616356158213
 30
0.0
 40
0.0042097487459807
 50
207.7808333794023099
 51
250.2931615186701038
  0
ARC
  5
139B1
  8
0
 10
374.3181434456661805
 20
60.7321517834763966
 30
0.0
 40
0.0032394084692387
 50
17.0113935737735282
 51
112.2359904967793938
  0
LINE
  5
139B2
  8
0
 10
374.2081983407616121
 20
61.0879432090518719
 30
0.0
 11
374.2115714281616192
 21
61.0750824811518811
 31
0.0
  0
LINE
  5
139B3
  8
0
 10
374.2464410527026075
 20
61.087778121855159
 30
0.0
 11
374.1975879928269251
 21
61.0699929269060178
 31
0.0
  0
ARC
  5
139B4
  8
0
 10
374.2016284314635186
 20
61.0588944941251626
 30
0.0
 40
0.0118110268210463
 50
110.0042825048675041
 51
196.0412393543622045
  0
LINE
  5
139B5
  8
0
 10
374.1902772899616139
 20
61.0556307629518713
 30
0.0
 11
374.2357623903272952
 21
60.8974351938117806
 31
0.0
  0
ARC
  5
139B6
  8
0
 10
374.2465695765134228
 20
60.9021111036146294
 30
0.0
 40
0.0117753728495616
 50
203.3965290480240071
 51
282.06180083941058
  0
LINE
  5
139B7
  8
0
 10
374.2490302364615786
 20
60.8905956983518735
 30
0.0
 11
374.3006304848805144
 21
60.9015636696956832
 31
0.0
  0
LINE
  5
139B8
  8
0
 10
374.1491134599323232
 20
61.4222308673315709
 30
0.0
 11
374.4862443332756925
 21
60.2637274772328198
 31
0.0
  0
ARC
  5
139B9
  8
0
 10
374.1569064992169729
 20
61.2151131769874226
 30
0.0
 40
0.0119872152824748
 50
110.2779362742365947
 51
188.3759686153038047
  0
LINE
  5
139BA
  8
0
 10
374.1527520365630153
 20
61.2263574542111684
 30
0.0
 11
374.1784709286544057
 21
61.2356487113202803
 31
0.0
  0
ARC
  5
139BB
  8
0
 10
374.1771552733878821
 20
61.2396630109361197
 30
0.0
 40
0.004224399387568
 50
288.1461517864926805
 51
9.4768627433666115
  0
ARC
  5
139BC
  8
0
 10
374.1831138477231775
 20
61.2406576608973907
 30
0.0
 40
0.0018166217722856
 50
114.7894255711870954
 51
189.4768627435242081
  0
ARC
  5
139BD
  8
0
 10
374.1802736231480253
 20
61.2395411064818305
 30
0.0
 40
0.0034597542099515
 50
27.9719170266146193
 51
53.0743837942546079
  0
ARC
  5
139BE
  8
0
 10
374.0889972493155824
 20
61.1969767342010869
 30
0.0
 40
0.1041682272652865
 50
15.4316194585169093
 51
25.0994103224698684
  0
ARC
  5
139BF
  8
0
 10
373.6376222644552172
 20
61.0590445411795884
 30
0.0
 40
0.5761160934157599
 50
13.1389638479991593
 51
16.7100824073481391
  0
ARC
  5
139C0
  8
0
 10
373.5260948729725214
 20
61.0117646956674093
 30
0.0
 40
0.6957789341143399
 50
6.6657641890636334
 51
14.8430248958636106
  0
ARC
  5
139C1
  8
0
 10
374.1833544293779141
 20
61.0885768259647577
 30
0.0
 40
0.0340461875716027
 50
353.63308679048248
 51
6.6657641890628261
  0
ARC
  5
139C2
  8
0
 10
374.2159483881983988
 20
61.0849398854286179
 30
0.0
 40
0.0012499455908728
 50
304.3147224857301012
 51
353.6330867904486013
  0
ARC
  5
139C3
  8
0
 10
374.2165622674634164
 20
61.0844729772079873
 30
0.0
 40
0.0005727262431794
 50
225.1965372995358052
 51
279.118405788634675
  0
ARC
  5
139C4
  8
0
 10
374.2100566835737254
 20
61.081845639995251
 30
0.0
 40
0.0064936184901871
 50
20.0002206016457507
 51
93.4175768487565961
  0
LINE
  5
139C5
  8
0
 10
374.2096695820616219
 20
61.0883277101518729
 30
0.0
 11
374.1933274738958062
 21
61.0848540878870168
 31
0.0
  0
ARC
  5
139C6
  8
0
 10
374.1908785308725101
 20
61.0964682868584887
 30
0.0
 40
0.0118695804353161
 50
200.418891223896992
 51
281.9071423984876219
  0
LINE
  5
139C7
  8
0
 10
374.2322377284615982
 20
61.3561100559518735
 30
0.0
 11
374.3000599121616006
 21
61.119585992951869
 31
0.0
  0
LINE
  5
139C8
  8
0
 10
374.3308846067615718
 20
61.1326147164518829
 30
0.0
 11
374.307220656830907
 21
61.1246061865512402
 31
0.0
  0
ARC
  5
139C9
  8
0
 10
374.3122041842182171
 20
61.1098806446560587
 30
0.0
 40
0.0155459682659683
 50
108.6972296871529977
 51
141.3691708104620943
  0
ARC
  5
139CA
  8
0
 10
374.3125630742821954
 20
61.1095938301764079
 30
0.0
 40
0.0160053859666962
 50
141.369170810466386
 51
195.3814451015095983
  0
LINE
  5
139CB
  8
0
 10
374.2971309795942148
 20
61.1053484993898905
 30
0.0
 11
374.3571835054398207
 21
60.8959204533602616
 31
0.0
  0
ARC
  5
139CC
  8
0
 10
374.3723249921724801
 20
60.9002490089630726
 30
0.0
 40
0.0157480479452264
 50
195.9538496467372113
 51
251.1088432184930923
  0
ARC
  5
139CD
  8
0
 10
374.3723249844288148
 20
60.9002489863338567
 30
0.0
 40
0.0157480240277058
 50
251.1088432184932913
 51
283.5000076094751194
  0
LINE
  5
139CE
  8
0
 10
374.3760012896615876
 20
60.8849360819518708
 30
0.0
 11
374.3943653241586844
 21
60.8893448991451578
 31
0.0
  0
ARC
  5
139CF
  8
0
 10
374.3879023087366136
 20
60.8985854738130712
 30
0.0
 40
0.0112764705710752
 50
304.969597347586614
 51
358.5233613190106894
  0
ARC
  5
139D0
  8
0
 10
373.9354065244912135
 20
60.8962358203774698
 30
0.0
 40
0.463773081027845
 50
0.2543834220224515
 51
17.4365897557620713
  0
ARC
  5
139D1
  8
0
 10
373.9601605489932012
 20
60.9255480982956428
 30
0.0
 40
0.4318622017243444
 50
14.7094529233491897
 51
26.5905401886977515
  0
ARC
  5
139D2
  8
0
 10
374.3135746098956247
 20
61.1030610665867329
 30
0.0
 40
0.0363766431759486
 50
25.7322325818784492
 51
54.5135595455249771
  0
ARC
  5
139D3
  8
0
 10
374.3328671746012901
 20
61.1280970400134223
 30
0.0
 40
0.0049335560847859
 50
68.2964507667330736
 51
113.6941143963609022
  0
LINE
  5
139D4
  8
0
 10
374.3672262132005812
 20
60.8853492281901723
 30
0.0
 11
374.4535770244615946
 21
60.5842081982518721
 31
0.0
  0
LINE
  5
139D5
  8
0
 10
374.4719421750615993
 20
60.5930006482518735
 30
0.0
 11
374.4607612516330164
 21
60.5892363184849714
 31
0.0
  0
ARC
  5
139D6
  8
0
 10
374.4657219424627215
 20
60.5745019281009505
 30
0.0
 40
0.0155470483853508
 50
108.6070576756591066
 51
141.3680030228844942
  0
ARC
  5
139D7
  8
0
 10
374.4660794828906205
 20
60.5742161802694099
 30
0.0
 40
0.0160047458627493
 50
141.3680030228744045
 51
195.3826127301645954
  0
ARC
  5
139D8
  8
0
 10
384.1981517245724831
 20
63.2516983383318774
 30
0.0
 40
10.1096730990462795
 50
195.3826127301645954
 51
196.6173872797479021
  0
ARC
  5
139D9
  8
0
 10
374.5259764286727773
 20
60.3651013403298222
 30
0.0
 40
0.015941520314496
 50
196.6173872797577928
 51
282.8374250740646971
  0
LINE
  5
139DA
  8
0
 10
374.5295184018817736
 20
60.3495582873567287
 30
0.0
 11
374.5613894197616105
 21
60.3572098417518674
 31
0.0
  0
ARC
  5
139DB
  8
0
 10
374.5558122565561803
 20
60.36433596256974
 30
0.0
 40
0.0090491075433278
 50
308.0480352210054207
 51
10.6783885172088198
  0
ARC
  5
139DC
  8
0
 10
374.2063207386693193
 20
60.326220222165631
 30
0.0
 40
0.3605862966697416
 50
6.3357806064681501
 51
20.4985732652633317
  0
ARC
  5
139DD
  8
0
 10
374.0808726231729224
 20
60.3183050083676804
 30
0.0
 40
0.4822474173846718
 50
16.1559653545236195
 51
33.994146901935018
  0
ARC
  5
139DE
  8
0
 10
374.4711172246788919
 20
60.5814703165727479
 30
0.0
 40
0.0115598050054611
 50
33.9941469019439282
 51
85.9076829772032511
  0
LINE
  5
139DF
  8
0
 10
374.5206785613503939
 20
60.3500658931542233
 30
0.0
 11
374.5496504512615843
 21
60.2491603428518729
 31
0.0
  0
ARC
  5
139E0
  8
0
 10
374.3781229412359153
 20
60.4433849908536232
 30
0.0
 40
0.0118110235752964
 50
109.9999999910684068
 51
192.4858349769845915
  0
LINE
  5
139E1
  8
0
 10
374.3740833332615807
 20
60.4544837225518705
 30
0.0
 11
374.3879706357831196
 21
60.4595382873014771
 31
0.0
  0
ARC
  5
139E2
  8
0
 10
374.386032151987024
 20
60.4648642277616375
 30
0.0
 40
0.0056677474549111
 50
289.9999999910475026
 51
6.0156967598598667
  0
ARC
  5
139E3
  8
0
 10
374.3964604842954031
 20
60.4673045775865177
 30
0.0
 40
0.0051352088896023
 50
185.172422683140411
 51
201.0725664877425061
  0
ARC
  5
139E4
  8
0
 10
374.3914760627915257
 20
60.4668894824774981
 30
0.0
 40
0.0001384142251728
 50
60.6776292186508996
 51
200.2292924109422927
  0
ARC
  5
139E5
  8
0
 10
374.384284378579423
 20
60.4619806248607219
 30
0.0
 40
0.0088315423169088
 50
28.0499654842755994
 51
34.7151661425325173
  0
ARC
  5
139E6
  8
0
 10
372.9331941187620032
 20
59.8276975605269783
 30
0.0
 40
1.5924648609539309
 50
20.69412815537342
 51
23.6351159667798107
  0
ARC
  5
139E7
  8
0
 10
372.3910203240566261
 20
59.5996775056456372
 30
0.0
 40
2.1803433734575091
 50
19.4256741283375689
 51
21.264783016367641
  0
ARC
  5
139E8
  8
0
 10
374.3445818314369262
 20
60.2883832427091022
 30
0.0
 40
0.1089387379013332
 50
14.7869212695869106
 51
19.5427170299598991
  0
ARC
  5
139E9
  8
0
 10
374.448751694591806
 20
60.3158415670834529
 30
0.0
 40
0.0012113440867552
 50
342.9906796547497834
 51
16.5755383428364205
  0
ARC
  5
139EA
  8
0
 10
374.4499334739771257
 20
60.3156146211595683
 30
0.0
 40
0.0001295404543052
 50
225.1261624215001973
 51
259.582745348168487
  0
ARC
  5
139EB
  8
0
 10
374.1286061175773057
 20
60.1123980754602911
 30
0.0
 40
0.3800686829395183
 50
32.30609109483418
 51
32.6296596497267828
  0
ARC
  5
139EC
  8
0
 10
374.4444372914770724
 20
60.3133494895356392
 30
0.0
 40
0.0058273627567068
 50
43.1340236512107111
 51
102.0141118835455956
  0
LINE
  5
139ED
  8
0
 10
374.4432243107615932
 20
60.3190492118518691
 30
0.0
 11
374.4146587730616034
 21
60.3129803476518731
 31
0.0
  0
ARC
  5
139EE
  8
0
 10
374.4122183950817089
 20
60.3248564508861733
 30
0.0
 40
0.0121242431812028
 50
206.6656459829906112
 51
281.6118696818264198
  0
LINE
  5
139EF
  8
0
 10
374.4473630356627041
 20
60.3183891500061833
 30
0.0
 11
374.4584423270728735
 21
60.2911333275068486
 31
0.0
  0
LINE
  5
139F0
  8
0
 10
374.2566467300857767
 20
60.8922146340424817
 30
0.0
 11
374.2628855095044855
 21
60.8750737286242867
 31
0.0
  0
LINE
  5
139F1
  8
0
 10
374.3714534819616233
 20
60.5537023396518705
 30
0.0
 11
374.3994861272964272
 21
60.5618599939881719
 31
0.0
  0
ARC
  5
139F2
  8
0
 10
374.7080621555447806
 20
59.7853834502878172
 30
0.0
 40
0.095173903774526
 50
25.2380848279142391
 51
42.3077793071989205
  0
LINE
  5
139F3
  8
0
 10
375.1503416631931032
 20
59.056567888116021
 30
0.0
 11
375.2855149549100133
 21
58.8471414224538307
 31
0.0
  0
LINE
  5
139F4
  8
0
 10
374.0764211614073815
 20
63.08964154300795
 30
0.0
 11
374.0652807855396986
 21
63.1273766182322689
 31
0.0
  0
ARC
  5
139F5
  8
0
 10
374.2180828025901747
 20
63.1724877487432934
 30
0.0
 40
0.1593219084454612
 50
52.403277188400132
 51
196.4479714494140978
  0
LINE
  5
139F6
  8
0
 10
374.3152850743550744
 20
63.29872240671979
 30
0.0
 11
374.6563673078073862
 21
63.3832083000079507
 31
0.0
  0
ARC
  5
139F7
  8
0
 10
374.6662774921028927
 20
63.3336859082796479
 30
0.0
 40
0.0505042476952422
 50
69.4214153101794409
 51
101.3162800222105062
  0
ARC
  5
139F8
  8
0
 10
374.7186904657791047
 20
63.4732867733062633
 30
0.0
 40
0.0986115506822524
 50
249.4214153101794125
 51
266.0863427136097812
  0
ARC
  5
139F9
  8
0
 10
374.7140187335455153
 20
63.4049992107058813
 30
0.0
 40
0.0301643718655757
 50
266.0863427136097812
 51
286.839588554524596
  0
LINE
  5
139FA
  8
0
 10
374.722757146607421
 20
63.3761283003079612
 30
0.0
 11
374.777256634015373
 21
63.3916555179037076
 31
0.0
  0
ARC
  5
139FB
  8
0
 10
374.8527763262073904
 20
63.1266141475079507
 30
0.0
 40
0.2755905512
 50
35.7359194711000114
 51
105.9025575578865954
  0
ARC
  5
139FC
  8
0
 10
370.1932493720843809
 20
59.7739729464547409
 30
0.0
 40
6.0159210694887939
 50
19.0462097837416806
 51
35.7359194711000114
  0
ARC
  5
139FD
  8
0
 10
369.5337073239103916
 20
59.546279246261733
 30
0.0
 40
6.7136603721063484
 50
357.110096195891515
 51
19.0462097837412898
  0
ARC
  5
139FE
  8
0
 10
375.9704856881534738
 20
59.2213432582320394
 30
0.0
 40
0.2686856548009739
 50
284.8616570380698931
 51
357.110096195891515
  0
LINE
  5
139FF
  8
0
 10
376.0393998040477186
 20
58.9616456923474885
 30
0.0
 11
375.9849020221059845
 21
58.9461189607208524
 31
0.0
  0
ARC
  5
13A00
  8
0
 10
375.999769531909692
 20
58.9023065425132373
 30
0.0
 40
0.0462663034720026
 50
108.744368665813198
 51
137.9722376238115089
  0
ARC
  5
13A01
  8
0
 10
375.5585521022707098
 20
59.2999677843458528
 30
0.0
 40
0.5477095238754847
 50
315.7559475157913198
 51
317.9722376238115089
  0
ARC
  5
13A02
  8
0
 10
375.9105085087348925
 20
58.9571782303763712
 30
0.0
 40
0.056407182784177
 50
292.6195537234158905
 51
315.755947515791604
  0
LINE
  5
13A03
  8
0
 10
375.9322032962073763
 20
58.9051099438079575
 30
0.0
 11
375.5978093041251213
 21
58.7971487736813998
 31
0.0
  0
ARC
  5
13A04
  8
0
 10
375.4523752591088055
 20
58.849184782721828
 30
0.0
 40
0.154462965424685
 50
190.831011685788809
 51
340.3128927312870928
  0
LINE
  5
13A05
  8
0
 10
374.3152850742895907
 20
63.2987224067702385
 30
0.0
 11
375.5978093041251213
 21
58.7971487736813998
 31
0.0
  0
LINE
  5
13A06
  8
0
 10
374.6563673078073862
 20
63.3832083000079507
 30
0.0
 11
375.9322032962073763
 21
58.9051099438079575
 31
0.0
  0
LINE
  5
13A07
  8
0
 10
375.9849020221059845
 20
58.9461189607208524
 30
0.0
 11
374.722757146607421
 21
63.3761283003079612
 31
0.0
  0
LINE
  5
13A08
  8
0
 10
375.0764780097742914
 20
63.2875728648240568
 30
0.0
 11
376.2388296436787982
 21
59.2077969440163798
 31
0.0
  0
LINE
  5
13A09
  8
0
 10
375.8798330129073975
 20
61.7371522073079504
 30
0.0
 11
376.1130530987073826
 21
61.7329713988079476
 31
0.0
  0
ARC
  5
13A0A
  8
0
 10
376.085064249565221
 20
60.2434692996465984
 30
0.0
 40
1.4897650415694379
 50
359.7624050934836077
 51
88.9234964988130088
  0
ARC
  5
13A0B
  8
0
 10
-311.3741415805923225
 20
59.8831632643579468
 30
0.0
 40
688.9490490758475971
 50
359.9705492641224964
 51
0.0294507358775233
  0
ARC
  5
13A0C
  8
0
 10
377.6141644511199047
 20
59.5290147636657991
 30
0.0
 40
0.0393479742105498
 50
179.9705492641220985
 51
266.6816357814806224
  0
LINE
  5
13A0D
  8
0
 10
377.6528998655832083
 20
59.4897327636079609
 30
0.0
 11
376.6701463355436204
 21
59.4897327636068809
 31
0.0
  0
ARC
  5
13A0E
  8
0
 10
377.6530725584505035
 20
59.3913077182628797
 30
0.0
 40
0.0984251968451508
 50
297.1575424021393133
 51
90.1005289076871634
  0
ARC
  5
13A0F
  8
0
 10
377.7795881897928894
 20
59.1648344581810335
 30
0.0
 40
0.1610898559186878
 50
120.4303775782038031
 51
162.9404842096307959
  0
ARC
  5
13A10
  8
0
 10
377.9314017690119272
 20
59.1049060649716225
 30
0.0
 40
0.3240557181223205
 50
160.6847454823846988
 51
181.8242481010522056
  0
ARC
  5
13A11
  8
0
 10
392.9579123350607119
 20
56.6314650203163268
 30
0.0
 40
16.4162519204671113
 50
172.5375276742603035
 51
187.0982734441722073
  0
ARC
  5
13A12
  8
0
 10
367.7500274379368079
 20
53.4069617371654601
 30
0.0
 40
8.9972879136742012
 50
4.8172450438814529
 51
7.6383715759086028
  0
ARC
  5
13A13
  8
0
 10
376.0069323423579135
 20
54.1194981170186793
 30
0.0
 40
0.7099068974510773
 50
354.4044959781409716
 51
3.475498751423816
  0
ARC
  5
13A14
  8
0
 10
376.5865625879101231
 20
54.0582927495990972
 30
0.0
 40
0.1271467924341203
 50
321.2426122523435765
 51
356.3862951685283065
  0
ARC
  5
13A15
  8
0
 10
376.6490663189971997
 20
54.0149198989245605
 30
0.0
 40
0.0515276726102231
 50
277.1709172427883914
 51
315.3315847388689122
  0
ARC
  5
13A16
  8
0
 10
376.6688273254134742
 20
53.8662767457144867
 30
0.0
 40
0.0984251969065317
 50
97.7829576404810155
 51
269.9999999964467179
  0
LINE
  5
13A17
  8
0
 10
376.668827325407392
 20
53.7678515488079611
 30
0.0
 11
377.6542143069073063
 21
53.7678515488079611
 31
0.0
  0
LINE
  5
13A18
  8
0
 10
376.7981349894074015
 20
53.7678515488079611
 30
0.0
 11
376.7981349894074015
 21
53.6802885883696916
 31
0.0
  0
LINE
  5
13A19
  8
0
 10
376.7987878610073835
 20
53.680629620707947
 30
0.0
 11
376.7614032143583813
 21
53.6611014723525983
 31
0.0
  0
ARC
  5
13A1A
  8
0
 10
376.7656414709758792
 20
53.6516331513598672
 30
0.0
 40
0.0103736166102743
 50
114.1144798002186036
 51
242.673213878706207
  0
ARC
  5
13A1B
  8
0
 10
411.3173837673439266
 20
119.8472138996038012
 30
0.0
 40
74.6808349326656327
 50
242.4370729631143035
 51
242.4693105072917945
  0
LINE
  5
13A1C
  8
0
 10
376.7981349894072878
 20
53.6229844209079687
 30
0.0
 11
376.7981349894074015
 21
53.6088670183079472
 31
0.0
  0
ARC
  5
13A1D
  8
0
 10
376.8059823938131103
 20
53.6635460349180704
 30
0.0
 40
0.0185367258633637
 50
97.2162996581922556
 51
112.8377678683436045
  0
ARC
  5
13A1E
  8
0
 10
377.344431966946388
 20
42.6509536400406617
 30
0.0
 40
11.04422977115434
 50
89.0636832342312772
 51
92.8065964120047511
  0
ARC
  5
13A1F
  8
0
 10
377.5292483245718245
 20
28.9917739014554598
 30
0.0
 40
24.7019352170056017
 50
89.9697882662237021
 51
90.0100704675331116
  0
ARC
  5
13A20
  8
0
 10
340.7366129164087738
 20
-13.7876484549136897
 30
0.0
 40
76.8660510780944151
 50
61.3894015768066907
 51
61.3910786231964209
  0
ARC
  5
13A21
  8
0
 10
377.5392304219980133
 20
53.6839007485752475
 30
0.0
 40
0.0100674703151382
 50
299.8981335015317882
 51
60.1016971244270977
  0
LINE
  5
13A22
  8
0
 10
377.5442486482073718
 20
53.6751731278079518
 30
0.0
 11
377.5083489163073978
 21
53.6555889094079532
 31
0.0
  0
ARC
  5
13A23
  8
0
 10
377.4654093640345991
 20
54.0673617081451994
 30
0.0
 40
0.4140056073645466
 50
275.8509256394165163
 51
275.9532709435479774
  0
ARC
  5
13A24
  8
0
 10
376.6175990243041269
 20
70.464055891127785
 30
0.0
 40
16.8320897126493314
 50
271.4231010814518754
 51
273.0309875656396912
  0
ARC
  5
13A25
  8
0
 10
377.0722554974080936
 20
51.0266012573006833
 30
0.0
 40
2.610813586828828
 50
90.803835116927516
 51
96.0268373429280047
  0
ARC
  5
13A26
  8
0
 10
376.9071120874119742
 20
65.5061335262440707
 30
0.0
 40
11.8481039388784009
 50
271.2289911510750926
 51
273.0825905394219149
  0
ARC
  5
13A27
  8
0
 10
377.5536783842704835
 20
37.277278677037522
 30
0.0
 40
16.3881760359406208
 50
91.372182676949663
 51
92.6114021561783716
  0
ARC
  5
13A28
  8
0
 10
376.8190780105077806
 20
53.3761599396425908
 30
0.0
 40
0.2725436092133413
 50
92.5391473858331466
 51
102.3298306446813939
  0
ARC
  5
13A29
  8
0
 10
376.988811358734722
 20
51.330582742130197
 30
0.0
 40
2.3415874991223551
 50
91.0326925123546715
 51
95.5731832147757245
  0
ARC
  5
13A2A
  8
0
 10
376.2683597427205768
 20
81.7042179328050793
 30
0.0
 40
28.0406320055013012
 50
271.386010783288782
 51
272.6079404912655946
  0
LINE
  5
13A2B
  8
0
 10
376.7987878610073835
 20
53.6092080506462167
 30
0.0
 11
376.7614032143583813
 21
53.589679902290861
 31
0.0
  0
ARC
  5
13A2C
  8
0
 10
376.7656414709758792
 20
53.5802115812981299
 30
0.0
 40
0.0103736166102743
 50
114.1144798002186036
 51
242.673213878706207
  0
ARC
  5
13A2D
  8
0
 10
411.3173837673439266
 20
119.7757923295420994
 30
0.0
 40
74.6808349326656327
 50
242.4370729631143035
 51
242.4693105072917945
  0
LINE
  5
13A2E
  8
0
 10
376.7981349894072878
 20
53.5515628508462385
 30
0.0
 11
376.7981349894074015
 21
53.5374454482462099
 31
0.0
  0
ARC
  5
13A2F
  8
0
 10
376.8059823938131103
 20
53.5921244648563189
 30
0.0
 40
0.0185367258633637
 50
97.2162996581922556
 51
112.8377678683436045
  0
ARC
  5
13A30
  8
0
 10
340.7549831552191222
 20
-13.8559578609136906
 30
0.0
 40
76.8660510780944151
 50
61.3894015768066907
 51
61.3910786231964209
  0
ARC
  5
13A31
  8
0
 10
377.5576006608083048
 20
53.6155913425752502
 30
0.0
 40
0.0100674703151382
 50
299.8981335015317882
 51
60.1016971244270977
  0
LINE
  5
13A32
  8
0
 10
377.5626188870176065
 20
53.6068637218079473
 30
0.0
 11
377.5249066429072968
 21
53.587279503407963
 31
0.0
  0
ARC
  5
13A33
  8
0
 10
377.4819670906346118
 20
53.9990523021451878
 30
0.0
 40
0.4140056073645466
 50
275.8509256394165163
 51
275.9532709435479774
  0
ARC
  5
13A34
  8
0
 10
376.4879836504929926
 20
71.5986770256481009
 30
0.0
 40
18.041254511449921
 50
271.7394875085996091
 51
273.2925566756313742
  0
ARC
  5
13A35
  8
0
 10
377.0722554974080936
 20
50.9551796872389389
 30
0.0
 40
2.610813586828828
 50
90.803835116927516
 51
96.0268373429280047
  0
ARC
  5
13A36
  8
0
 10
376.7939776829542211
 20
66.6023290535415953
 30
0.0
 40
13.0181768496542905
 50
271.6165869133440083
 51
273.384922944484174
  0
ARC
  5
13A37
  8
0
 10
377.5536783842704835
 20
37.2058571069757704
 30
0.0
 40
16.3881760359406208
 50
91.372182676949663
 51
92.6114021561783716
  0
ARC
  5
13A38
  8
0
 10
376.8190780105077806
 20
53.3047383695808534
 30
0.0
 40
0.2725436092133413
 50
92.5391473858331466
 51
102.3298306446813939
  0
ARC
  5
13A39
  8
0
 10
376.988811358734722
 20
51.2591611720684597
 30
0.0
 40
2.3415874991223551
 50
91.0326925123546715
 51
95.5731832147757245
  0
ARC
  5
13A3A
  8
0
 10
376.096930818580006
 20
83.3879578079197188
 30
0.0
 40
29.799705363360161
 50
271.6338947016486145
 51
272.8192103449957813
  0
LINE
  5
13A3B
  8
0
 10
376.7987878610073835
 20
53.5377864805844723
 30
0.0
 11
376.7614032143583813
 21
53.5182583322291165
 31
0.0
  0
ARC
  5
13A3C
  8
0
 10
376.7656414709758792
 20
53.5087900112363926
 30
0.0
 40
0.0103736166102743
 50
114.1144798002186036
 51
242.673213878706207
  0
ARC
  5
13A3D
  8
0
 10
411.3173837673439266
 20
119.7043707594803976
 30
0.0
 40
74.6808349326656327
 50
242.4370729631143035
 51
242.4693105072917945
  0
ARC
  5
13A3E
  8
0
 10
376.8059823938131103
 20
53.5207028947945886
 30
0.0
 40
0.0185367258633637
 50
97.2162996581922556
 51
112.8377678683436045
  0
ARC
  5
13A3F
  8
0
 10
340.7549831552191222
 20
-13.9273408392942901
 30
0.0
 40
76.8660510780944151
 50
61.3894015768066907
 51
61.3910786231964209
  0
ARC
  5
13A40
  8
0
 10
377.5576006608083048
 20
53.5442083641946382
 30
0.0
 40
0.0100674703151382
 50
299.8981335015317882
 51
60.1016971244270977
  0
LINE
  5
13A41
  8
0
 10
377.5626188870176065
 20
53.5354807434273567
 30
0.0
 11
377.5249066429072968
 21
53.5158583386079485
 31
0.0
  0
ARC
  5
13A42
  8
0
 10
377.4823348748727199
 20
53.9276693237645972
 30
0.0
 40
0.4140056073645466
 50
275.8509256394165163
 51
275.9020982914832985
  0
ARC
  5
13A43
  8
0
 10
376.4861450125604279
 20
71.5544574590611404
 30
0.0
 40
18.0684998200406817
 50
271.7426968160452816
 51
273.294594594761918
  0
ARC
  5
13A44
  8
0
 10
377.0722554974080936
 20
50.8837581171772086
 30
0.0
 40
2.610813586828828
 50
90.803835116927516
 51
96.0268373429280047
  0
ARC
  5
13A45
  8
0
 10
376.7927249863329848
 20
66.5309813478736203
 30
0.0
 40
13.0182860845225896
 50
271.6220888872460932
 51
273.3904174992728144
  0
ARC
  5
13A46
  8
0
 10
377.5536783842704835
 20
37.1344355369140402
 30
0.0
 40
16.3881760359406208
 50
91.372182676949663
 51
92.6114021561783716
  0
ARC
  5
13A47
  8
0
 10
376.8190780105077806
 20
53.2333167995191232
 30
0.0
 40
0.2725436092133413
 50
92.5391473858331466
 51
102.3298306446813939
  0
ARC
  5
13A48
  8
0
 10
376.988811358734722
 20
51.1877396020067224
 30
0.0
 40
2.3415874991223551
 50
91.0326925123546715
 51
95.5731832147757245
  0
ARC
  5
13A49
  8
0
 10
376.0950626181481766
 20
83.3166280127113339
 30
0.0
 40
29.7998504272052003
 50
271.6374801743386911
 51
272.8227929326354797
  0
LINE
  5
13A4A
  8
0
 10
377.5249066429072968
 20
53.6646215711237886
 30
0.0
 11
377.5249066429072968
 21
53.6445804917079627
 31
0.0
  0
LINE
  5
13A4B
  8
0
 10
377.5249066429072968
 20
53.6445804917079627
 30
0.0
 11
377.5606437506176007
 21
53.6253962784079619
 31
0.0
  0
ARC
  5
13A4C
  8
0
 10
377.3286352633439833
 20
55.2274107444992097
 30
0.0
 40
1.5949526838081891
 50
270.7949929801346229
 51
277.0686103830150273
  0
ARC
  5
13A4D
  8
0
 10
377.7773893452402945
 20
36.2856262856398786
 30
0.0
 40
17.3522306222253206
 50
91.4088242171977754
 51
93.2168921297366069
  0
ARC
  5
13A4E
  8
0
 10
373.6213197302993194
 20
129.3177776738544935
 30
0.0
 40
75.845476682866547
 50
272.4047295429855922
 51
272.9501814096869907
  0
LINE
  5
13A4F
  8
0
 10
377.5249066429072968
 20
53.5728217859079621
 30
0.0
 11
377.5606437506176007
 21
53.5540133000273713
 31
0.0
  0
LINE
  5
13A50
  8
0
 10
377.5249066429072968
 20
53.587279503407963
 30
0.0
 11
377.5249066429074105
 21
53.5728217859079479
 31
0.0
  0
LINE
  5
13A51
  8
0
 10
377.5249066429072968
 20
53.5158583386079485
 30
0.0
 11
377.5249066429072968
 21
53.5017397819079505
 31
0.0
  0
LINE
  5
13A52
  8
0
 10
377.5249066429072968
 20
53.5017397819079505
 30
0.0
 11
377.5620363515074018
 21
53.4823783050079626
 31
0.0
  0
ARC
  5
13A53
  8
0
 10
377.557192794308321
 20
53.4730897642463106
 30
0.0
 40
0.0104755446551442
 50
296.8181734803941936
 51
62.4599804090209716
  0
ARC
  5
13A54
  8
0
 10
378.3105702335680007
 20
51.982830662938369
 30
0.0
 40
1.659389646016481
 50
116.8181734803941936
 51
118.2594796410396043
  0
LINE
  5
13A55
  8
0
 10
377.5249066429072968
 20
53.4444416644079467
 30
0.0
 11
377.5249066429072968
 21
53.3905591306079472
 31
0.0
  0
ARC
  5
13A56
  8
0
 10
377.5052216036780806
 20
53.3905591304372535
 30
0.0
 40
0.0196850392292905
 50
269.9999997941907282
 51
0.0000004968740892
  0
LINE
  5
13A57
  8
0
 10
377.5052216036073105
 20
53.370874091207952
 30
0.0
 11
376.8178245968073838
 21
53.3708740936771093
 31
0.0
  0
ARC
  5
13A58
  8
0
 10
376.8178245968780971
 20
53.3905637016784524
 30
0.0
 40
0.019689608001328
 50
180.0133015877945013
 51
269.9999997941907282
  0
LINE
  5
13A59
  8
0
 10
376.7981349894074015
 20
53.3905591306079472
 30
0.0
 11
376.7981349894072878
 21
53.4801412807845011
 31
0.0
  0
ARC
  5
13A5A
  8
0
 10
377.177557789219918
 20
57.1746753174601778
 30
0.0
 40
3.6893233355834201
 50
270.8315222036603132
 51
275.4023844851670901
  0
ARC
  5
13A5B
  8
0
 10
378.4199320717651176
 20
13.1212410544417892
 30
0.0
 40
40.3820026892247625
 50
91.6870138890921851
 51
92.1039635366599754
  0
ARC
  5
13A5C
  8
0
 10
377.1475063471528983
 20
52.6952990717906502
 30
0.0
 40
0.8085005051952858
 50
105.0628776216019986
 51
110.665732512564702
  0
ARC
  5
13A5D
  8
0
 10
376.8690745895383998
 20
53.444676463617057
 30
0.0
 40
0.0099010805993177
 50
134.1819278535033106
 51
245.5455301824761136
  0
ARC
  5
13A5E
  8
0
 10
377.153200866082102
 20
54.5464953787857709
 30
0.0
 40
1.1476153094460411
 50
255.4543519322116936
 51
259.1569834066465887
  0
ARC
  5
13A5F
  8
0
 10
376.5715926316083255
 20
68.8882657647749852
 30
0.0
 40
15.47321913653448
 50
271.3543516717925854
 51
273.5322633019699765
  0
ARC
  5
13A60
  8
0
 10
281.2105543558687941
 20
2249.0428812259387996
 30
0.0
 40
2197.6736632332758745
 50
272.4945313709952188
 51
272.5127949857152885
  0
ARC
  5
13A61
  8
0
 10
376.2272611830150026
 20
77.7265173375660652
 30
0.0
 40
24.2992281872908009
 50
271.5038743208243091
 51
273.149704571173686
  0
LINE
  5
13A62
  8
0
 10
377.5249066429072968
 20
53.7678515488079611
 30
0.0
 11
377.5249066429050799
 21
53.6937087369079507
 31
0.0
  0
ARC
  5
13A63
  8
0
 10
361.3651292972539864
 20
56.6314650203163268
 30
0.0
 40
16.4162519204671113
 50
352.9017265558277927
 51
7.4624723257396592
  0
ARC
  5
13A64
  8
0
 10
386.573014194378004
 20
53.4069617371654601
 30
0.0
 40
8.9972879136742012
 50
172.3616284240914069
 51
175.1827549561184867
  0
ARC
  5
13A65
  8
0
 10
378.3161092899568985
 20
54.1194981170186793
 30
0.0
 40
0.7099068974510773
 50
176.5245012485762004
 51
185.595504021859
  0
ARC
  5
13A66
  8
0
 10
377.7364790444046889
 20
54.0582927495990972
 30
0.0
 40
0.1271467924341203
 50
183.6137048314716935
 51
218.7573877476563098
  0
ARC
  5
13A67
  8
0
 10
377.6739753133174986
 20
54.0149198989245605
 30
0.0
 40
0.0515276726102231
 50
224.6684152611312015
 51
262.8290827572116086
  0
ARC
  5
13A68
  8
0
 10
377.6542143069012809
 20
53.8662767457144867
 30
0.0
 40
0.0984251969065317
 50
270.0000000035532821
 51
82.2170423595189703
  0
ARC
  5
13A69
  8
0
 10
370.8977898917354992
 20
59.5393946062432988
 30
0.0
 40
5.8347253358003037
 50
352.3587873152908969
 51
355.6278716816715928
  0
ARC
  5
13A6A
  8
0
 10
376.4494790422348274
 20
59.1149319289665982
 30
0.0
 40
0.266833365927648
 50
355.6278716816715928
 51
26.8251116951561208
  0
ARC
  5
13A6B
  8
0
 10
376.5340333640638733
 20
59.1576899152087705
 30
0.0
 40
0.1720827525920712
 50
26.8251116951561208
 51
58.0685869935207535
  0
ARC
  5
13A6C
  8
0
 10
376.6699736421073794
 20
59.3913077182079618
 30
0.0
 40
0.0984251969000009
 50
89.899470761200817
 51
242.8424574655657011
  0
ARC
  5
13A6D
  8
0
 10
384.1327544778392848
 20
59.6137493736283091
 30
0.0
 40
6.5458641913247169
 50
184.5489647249216034
 51
187.4628122577979923
  0
ARC
  5
13A6E
  8
0
 10
376.7088384777073884
 20
59.5290353360079578
 30
0.0
 40
0.0393710334000017
 50
273.3795108593114946
 51
359.9999999999976126
  0
LINE
  5
13A6F
  8
0
 10
376.7482095111072908
 20
59.5290353360079507
 30
0.0
 11
376.7482095111074045
 21
60.237291539996221
 31
0.0
  0
ARC
  5
13A70
  8
0
 10
376.0858753073021035
 20
60.244247948408443
 30
0.0
 40
0.6623707339159541
 50
359.3982521426249264
 51
88.0699694543675946
  0
LINE
  5
13A71
  8
0
 10
376.6250485708226279
 20
59.3037334220083778
 30
0.0
 11
377.6979976295081087
 21
59.3037334220083778
 31
0.0
  0
LINE
  5
13A72
  8
0
 10
377.6675431330073138
 20
53.9637952659079474
 30
0.0
 11
376.6554984993073845
 21
53.9637952659079474
 31
0.0
  0
ENDSEC
  0
EOF
