  0
SECTION
  2
HEADER
  9
$ACADVER
  1
AC1009
  9
$INSBASE
 10
140.173796687020598
 20
-1.1561613711393901
 30
0.0
  9
$EXTMIN
 10
133.3982653686720141
 20
-1.156605438503731
 30
-0.0015258207003583
  9
$EXTMAX
 10
146.9463100317749138
 20
3.6707910560748722
 30
0.0000000349246037
  9
$LIMMIN
 10
0.0
 20
0.0
  9
$LIMMAX
 10
11.6929133858000007
 20
8.2677165353999982
  9
$ORTHOMODE
 70
     0
  9
$REGENMODE
 70
     1
  9
$FILLMODE
 70
     1
  9
$QTEXTMODE
 70
     0
  9
$MIRRTEXT
 70
     0
  9
$DRAGMODE
 70
     2
  9
$LTSCALE
 40
0.6431102362
  9
$OSMODE
 70
  4095
  9
$ATTMODE
 70
     1
  9
$TEXTSIZE
 40
0.2
  9
$TRACEWID
 40
0.05
  9
$TEXTSTYLE
  7
STANDARD
  9
$CLAYER
  8
0
  9
$CELTYPE
  6
BYLAYER
  9
$CECOLOR
 62
   256
  9
$DIMSCALE
 40
1.0
  9
$DIMASZ
 40
0.1875
  9
$DIMEXO
 40
0.0625
  9
$DIMDLI
 40
0.4443307087
  9
$DIMRND
 40
0.0
  9
$DIMDLE
 40
0.0
  9
$DIMEXE
 40
0.125
  9
$DIMTP
 40
0.01
  9
$DIMTM
 40
0.01
  9
$DIMTXT
 40
1.0
  9
$DIMCEN
 40
0.1052362205
  9
$DIMTSZ
 40
0.0
  9
$DIMTOL
 70
     1
  9
$DIMLIM
 70
     0
  9
$DIMTIH
 70
     1
  9
$DIMTOH
 70
     1
  9
$DIMSE1
 70
     0
  9
$DIMSE2
 70
     0
  9
$DIMTAD
 70
     0
  9
$DIMZIN
 70
     0
  9
$DIMBLK
  1

  9
$DIMASO
 70
     1
  9
$DIMSHO
 70
     1
  9
$DIMPOST
  1
\X
  9
$DIMAPOST
  1

  9
$DIMALT
 70
     1
  9
$DIMALTD
 70
     2
  9
$DIMALTF
 40
25.3999999999999986
  9
$DIMLFAC
 40
1.0
  9
$DIMTOFL
 70
     0
  9
$DIMTVP
 40
0.0
  9
$DIMTIX
 70
     0
  9
$DIMSOXD
 70
     0
  9
$DIMSAH
 70
     0
  9
$DIMBLK1
  1

  9
$DIMBLK2
  1

  9
$DIMSTYLE
  2
STANDARD
  9
$DIMCLRD
 70
     0
  9
$DIMCLRE
 70
     0
  9
$DIMCLRT
 70
     0
  9
$DIMTFAC
 40
1.0
  9
$DIMGAP
 40
0.09
  9
$LUNITS
 70
     2
  9
$LUPREC
 70
     4
  9
$SKETCHINC
 40
0.1
  9
$FILLETRAD
 40
0.0
  9
$AUNITS
 70
     0
  9
$AUPREC
 70
     0
  9
$MENU
  1
.
  9
$ELEVATION
 40
0.0
  9
$PELEVATION
 40
0.0
  9
$THICKNESS
 40
0.0
  9
$LIMCHECK
 70
     0
  9
$BLIPMODE
 70
     0
  9
$CHAMFERA
 40
0.0
  9
$CHAMFERB
 40
0.0
  9
$SKPOLY
 70
     0
  9
$TDCREATE
 40
2458172.4620254631154239
  9
$TDUPDATE
 40
2459330.8505208338610828
  9
$TDINDWG
 40
0.0858161227
  9
$TDUSRTIMER
 40
0.0858161227
  9
$USRTIMER
 70
     1
  9
$ANGBASE
 50
0.0
  9
$ANGDIR
 70
     0
  9
$PDMODE
 70
     0
  9
$PDSIZE
 40
0.3125
  9
$PLINEWID
 40
0.0
  9
$COORDS
 70
     1
  9
$SPLFRAME
 70
     0
  9
$SPLINETYPE
 70
     6
  9
$SPLINESEGS
 70
     8
  9
$ATTDIA
 70
     1
  9
$ATTREQ
 70
     1
  9
$HANDLING
 70
     1
  9
$HANDSEED
  5
450C
  9
$SURFTAB1
 70
     6
  9
$SURFTAB2
 70
     6
  9
$SURFTYPE
 70
     6
  9
$SURFU
 70
     6
  9
$SURFV
 70
     6
  9
$UCSNAME
  2

  9
$UCSORG
 10
0.0
 20
0.0
 30
0.0
  9
$UCSXDIR
 10
1.0
 20
0.0
 30
0.0
  9
$UCSYDIR
 10
0.0
 20
1.0
 30
0.0
  9
$PUCSNAME
  2

  9
$PUCSORG
 10
0.0
 20
0.0
 30
0.0
  9
$PUCSXDIR
 10
1.0
 20
0.0
 30
0.0
  9
$PUCSYDIR
 10
0.0
 20
1.0
 30
0.0
  9
$USERI1
 70
     0
  9
$USERI2
 70
     0
  9
$USERI3
 70
     0
  9
$USERI4
 70
     0
  9
$USERI5
 70
     0
  9
$USERR1
 40
0.0
  9
$USERR2
 40
0.0
  9
$USERR3
 40
0.0
  9
$USERR4
 40
0.0
  9
$USERR5
 40
0.0
  9
$WORLDVIEW
 70
     1
  9
$SHADEDGE
 70
     3
  9
$SHADEDIF
 70
    70
  9
$TILEMODE
 70
     1
  9
$MAXACTVP
 70
    64
  9
$PLIMCHECK
 70
     0
  9
$PEXTMIN
 10
1.0000000000000000E+20
 20
1.0000000000000000E+20
 30
1.0000000000000000E+20
  9
$PEXTMAX
 10
-1.0000000000000000E+20
 20
-1.0000000000000000E+20
 30
-1.0000000000000000E+20
  9
$PLIMMIN
 10
0.0
 20
0.0
  9
$PLIMMAX
 10
12.0
 20
9.0
  9
$UNITMODE
 70
     0
  9
$VISRETAIN
 70
     1
  9
$PLINEGEN
 70
     0
  9
$PSLTSCALE
 70
     1
  0
ENDSEC
  0
SECTION
  2
TABLES
  0
TABLE
  2
VPORT
 70
     1
  0
VPORT
  2
*ACTIVE
 70
     0
 10
0.0
 20
0.0
 11
1.0
 21
1.0
 12
15.9370467639441795
 22
-0.5256415393584719
 13
0.0
 23
0.0
 14
1.0
 24
1.0
 15
0.0
 25
0.0
 16
-0.0000000000000142
 26
0.0
 36
49.7071888111806715
 17
124.2352409362792969
 27
1.7827343481440421
 37
0.0
 40
4.8905888347713873
 41
2.9182795698924728
 42
50.0
 43
0.0
 44
0.0
 50
0.0
 51
0.0
 71
     0
 72
   100
 73
     1
 74
     1
 75
     0
 76
     0
 77
     0
 78
     0
  0
ENDTAB
  0
TABLE
  2
LTYPE
 70
     2
  0
LTYPE
  2
CONTINUOUS
 70
     0
  3
Solid line
 72
    65
 73
     0
 40
0.0
  0
LTYPE
  2
PHANTOM2
 70
     0
  3
___ _ _ ___ _ _ ___ _ _ ___ _ _
 72
    65
 73
     6
 40
1.25
 49
0.625
 49
-0.125
 49
0.125
 49
-0.125
 49
0.125
 49
-0.125
  0
ENDTAB
  0
TABLE
  2
LAYER
 70
     2
  0
LAYER
  2
0
 70
     0
 62
   255
  6
CONTINUOUS
  0
LAYER
  2
DEFPOINTS
 70
     0
 62
     7
  6
CONTINUOUS
  0
ENDTAB
  0
TABLE
  2
STYLE
 70
     1
  0
STYLE
  2
STANDARD
 70
     0
 40
0.0
 41
0.8
 50
0.0
 71
     0
 42
0.2
  3
txt
  4

  0
ENDTAB
  0
TABLE
  2
VIEW
 70
     0
  0
ENDTAB
  0
TABLE
  2
UCS
 70
     0
  0
ENDTAB
  0
TABLE
  2
APPID
 70
     9
  0
APPID
  2
ACAD
 70
     0
  0
APPID
  2
ACAD_MLEADERVER
 70
     0
  0
APPID
  2
ACAD_EXEMPT_FROM_CAD_STANDARDS
 70
     0
  0
APPID
  2
ACAD_DSTYLE_DIMJAG
 70
     0
  0
APPID
  2
ACAD_DSTYLE_DIMTALN
 70
     0
  0
APPID
  2
ACAD_NAV_VCDISPLAY
 70
     0
  0
APPID
  2
ACAECLAYERSTANDARD
 70
     0
  0
APPID
  2
ACCMTRANSPARENCY
 70
     0
  0
APPID
  2
ACDBATTR
 70
     0
  0
ENDTAB
  0
TABLE
  2
DIMSTYLE
 70
     1
  0
DIMSTYLE
  2
STANDARD
 70
     0
  3

  4

  5

  6

  7

 40
1.0
 41
0.1875
 42
0.0625
 43
0.38
 44
0.125
 45
0.0
 46
0.0
 47
0.01
 48
0.01
140
0.15625
141
0.09
142
0.0
143
25.3999999999999986
144
1.0
145
0.0
146
1.0
147
0.09
 71
     1
 72
     0
 73
     1
 74
     1
 75
     0
 76
     0
 77
     0
 78
     4
170
     0
171
     2
172
     0
173
     0
174
     0
175
     0
176
     0
177
     0
178
     0
  0
ENDTAB
  0
ENDSEC
  0
SECTION
  2
BLOCKS
  0
BLOCK
  8
0
  2
$MODEL_SPACE
 70
     0
 10
0.0
 20
0.0
 30
0.0
  3
$MODEL_SPACE
  1

  0
ENDBLK
  5
21
  8
0
  0
BLOCK
 67
     1
  8
0
  2
$PAPER_SPACE
 70
     0
 10
0.0
 20
0.0
 30
0.0
  3
$PAPER_SPACE
  1

  0
ENDBLK
  5
1D
 67
     1
  8
0
  0
ENDSEC
  0
SECTION
  2
ENTITIES
  0
ATTDEF
  5
1FF6
  8
DEFPOINTS
 10
140.170107825759203
 20
-1.151907523883257
 30
0.0
 40
0.001
  1
K-469T-4V
  3

  2
MODELNUMBER
 70
     0
1001
ACDBATTR
1070
     0
1070
     1
  0
ATTDEF
  5
1FF7
  8
DEFPOINTS
 10
140.170107825759203
 20
-1.1535741905499219
 30
0.0
 40
0.001
  1
MEMOIRS
  3

  2
TRADENAME
 70
     0
1001
ACDBATTR
1070
     0
1070
     1
  0
ATTDEF
  5
1FF8
  8
DEFPOINTS
 10
140.170107825759203
 20
-1.1552408572165871
 30
0.0
 40
0.001
  1
BATHROOM SINK FAUCET
  3

  2
PRODUCT
 70
     0
1001
ACDBATTR
1070
     0
1070
     1
  0
ARC
  5
401F
  8
0
 10
150.6183958713893105
 20
2.5146974575561032
 30
0.0
 40
9.8698485596538905
 50
182.5058563402994878
 51
201.3168088935429978
  0
ARC
  5
4020
  8
0
 10
140.6314378141233874
 20
3.5606571000854572
 30
0.0
 40
0.064939991113298
 50
4.7867332985071851
 51
77.5123743425709648
  0
ARC
  5
4021
  8
0
 10
152.9235937188038008
 20
3.6809004078169418
 30
0.0
 40
12.2279815389721591
 50
180.538031708380089
 51
186.1271168015782109
  0
ARC
  5
4022
  8
0
 10
140.6563443483499896
 20
2.517873836108194
 30
0.0
 40
0.0642551665158778
 50
44.8178314083106812
 51
91.2262703935301857
  0
ARC
  5
4023
  8
0
 10
140.7115588506858046
 20
2.1091954486756519
 30
0.0
 40
0.0532220683968474
 50
277.0403478484502102
 51
330.7288194740419272
  0
ARC
  5
4024
  8
0
 10
140.0774135011448038
 20
2.246953983012598
 30
0.0
 40
0.7000015715506988
 50
346.4689359068711951
 51
26.8546157132396601
  0
ARC
  5
4025
  8
0
 10
139.9428711319359877
 20
7.2821372878446828
 30
0.0
 40
5.2829487141985778
 50
277.2204145724285809
 51
278.4379548352649181
  0
LINE
  5
4026
  8
0
 10
138.9837967486706134
 20
-1.1561613711393861
 30
0.0
 11
141.3637966253706111
 21
-1.1561613711393901
 31
0.0
  0
LINE
  5
4027
  8
0
 10
141.4237967486706111
 20
-1.073234755153883
 30
0.0
 11
141.4237967486706111
 21
-1.096635518467092
 31
0.0
  0
ARC
  5
4028
  8
0
 10
141.3637954058204116
 20
-1.0961581292032321
 30
0.0
 40
0.0600032419485536
 50
270.0011645217351202
 51
359.5441466547641767
  0
LINE
  5
4029
  8
0
 10
141.4170372678900094
 20
-1.056074867180534
 30
0.0
 11
138.9304885980791937
 21
-1.056074867180534
 31
0.0
  0
LINE
  5
402A
  8
0
 10
140.6961513080514123
 20
3.5660761543775581
 30
0.0
 11
140.6961513080514123
 21
2.5683132292777131
 31
0.0
  0
LINE
  5
402B
  8
0
 10
140.6068676148705947
 20
2.041082452460607
 30
0.0
 11
140.6068676148705947
 21
2.2414284384606091
 31
0.0
  0
LINE
  5
402C
  8
0
 10
140.6226994688705929
 20
2.1966689426606081
 30
0.0
 11
140.6225106588944129
 21
2.357498588473685
 31
0.0
  0
ARC
  5
402D
  8
0
 10
140.5468742530983945
 20
2.2769948594919671
 30
0.0
 40
0.1104613790503903
 50
313.3490366158097231
 51
46.785490942735251
  0
ARC
  5
402E
  8
0
 10
140.5626554162653861
 20
2.2579765909493039
 30
0.0
 40
0.1161347409753896
 50
296.4458801149760916
 51
58.9761517879628769
  0
ARC
  5
402F
  8
0
 10
140.5364515854494982
 20
2.1913419419606082
 30
0.0
 40
0.0864122348459886
 50
324.5759873079916815
 51
35.4240126920083327
  0
ARC
  5
4030
  8
0
 10
140.3886204714162034
 20
2.2025681951899889
 30
0.0
 40
0.2714948631758514
 50
288.6009180299051877
 51
323.5014671131410182
  0
ARC
  5
4031
  8
0
 10
140.3787267843082986
 20
2.1754113399240458
 30
0.0
 40
0.2307493162858543
 50
288.5856877246330896
 51
325.6517770086700239
  0
ARC
  5
4032
  8
0
 10
140.4952268991644928
 20
2.084710389054194
 30
0.0
 40
0.0838894958387173
 50
331.9156844962363948
 51
43.6524593929426672
  0
ARC
  5
4033
  8
0
 10
140.3463707334925061
 20
1.941519493971636
 30
0.0
 40
0.2904362968955343
 50
43.8204560431564332
 51
72.8436280531161202
  0
ARC
  5
4034
  8
0
 10
140.426218414030302
 20
2.05722638070658
 30
0.0
 40
0.1498853007302607
 50
23.95654950180095
 51
53.6743740258995388
  0
ARC
  5
4035
  8
0
 10
140.470661982341511
 20
2.0952988440327398
 30
0.0
 40
0.0952943296245258
 50
301.4599268180089098
 51
13.8350685274755403
  0
ARC
  5
4036
  8
0
 10
140.2952668930662128
 20
2.3224482874153329
 30
0.0
 40
0.3818586457661779
 50
284.2004951728081892
 51
306.1259422891923236
  0
ARC
  5
4037
  8
0
 10
140.2911093732271013
 20
2.3419878927740321
 30
0.0
 40
0.3851163288155388
 50
281.9840170153423173
 51
308.2298019063106267
  0
ARC
  5
4038
  8
0
 10
140.4661774934870948
 20
2.119833788925042
 30
0.0
 40
0.1022713476044598
 50
308.2021225740426189
 51
347.2709509710351767
  0
LINE
  5
4039
  8
0
 10
140.5158881483706068
 20
2.0469486350606081
 30
0.0
 11
140.5306628599705903
 21
2.058000872560608
 31
0.0
  0
LINE
  5
403A
  8
0
 10
140.5306628599705903
 20
2.058000872560608
 30
0.0
 11
140.5158881483706068
 21
2.0690531100606071
 31
0.0
  0
LINE
  5
403B
  8
0
 10
140.5158881483706068
 20
2.0690531100606071
 30
0.0
 11
140.4863387251706115
 21
2.0690531100606071
 31
0.0
  0
LINE
  5
403C
  8
0
 10
140.4863387251706115
 20
2.0690531100606071
 30
0.0
 11
140.4715640135705996
 21
2.058000872560608
 31
0.0
  0
LINE
  5
403D
  8
0
 10
140.4715640135705996
 20
2.058000872560608
 30
0.0
 11
140.4863387251706115
 21
2.0469486350606081
 31
0.0
  0
LINE
  5
403E
  8
0
 10
140.4863387251706115
 20
2.0469486350606081
 30
0.0
 11
140.5158881483706068
 21
2.0469486350606081
 31
0.0
  0
LINE
  5
403F
  8
0
 10
140.5158881483706068
 20
2.0741541427606118
 30
0.0
 11
140.5306628599705903
 21
2.0852063802606078
 31
0.0
  0
LINE
  5
4040
  8
0
 10
140.5306628599705903
 20
2.0852063802606078
 30
0.0
 11
140.5158881483706068
 21
2.0962586177606108
 31
0.0
  0
LINE
  5
4041
  8
0
 10
140.5158881483706068
 20
2.0962586177606108
 30
0.0
 11
140.4863387251706115
 21
2.0962586177606108
 31
0.0
  0
LINE
  5
4042
  8
0
 10
140.4863387251706115
 20
2.0962586177606108
 30
0.0
 11
140.4715640135705996
 21
2.0852063802606078
 31
0.0
  0
LINE
  5
4043
  8
0
 10
140.4715640135705996
 20
2.0852063802606078
 30
0.0
 11
140.4863387251706115
 21
2.0741541427606118
 31
0.0
  0
LINE
  5
4044
  8
0
 10
140.4863387251706115
 20
2.0741541427606118
 30
0.0
 11
140.5158881483706068
 21
2.0741541427606118
 31
0.0
  0
LINE
  5
4045
  8
0
 10
140.5158881483706068
 20
2.101359650460608
 30
0.0
 11
140.5306628599705903
 21
2.1124118879606071
 31
0.0
  0
LINE
  5
4046
  8
0
 10
140.5306628599705903
 20
2.1124118879606071
 30
0.0
 11
140.5158881483706068
 21
2.123464125460607
 31
0.0
  0
LINE
  5
4047
  8
0
 10
140.5158881483706068
 20
2.123464125460607
 30
0.0
 11
140.4863387251706115
 21
2.123464125460607
 31
0.0
  0
LINE
  5
4048
  8
0
 10
140.4863387251706115
 20
2.123464125460607
 30
0.0
 11
140.4715640135705996
 21
2.1124118879606071
 31
0.0
  0
LINE
  5
4049
  8
0
 10
140.4715640135705996
 20
2.1124118879606071
 30
0.0
 11
140.4863387251706115
 21
2.101359650460608
 31
0.0
  0
LINE
  5
404A
  8
0
 10
140.4863387251706115
 20
2.101359650460608
 30
0.0
 11
140.5158881483706068
 21
2.101359650460608
 31
0.0
  0
LINE
  5
404B
  8
0
 10
140.5158881483706068
 20
2.1285651581606082
 30
0.0
 11
140.5306628599705903
 21
2.1396173956606068
 31
0.0
  0
LINE
  5
404C
  8
0
 10
140.5306628599705903
 20
2.1396173956606068
 30
0.0
 11
140.5158881483706068
 21
2.1506696331606072
 31
0.0
  0
LINE
  5
404D
  8
0
 10
140.5158881483706068
 20
2.1506696331606072
 30
0.0
 11
140.4863387251706115
 21
2.1506696331606072
 31
0.0
  0
LINE
  5
404E
  8
0
 10
140.4863387251706115
 20
2.1506696331606072
 30
0.0
 11
140.4715640135705996
 21
2.1396173956606068
 31
0.0
  0
LINE
  5
404F
  8
0
 10
140.4715640135705996
 20
2.1396173956606068
 30
0.0
 11
140.4863387251706115
 21
2.1285651581606082
 31
0.0
  0
LINE
  5
4050
  8
0
 10
140.4863387251706115
 20
2.1285651581606082
 30
0.0
 11
140.5158881483706068
 21
2.1285651581606082
 31
0.0
  0
LINE
  5
4051
  8
0
 10
140.5158881483706068
 20
2.1557706658606071
 30
0.0
 11
140.5294377844577127
 21
2.1659064844219098
 31
0.0
  0
LINE
  5
4052
  8
0
 10
140.5151536716523992
 20
2.1778751408606061
 30
0.0
 11
140.4863387251706115
 21
2.1778751408606061
 31
0.0
  0
LINE
  5
4053
  8
0
 10
140.4863387251706115
 20
2.1778751408606061
 30
0.0
 11
140.4715640135705996
 21
2.166822903360607
 31
0.0
  0
LINE
  5
4054
  8
0
 10
140.4715640135705996
 20
2.166822903360607
 30
0.0
 11
140.4863387251706115
 21
2.1557706658606071
 31
0.0
  0
LINE
  5
4055
  8
0
 10
140.4863387251706115
 20
2.1557706658606071
 30
0.0
 11
140.5158881483706068
 21
2.1557706658606071
 31
0.0
  0
LINE
  5
4056
  8
0
 10
140.4613353670706033
 20
2.006140373560604
 30
0.0
 11
140.4761100786705867
 21
2.0171926110606071
 31
0.0
  0
LINE
  5
4057
  8
0
 10
140.4761100786705867
 20
2.0171926110606071
 30
0.0
 11
140.4613353670706033
 21
2.0282448485606031
 31
0.0
  0
LINE
  5
4058
  8
0
 10
140.4613353670706033
 20
2.0282448485606031
 30
0.0
 11
140.431785943870608
 21
2.0282448485606031
 31
0.0
  0
LINE
  5
4059
  8
0
 10
140.431785943870608
 20
2.0282448485606031
 30
0.0
 11
140.4170112322705961
 21
2.0171926110606071
 31
0.0
  0
LINE
  5
405A
  8
0
 10
140.4170112322705961
 20
2.0171926110606071
 30
0.0
 11
140.431785943870608
 21
2.006140373560604
 31
0.0
  0
LINE
  5
405B
  8
0
 10
140.431785943870608
 20
2.006140373560604
 30
0.0
 11
140.4613353670706033
 21
2.006140373560604
 31
0.0
  0
LINE
  5
405C
  8
0
 10
140.4613353670706033
 20
2.0333458812606078
 30
0.0
 11
140.4761100786705867
 21
2.0443981187606068
 31
0.0
  0
LINE
  5
405D
  8
0
 10
140.4761100786705867
 20
2.0443981187606068
 30
0.0
 11
140.4613353670706033
 21
2.0554503562606068
 31
0.0
  0
LINE
  5
405E
  8
0
 10
140.4613353670706033
 20
2.0554503562606068
 30
0.0
 11
140.431785943870608
 21
2.0554503562606068
 31
0.0
  0
LINE
  5
405F
  8
0
 10
140.431785943870608
 20
2.0554503562606068
 30
0.0
 11
140.4170112322705961
 21
2.0443981187606068
 31
0.0
  0
LINE
  5
4060
  8
0
 10
140.4170112322705961
 20
2.0443981187606068
 30
0.0
 11
140.431785943870608
 21
2.0333458812606078
 31
0.0
  0
LINE
  5
4061
  8
0
 10
140.431785943870608
 20
2.0333458812606078
 30
0.0
 11
140.4613353670706033
 21
2.0333458812606078
 31
0.0
  0
LINE
  5
4062
  8
0
 10
140.4613353670706033
 20
2.060551388960604
 30
0.0
 11
140.4761100786705867
 21
2.071603626460607
 31
0.0
  0
LINE
  5
4063
  8
0
 10
140.4761100786705867
 20
2.071603626460607
 30
0.0
 11
140.4613353670706033
 21
2.082655863960603
 31
0.0
  0
LINE
  5
4064
  8
0
 10
140.4613353670706033
 20
2.082655863960603
 30
0.0
 11
140.431785943870608
 21
2.082655863960603
 31
0.0
  0
LINE
  5
4065
  8
0
 10
140.431785943870608
 20
2.082655863960603
 30
0.0
 11
140.4170112322705961
 21
2.071603626460607
 31
0.0
  0
LINE
  5
4066
  8
0
 10
140.4170112322705961
 20
2.071603626460607
 30
0.0
 11
140.431785943870608
 21
2.060551388960604
 31
0.0
  0
LINE
  5
4067
  8
0
 10
140.431785943870608
 20
2.060551388960604
 30
0.0
 11
140.4613353670706033
 21
2.060551388960604
 31
0.0
  0
LINE
  5
4068
  8
0
 10
140.4613353670706033
 20
2.0877568966606068
 30
0.0
 11
140.4761100786705867
 21
2.0988091341606032
 31
0.0
  0
LINE
  5
4069
  8
0
 10
140.4761100786705867
 20
2.0988091341606032
 30
0.0
 11
140.4613353670706033
 21
2.1098613716606058
 31
0.0
  0
LINE
  5
406A
  8
0
 10
140.4613353670706033
 20
2.1098613716606058
 30
0.0
 11
140.431785943870608
 21
2.1098613716606058
 31
0.0
  0
LINE
  5
406B
  8
0
 10
140.431785943870608
 20
2.1098613716606058
 30
0.0
 11
140.4170112322705961
 21
2.0988091341606032
 31
0.0
  0
LINE
  5
406C
  8
0
 10
140.4170112322705961
 20
2.0988091341606032
 30
0.0
 11
140.431785943870608
 21
2.0877568966606068
 31
0.0
  0
LINE
  5
406D
  8
0
 10
140.431785943870608
 20
2.0877568966606068
 30
0.0
 11
140.4613353670706033
 21
2.0877568966606068
 31
0.0
  0
LINE
  5
406E
  8
0
 10
140.4613353670706033
 20
2.114962404360603
 30
0.0
 11
140.4761100786705867
 21
2.1260146418606061
 31
0.0
  0
LINE
  5
406F
  8
0
 10
140.4761100786705867
 20
2.1260146418606061
 30
0.0
 11
140.4613353670706033
 21
2.137066879360602
 31
0.0
  0
LINE
  5
4070
  8
0
 10
140.4613353670706033
 20
2.137066879360602
 30
0.0
 11
140.431785943870608
 21
2.137066879360602
 31
0.0
  0
LINE
  5
4071
  8
0
 10
140.431785943870608
 20
2.137066879360602
 30
0.0
 11
140.4170112322705961
 21
2.1260146418606061
 31
0.0
  0
LINE
  5
4072
  8
0
 10
140.4170112322705961
 20
2.1260146418606061
 30
0.0
 11
140.431785943870608
 21
2.114962404360603
 31
0.0
  0
LINE
  5
4073
  8
0
 10
140.431785943870608
 20
2.114962404360603
 30
0.0
 11
140.4613353670706033
 21
2.114962404360603
 31
0.0
  0
LINE
  5
4074
  8
0
 10
140.4067825856706122
 20
1.992537619660609
 30
0.0
 11
140.4215572972705957
 21
2.003589857160609
 31
0.0
  0
LINE
  5
4075
  8
0
 10
140.4215572972705957
 20
2.003589857160609
 30
0.0
 11
140.4067825856706122
 21
2.0146420946606081
 31
0.0
  0
LINE
  5
4076
  8
0
 10
140.4067825856706122
 20
2.0146420946606081
 30
0.0
 11
140.3772331624705885
 21
2.0146420946606081
 31
0.0
  0
LINE
  5
4077
  8
0
 10
140.3772331624705885
 20
2.0146420946606081
 30
0.0
 11
140.362458450870605
 21
2.003589857160609
 31
0.0
  0
LINE
  5
4078
  8
0
 10
140.362458450870605
 20
2.003589857160609
 30
0.0
 11
140.3772331624705885
 21
1.992537619660609
 31
0.0
  0
LINE
  5
4079
  8
0
 10
140.3772331624705885
 20
1.992537619660609
 30
0.0
 11
140.4067825856706122
 21
1.992537619660609
 31
0.0
  0
LINE
  5
407A
  8
0
 10
140.4067825856706122
 20
2.0197431273606119
 30
0.0
 11
140.4215572972705957
 21
2.0307953648606079
 31
0.0
  0
LINE
  5
407B
  8
0
 10
140.4215572972705957
 20
2.0307953648606079
 30
0.0
 11
140.4067825856706122
 21
2.0418476023606109
 31
0.0
  0
LINE
  5
407C
  8
0
 10
140.4067825856706122
 20
2.0418476023606109
 30
0.0
 11
140.3772331624705885
 21
2.0418476023606109
 31
0.0
  0
LINE
  5
407D
  8
0
 10
140.3772331624705885
 20
2.0418476023606109
 30
0.0
 11
140.362458450870605
 21
2.0307953648606079
 31
0.0
  0
LINE
  5
407E
  8
0
 10
140.362458450870605
 20
2.0307953648606079
 30
0.0
 11
140.3772331624705885
 21
2.0197431273606119
 31
0.0
  0
LINE
  5
407F
  8
0
 10
140.3772331624705885
 20
2.0197431273606119
 30
0.0
 11
140.4067825856706122
 21
2.0197431273606119
 31
0.0
  0
LINE
  5
4080
  8
0
 10
140.4067825856706122
 20
2.0469486350606081
 30
0.0
 11
140.4215572972705957
 21
2.058000872560608
 31
0.0
  0
LINE
  5
4081
  8
0
 10
140.4215572972705957
 20
2.058000872560608
 30
0.0
 11
140.4067825856706122
 21
2.0690531100606071
 31
0.0
  0
LINE
  5
4082
  8
0
 10
140.4067825856706122
 20
2.0690531100606071
 30
0.0
 11
140.3772331624705885
 21
2.0690531100606071
 31
0.0
  0
LINE
  5
4083
  8
0
 10
140.3772331624705885
 20
2.0690531100606071
 30
0.0
 11
140.362458450870605
 21
2.058000872560608
 31
0.0
  0
LINE
  5
4084
  8
0
 10
140.362458450870605
 20
2.058000872560608
 30
0.0
 11
140.3772331624705885
 21
2.0469486350606081
 31
0.0
  0
LINE
  5
4085
  8
0
 10
140.3772331624705885
 20
2.0469486350606081
 30
0.0
 11
140.4067825856706122
 21
2.0469486350606081
 31
0.0
  0
LINE
  5
4086
  8
0
 10
140.4067825856706122
 20
2.0741541427606078
 30
0.0
 11
140.4215572972705957
 21
2.0852063802606078
 31
0.0
  0
LINE
  5
4087
  8
0
 10
140.4215572972705957
 20
2.0852063802606078
 30
0.0
 11
140.4067825856706122
 21
2.0962586177606068
 31
0.0
  0
LINE
  5
4088
  8
0
 10
140.4067825856706122
 20
2.0962586177606068
 30
0.0
 11
140.3772331624705885
 21
2.0962586177606068
 31
0.0
  0
LINE
  5
4089
  8
0
 10
140.3772331624705885
 20
2.0962586177606068
 30
0.0
 11
140.362458450870605
 21
2.0852063802606078
 31
0.0
  0
LINE
  5
408A
  8
0
 10
140.362458450870605
 20
2.0852063802606078
 30
0.0
 11
140.3772331624705885
 21
2.0741541427606078
 31
0.0
  0
LINE
  5
408B
  8
0
 10
140.3772331624705885
 20
2.0741541427606078
 30
0.0
 11
140.4067825856706122
 21
2.0741541427606078
 31
0.0
  0
LINE
  5
408C
  8
0
 10
140.4067825856706122
 20
2.101359650460608
 30
0.0
 11
140.4215572972705957
 21
2.1124118879606071
 31
0.0
  0
LINE
  5
408D
  8
0
 10
140.4215572972705957
 20
2.1124118879606071
 30
0.0
 11
140.4067825856706122
 21
2.123464125460607
 31
0.0
  0
LINE
  5
408E
  8
0
 10
140.4067825856706122
 20
2.123464125460607
 30
0.0
 11
140.3772331624705885
 21
2.123464125460607
 31
0.0
  0
LINE
  5
408F
  8
0
 10
140.3772331624705885
 20
2.123464125460607
 30
0.0
 11
140.362458450870605
 21
2.1124118879606071
 31
0.0
  0
LINE
  5
4090
  8
0
 10
140.362458450870605
 20
2.1124118879606071
 30
0.0
 11
140.3772331624705885
 21
2.101359650460608
 31
0.0
  0
LINE
  5
4091
  8
0
 10
140.3772331624705885
 20
2.101359650460608
 30
0.0
 11
140.4067825856706122
 21
2.101359650460608
 31
0.0
  0
LINE
  5
4092
  8
0
 10
140.3522298043706087
 20
1.9789348658606081
 30
0.0
 11
140.3670045159705921
 21
1.989987103360604
 31
0.0
  0
LINE
  5
4093
  8
0
 10
140.3670045159705921
 20
1.989987103360604
 30
0.0
 11
140.3522298043706087
 21
2.0010393408606069
 31
0.0
  0
LINE
  5
4094
  8
0
 10
140.3522298043706087
 20
2.0010393408606069
 30
0.0
 11
140.3226803811706986
 21
2.0010393408606069
 31
0.0
  0
LINE
  5
4095
  8
0
 10
140.3226803811706986
 20
2.0010393408606069
 30
0.0
 11
140.3079056695706015
 21
1.989987103360604
 31
0.0
  0
LINE
  5
4096
  8
0
 10
140.3079056695706015
 20
1.989987103360604
 30
0.0
 11
140.3226803811706986
 21
1.9789348658606081
 31
0.0
  0
LINE
  5
4097
  8
0
 10
140.3226803811706986
 20
1.9789348658606081
 30
0.0
 11
140.3522298043706087
 21
1.9789348658606081
 31
0.0
  0
LINE
  5
4098
  8
0
 10
140.3522298043706087
 20
2.006140373560608
 30
0.0
 11
140.3670045159705921
 21
2.0171926110606071
 31
0.0
  0
LINE
  5
4099
  8
0
 10
140.3670045159705921
 20
2.0171926110606071
 30
0.0
 11
140.3522298043706087
 21
2.028244848560607
 31
0.0
  0
LINE
  5
409A
  8
0
 10
140.3522298043706087
 20
2.028244848560607
 30
0.0
 11
140.3226803811706986
 21
2.028244848560607
 31
0.0
  0
LINE
  5
409B
  8
0
 10
140.3226803811706986
 20
2.028244848560607
 30
0.0
 11
140.3079056695706015
 21
2.0171926110606071
 31
0.0
  0
LINE
  5
409C
  8
0
 10
140.3079056695706015
 20
2.0171926110606071
 30
0.0
 11
140.3226803811706986
 21
2.006140373560608
 31
0.0
  0
LINE
  5
409D
  8
0
 10
140.3226803811706986
 20
2.006140373560608
 30
0.0
 11
140.3522298043706087
 21
2.006140373560608
 31
0.0
  0
LINE
  5
409E
  8
0
 10
140.3522298043706087
 20
2.0333458812606078
 30
0.0
 11
140.3670045159705921
 21
2.0443981187606042
 31
0.0
  0
LINE
  5
409F
  8
0
 10
140.3670045159705921
 20
2.0443981187606042
 30
0.0
 11
140.3522298043706087
 21
2.0554503562606068
 31
0.0
  0
LINE
  5
40A0
  8
0
 10
140.3522298043706087
 20
2.0554503562606068
 30
0.0
 11
140.3226803811706986
 21
2.0554503562606068
 31
0.0
  0
LINE
  5
40A1
  8
0
 10
140.3226803811706986
 20
2.0554503562606068
 30
0.0
 11
140.3079056695706015
 21
2.0443981187606042
 31
0.0
  0
LINE
  5
40A2
  8
0
 10
140.3079056695706015
 20
2.0443981187606042
 30
0.0
 11
140.3226803811706986
 21
2.0333458812606078
 31
0.0
  0
LINE
  5
40A3
  8
0
 10
140.3226803811706986
 20
2.0333458812606078
 30
0.0
 11
140.3522298043706087
 21
2.0333458812606078
 31
0.0
  0
LINE
  5
40A4
  8
0
 10
140.3522298043706087
 20
2.060551388960604
 30
0.0
 11
140.3670045159705921
 21
2.071603626460607
 31
0.0
  0
LINE
  5
40A5
  8
0
 10
140.3670045159705921
 20
2.071603626460607
 30
0.0
 11
140.3522298043706087
 21
2.082655863960603
 31
0.0
  0
LINE
  5
40A6
  8
0
 10
140.3522298043706087
 20
2.082655863960603
 30
0.0
 11
140.3226803811706986
 21
2.082655863960603
 31
0.0
  0
LINE
  5
40A7
  8
0
 10
140.3226803811706986
 20
2.082655863960603
 30
0.0
 11
140.3079056695706015
 21
2.071603626460607
 31
0.0
  0
LINE
  5
40A8
  8
0
 10
140.3079056695706015
 20
2.071603626460607
 30
0.0
 11
140.3226803811706986
 21
2.060551388960604
 31
0.0
  0
LINE
  5
40A9
  8
0
 10
140.3226803811706986
 20
2.060551388960604
 30
0.0
 11
140.3522298043706087
 21
2.060551388960604
 31
0.0
  0
LINE
  5
40AA
  8
0
 10
140.3522298043706087
 20
2.0877568966606068
 30
0.0
 11
140.3670045159705921
 21
2.0988091341606032
 31
0.0
  0
LINE
  5
40AB
  8
0
 10
140.3670045159705921
 20
2.0988091341606032
 30
0.0
 11
140.3522298043706087
 21
2.1098613716606058
 31
0.0
  0
LINE
  5
40AC
  8
0
 10
140.3522298043706087
 20
2.1098613716606058
 30
0.0
 11
140.3226803811706986
 21
2.1098613716606058
 31
0.0
  0
LINE
  5
40AD
  8
0
 10
140.3226803811706986
 20
2.1098613716606058
 30
0.0
 11
140.3079056695706015
 21
2.0988091341606032
 31
0.0
  0
LINE
  5
40AE
  8
0
 10
140.3079056695706015
 20
2.0988091341606032
 30
0.0
 11
140.3226803811706986
 21
2.0877568966606068
 31
0.0
  0
LINE
  5
40AF
  8
0
 10
140.3226803811706986
 20
2.0877568966606068
 30
0.0
 11
140.3522298043706087
 21
2.0877568966606068
 31
0.0
  0
LINE
  5
40B0
  8
0
 10
140.2976770229705892
 20
1.9653321119606091
 30
0.0
 11
140.312451734570601
 21
1.976384349460609
 31
0.0
  0
LINE
  5
40B1
  8
0
 10
140.312451734570601
 20
1.976384349460609
 30
0.0
 11
140.2976770229705892
 21
1.9874365869606081
 31
0.0
  0
LINE
  5
40B2
  8
0
 10
140.2976770229705892
 20
1.9874365869606081
 30
0.0
 11
140.2681275997705939
 21
1.9874365869606081
 31
0.0
  0
LINE
  5
40B3
  8
0
 10
140.2681275997705939
 20
1.9874365869606081
 30
0.0
 11
140.2533528881706104
 21
1.976384349460609
 31
0.0
  0
LINE
  5
40B4
  8
0
 10
140.2533528881706104
 20
1.976384349460609
 30
0.0
 11
140.2681275997705939
 21
1.9653321119606091
 31
0.0
  0
LINE
  5
40B5
  8
0
 10
140.2681275997705939
 20
1.9653321119606091
 30
0.0
 11
140.2976770229705892
 21
1.9653321119606091
 31
0.0
  0
LINE
  5
40B6
  8
0
 10
140.2976770229705892
 20
1.992537619660609
 30
0.0
 11
140.312451734570601
 21
2.0035898571606121
 31
0.0
  0
LINE
  5
40B7
  8
0
 10
140.312451734570601
 20
2.0035898571606121
 30
0.0
 11
140.2976770229705892
 21
2.0146420946606081
 31
0.0
  0
LINE
  5
40B8
  8
0
 10
140.2976770229705892
 20
2.0146420946606081
 30
0.0
 11
140.2681275997705939
 21
2.0146420946606081
 31
0.0
  0
LINE
  5
40B9
  8
0
 10
140.2681275997705939
 20
2.0146420946606081
 30
0.0
 11
140.2533528881706104
 21
2.0035898571606121
 31
0.0
  0
LINE
  5
40BA
  8
0
 10
140.2533528881706104
 20
2.0035898571606121
 30
0.0
 11
140.2681275997705939
 21
1.992537619660609
 31
0.0
  0
LINE
  5
40BB
  8
0
 10
140.2681275997705939
 20
1.992537619660609
 30
0.0
 11
140.2976770229705892
 21
1.992537619660609
 31
0.0
  0
LINE
  5
40BC
  8
0
 10
140.2976770229705892
 20
2.0197431273606088
 30
0.0
 11
140.312451734570601
 21
2.0307953648606079
 31
0.0
  0
LINE
  5
40BD
  8
0
 10
140.312451734570601
 20
2.0307953648606079
 30
0.0
 11
140.2976770229705892
 21
2.0418476023606078
 31
0.0
  0
LINE
  5
40BE
  8
0
 10
140.2976770229705892
 20
2.0418476023606078
 30
0.0
 11
140.2681275997705939
 21
2.0418476023606078
 31
0.0
  0
LINE
  5
40BF
  8
0
 10
140.2681275997705939
 20
2.0418476023606078
 30
0.0
 11
140.2533528881706104
 21
2.0307953648606079
 31
0.0
  0
LINE
  5
40C0
  8
0
 10
140.2533528881706104
 20
2.0307953648606079
 30
0.0
 11
140.2681275997705939
 21
2.0197431273606088
 31
0.0
  0
LINE
  5
40C1
  8
0
 10
140.2681275997705939
 20
2.0197431273606088
 30
0.0
 11
140.2976770229705892
 21
2.0197431273606088
 31
0.0
  0
LINE
  5
40C2
  8
0
 10
140.2976770229705892
 20
2.0469486350606081
 30
0.0
 11
140.312451734570601
 21
2.058000872560608
 31
0.0
  0
LINE
  5
40C3
  8
0
 10
140.312451734570601
 20
2.058000872560608
 30
0.0
 11
140.2976770229705892
 21
2.0690531100606071
 31
0.0
  0
LINE
  5
40C4
  8
0
 10
140.2976770229705892
 20
2.0690531100606071
 30
0.0
 11
140.2681275997705939
 21
2.0690531100606071
 31
0.0
  0
LINE
  5
40C5
  8
0
 10
140.2681275997705939
 20
2.0690531100606071
 30
0.0
 11
140.2533528881706104
 21
2.058000872560608
 31
0.0
  0
LINE
  5
40C6
  8
0
 10
140.2533528881706104
 20
2.058000872560608
 30
0.0
 11
140.2681275997705939
 21
2.0469486350606081
 31
0.0
  0
LINE
  5
40C7
  8
0
 10
140.2681275997705939
 20
2.0469486350606081
 30
0.0
 11
140.2976770229705892
 21
2.0469486350606081
 31
0.0
  0
LINE
  5
40C8
  8
0
 10
140.2976770229705892
 20
2.0741541427606078
 30
0.0
 11
140.312451734570601
 21
2.0852063802606078
 31
0.0
  0
LINE
  5
40C9
  8
0
 10
140.312451734570601
 20
2.0852063802606078
 30
0.0
 11
140.2976770229705892
 21
2.0962586177606068
 31
0.0
  0
LINE
  5
40CA
  8
0
 10
140.2976770229705892
 20
2.0962586177606068
 30
0.0
 11
140.2681275997705939
 21
2.0962586177606068
 31
0.0
  0
LINE
  5
40CB
  8
0
 10
140.2681275997705939
 20
2.0962586177606068
 30
0.0
 11
140.2533528881706104
 21
2.0852063802606078
 31
0.0
  0
LINE
  5
40CC
  8
0
 10
140.2533528881706104
 20
2.0852063802606078
 30
0.0
 11
140.2681275997705939
 21
2.0741541427606078
 31
0.0
  0
LINE
  5
40CD
  8
0
 10
140.2681275997705939
 20
2.0741541427606078
 30
0.0
 11
140.2976770229705892
 21
2.0741541427606078
 31
0.0
  0
LINE
  5
40CE
  8
0
 10
140.2431242416706141
 20
1.951729358160605
 30
0.0
 11
140.2578989532705975
 21
1.9627815956606081
 31
0.0
  0
LINE
  5
40CF
  8
0
 10
140.2578989532705975
 20
1.9627815956606081
 30
0.0
 11
140.2431242416706141
 21
1.973833833160604
 31
0.0
  0
LINE
  5
40D0
  8
0
 10
140.2431242416706141
 20
1.973833833160604
 30
0.0
 11
140.2135748184705903
 21
1.973833833160604
 31
0.0
  0
LINE
  5
40D1
  8
0
 10
140.2135748184705903
 20
1.973833833160604
 30
0.0
 11
140.1988001068706069
 21
1.9627815956606081
 31
0.0
  0
LINE
  5
40D2
  8
0
 10
140.1988001068706069
 20
1.9627815956606081
 30
0.0
 11
140.2135748184705903
 21
1.951729358160605
 31
0.0
  0
LINE
  5
40D3
  8
0
 10
140.2135748184705903
 20
1.951729358160605
 30
0.0
 11
140.2431242416706141
 21
1.951729358160605
 31
0.0
  0
LINE
  5
40D4
  8
0
 10
140.2431242416706141
 20
1.9789348658606081
 30
0.0
 11
140.2578989532705975
 21
1.989987103360608
 31
0.0
  0
LINE
  5
40D5
  8
0
 10
140.2578989532705975
 20
1.989987103360608
 30
0.0
 11
140.2431242416706141
 21
2.0010393408606069
 31
0.0
  0
LINE
  5
40D6
  8
0
 10
140.2431242416706141
 20
2.0010393408606069
 30
0.0
 11
140.2135748184705903
 21
2.0010393408606069
 31
0.0
  0
LINE
  5
40D7
  8
0
 10
140.2135748184705903
 20
2.0010393408606069
 30
0.0
 11
140.1988001068706069
 21
1.989987103360608
 31
0.0
  0
LINE
  5
40D8
  8
0
 10
140.1988001068706069
 20
1.989987103360608
 30
0.0
 11
140.2135748184705903
 21
1.9789348658606081
 31
0.0
  0
LINE
  5
40D9
  8
0
 10
140.2135748184705903
 20
1.9789348658606081
 30
0.0
 11
140.2431242416706141
 21
1.9789348658606081
 31
0.0
  0
LINE
  5
40DA
  8
0
 10
140.2431242416706141
 20
2.006140373560604
 30
0.0
 11
140.2578989532705975
 21
2.0171926110606071
 31
0.0
  0
LINE
  5
40DB
  8
0
 10
140.2578989532705975
 20
2.0171926110606071
 30
0.0
 11
140.2431242416706141
 21
2.0282448485606031
 31
0.0
  0
LINE
  5
40DC
  8
0
 10
140.2431242416706141
 20
2.0282448485606031
 30
0.0
 11
140.2135748184705903
 21
2.0282448485606031
 31
0.0
  0
LINE
  5
40DD
  8
0
 10
140.2135748184705903
 20
2.0282448485606031
 30
0.0
 11
140.1988001068706069
 21
2.0171926110606071
 31
0.0
  0
LINE
  5
40DE
  8
0
 10
140.1988001068706069
 20
2.0171926110606071
 30
0.0
 11
140.2135748184705903
 21
2.006140373560604
 31
0.0
  0
LINE
  5
40DF
  8
0
 10
140.2135748184705903
 20
2.006140373560604
 30
0.0
 11
140.2431242416706141
 21
2.006140373560604
 31
0.0
  0
LINE
  5
40E0
  8
0
 10
140.2431242416706141
 20
2.0333458812606078
 30
0.0
 11
140.2578989532705975
 21
2.0443981187606042
 31
0.0
  0
LINE
  5
40E1
  8
0
 10
140.2578989532705975
 20
2.0443981187606042
 30
0.0
 11
140.2431242416706141
 21
2.0554503562606068
 31
0.0
  0
LINE
  5
40E2
  8
0
 10
140.2431242416706141
 20
2.0554503562606068
 30
0.0
 11
140.2135748184705903
 21
2.0554503562606068
 31
0.0
  0
LINE
  5
40E3
  8
0
 10
140.2135748184705903
 20
2.0554503562606068
 30
0.0
 11
140.1988001068706069
 21
2.0443981187606042
 31
0.0
  0
LINE
  5
40E4
  8
0
 10
140.1988001068706069
 20
2.0443981187606042
 30
0.0
 11
140.2135748184705903
 21
2.0333458812606078
 31
0.0
  0
LINE
  5
40E5
  8
0
 10
140.2135748184705903
 20
2.0333458812606078
 30
0.0
 11
140.2431242416706141
 21
2.0333458812606078
 31
0.0
  0
LINE
  5
40E6
  8
0
 10
140.2431242416706141
 20
2.060551388960604
 30
0.0
 11
140.2578989532705975
 21
2.071603626460607
 31
0.0
  0
LINE
  5
40E7
  8
0
 10
140.2578989532705975
 20
2.071603626460607
 30
0.0
 11
140.2431242416706141
 21
2.082655863960603
 31
0.0
  0
LINE
  5
40E8
  8
0
 10
140.2431242416706141
 20
2.082655863960603
 30
0.0
 11
140.2135748184705903
 21
2.082655863960603
 31
0.0
  0
LINE
  5
40E9
  8
0
 10
140.2135748184705903
 20
2.082655863960603
 30
0.0
 11
140.1988001068706069
 21
2.071603626460607
 31
0.0
  0
LINE
  5
40EA
  8
0
 10
140.1988001068706069
 20
2.071603626460607
 30
0.0
 11
140.2135748184705903
 21
2.060551388960604
 31
0.0
  0
LINE
  5
40EB
  8
0
 10
140.2135748184705903
 20
2.060551388960604
 30
0.0
 11
140.2431242416706141
 21
2.060551388960604
 31
0.0
  0
LINE
  5
40EC
  8
0
 10
140.1885714602705946
 20
1.9653321119606091
 30
0.0
 11
140.2033461718706064
 21
1.976384349460609
 31
0.0
  0
LINE
  5
40ED
  8
0
 10
140.2033461718706064
 20
1.976384349460609
 30
0.0
 11
140.1885714602705946
 21
1.9874365869606081
 31
0.0
  0
LINE
  5
40EE
  8
0
 10
140.1885714602705946
 20
1.9874365869606081
 30
0.0
 11
140.1590220370705993
 21
1.9874365869606081
 31
0.0
  0
LINE
  5
40EF
  8
0
 10
140.1590220370705993
 20
1.9874365869606081
 30
0.0
 11
140.1442473254705874
 21
1.976384349460609
 31
0.0
  0
LINE
  5
40F0
  8
0
 10
140.1442473254705874
 20
1.976384349460609
 30
0.0
 11
140.1590220370705993
 21
1.9653321119606091
 31
0.0
  0
LINE
  5
40F1
  8
0
 10
140.1590220370705993
 20
1.9653321119606091
 30
0.0
 11
140.1885714602705946
 21
1.9653321119606091
 31
0.0
  0
LINE
  5
40F2
  8
0
 10
140.1885714602705946
 20
1.992537619660609
 30
0.0
 11
140.2033461718706064
 21
2.0035898571606121
 31
0.0
  0
LINE
  5
40F3
  8
0
 10
140.2033461718706064
 20
2.0035898571606121
 30
0.0
 11
140.1885714602705946
 21
2.0146420946606081
 31
0.0
  0
LINE
  5
40F4
  8
0
 10
140.1885714602705946
 20
2.0146420946606081
 30
0.0
 11
140.1590220370705993
 21
2.0146420946606081
 31
0.0
  0
LINE
  5
40F5
  8
0
 10
140.1590220370705993
 20
2.0146420946606081
 30
0.0
 11
140.1442473254705874
 21
2.0035898571606121
 31
0.0
  0
LINE
  5
40F6
  8
0
 10
140.1442473254705874
 20
2.0035898571606121
 30
0.0
 11
140.1590220370705993
 21
1.992537619660609
 31
0.0
  0
LINE
  5
40F7
  8
0
 10
140.1590220370705993
 20
1.992537619660609
 30
0.0
 11
140.1885714602705946
 21
1.992537619660609
 31
0.0
  0
LINE
  5
40F8
  8
0
 10
140.1885714602705946
 20
2.0197431273606088
 30
0.0
 11
140.2033461718706064
 21
2.0307953648606079
 31
0.0
  0
LINE
  5
40F9
  8
0
 10
140.2033461718706064
 20
2.0307953648606079
 30
0.0
 11
140.1885714602705946
 21
2.0418476023606078
 31
0.0
  0
LINE
  5
40FA
  8
0
 10
140.1885714602705946
 20
2.0418476023606078
 30
0.0
 11
140.1590220370705993
 21
2.0418476023606078
 31
0.0
  0
LINE
  5
40FB
  8
0
 10
140.1590220370705993
 20
2.0418476023606078
 30
0.0
 11
140.1442473254705874
 21
2.0307953648606079
 31
0.0
  0
LINE
  5
40FC
  8
0
 10
140.1442473254705874
 20
2.0307953648606079
 30
0.0
 11
140.1590220370705993
 21
2.0197431273606088
 31
0.0
  0
LINE
  5
40FD
  8
0
 10
140.1590220370705993
 20
2.0197431273606088
 30
0.0
 11
140.1885714602705946
 21
2.0197431273606088
 31
0.0
  0
LINE
  5
40FE
  8
0
 10
140.1885714602705946
 20
2.0469486350606081
 30
0.0
 11
140.2033461718706064
 21
2.058000872560608
 31
0.0
  0
LINE
  5
40FF
  8
0
 10
140.2033461718706064
 20
2.058000872560608
 30
0.0
 11
140.1885714602705946
 21
2.0690531100606071
 31
0.0
  0
LINE
  5
4100
  8
0
 10
140.1885714602705946
 20
2.0690531100606071
 30
0.0
 11
140.1590220370705993
 21
2.0690531100606071
 31
0.0
  0
LINE
  5
4101
  8
0
 10
140.1590220370705993
 20
2.0690531100606071
 30
0.0
 11
140.1442473254705874
 21
2.058000872560608
 31
0.0
  0
LINE
  5
4102
  8
0
 10
140.1442473254705874
 20
2.058000872560608
 30
0.0
 11
140.1590220370705993
 21
2.0469486350606081
 31
0.0
  0
LINE
  5
4103
  8
0
 10
140.1590220370705993
 20
2.0469486350606081
 30
0.0
 11
140.1885714602705946
 21
2.0469486350606081
 31
0.0
  0
LINE
  5
4104
  8
0
 10
140.1885714602705946
 20
2.0741541427606078
 30
0.0
 11
140.2033461718706064
 21
2.0852063802606078
 31
0.0
  0
LINE
  5
4105
  8
0
 10
140.2033461718706064
 20
2.0852063802606078
 30
0.0
 11
140.1885714602705946
 21
2.0962586177606068
 31
0.0
  0
LINE
  5
4106
  8
0
 10
140.1885714602705946
 20
2.0962586177606068
 30
0.0
 11
140.1590220370705993
 21
2.0962586177606068
 31
0.0
  0
LINE
  5
4107
  8
0
 10
140.1590220370705993
 20
2.0962586177606068
 30
0.0
 11
140.1442473254705874
 21
2.0852063802606078
 31
0.0
  0
LINE
  5
4108
  8
0
 10
140.1442473254705874
 20
2.0852063802606078
 30
0.0
 11
140.1590220370705993
 21
2.0741541427606078
 31
0.0
  0
LINE
  5
4109
  8
0
 10
140.1590220370705993
 20
2.0741541427606078
 30
0.0
 11
140.1885714602705946
 21
2.0741541427606078
 31
0.0
  0
LINE
  5
410A
  8
0
 10
140.1885714602705946
 20
2.101359650460608
 30
0.0
 11
140.2033461718706064
 21
2.1124118879606071
 31
0.0
  0
LINE
  5
410B
  8
0
 10
140.2033461718706064
 20
2.1124118879606071
 30
0.0
 11
140.1885714602705946
 21
2.123464125460607
 31
0.0
  0
LINE
  5
410C
  8
0
 10
140.1885714602705946
 20
2.123464125460607
 30
0.0
 11
140.1590220370705993
 21
2.123464125460607
 31
0.0
  0
LINE
  5
410D
  8
0
 10
140.1590220370705993
 20
2.123464125460607
 30
0.0
 11
140.1442473254705874
 21
2.1124118879606071
 31
0.0
  0
LINE
  5
410E
  8
0
 10
140.1442473254705874
 20
2.1124118879606071
 30
0.0
 11
140.1590220370705993
 21
2.101359650460608
 31
0.0
  0
LINE
  5
410F
  8
0
 10
140.1590220370705993
 20
2.101359650460608
 30
0.0
 11
140.1885714602705946
 21
2.101359650460608
 31
0.0
  0
LINE
  5
4110
  8
0
 10
140.1885714602705946
 20
2.1285651581606109
 30
0.0
 11
140.2033461718706064
 21
2.1396173956606068
 31
0.0
  0
LINE
  5
4111
  8
0
 10
140.2033461718706064
 20
2.1396173956606068
 30
0.0
 11
140.1885714602705946
 21
2.1506696331606099
 31
0.0
  0
LINE
  5
4112
  8
0
 10
140.1885714602705946
 20
2.1506696331606099
 30
0.0
 11
140.1590220370705993
 21
2.1506696331606099
 31
0.0
  0
LINE
  5
4113
  8
0
 10
140.1590220370705993
 20
2.1506696331606099
 30
0.0
 11
140.1442473254705874
 21
2.1396173956606068
 31
0.0
  0
LINE
  5
4114
  8
0
 10
140.1442473254705874
 20
2.1396173956606068
 30
0.0
 11
140.1590220370705993
 21
2.1285651581606109
 31
0.0
  0
LINE
  5
4115
  8
0
 10
140.1590220370705993
 20
2.1285651581606109
 30
0.0
 11
140.1885714602705946
 21
2.1285651581606109
 31
0.0
  0
LINE
  5
4116
  8
0
 10
140.1885714602705946
 20
2.1557706658606071
 30
0.0
 11
140.2033461718706064
 21
2.166822903360607
 31
0.0
  0
LINE
  5
4117
  8
0
 10
140.2033461718706064
 20
2.166822903360607
 30
0.0
 11
140.1885714602705946
 21
2.1778751408606061
 31
0.0
  0
LINE
  5
4118
  8
0
 10
140.1885714602705946
 20
2.1778751408606061
 30
0.0
 11
140.1590220370705993
 21
2.1778751408606061
 31
0.0
  0
LINE
  5
4119
  8
0
 10
140.1590220370705993
 20
2.1778751408606061
 30
0.0
 11
140.1442473254705874
 21
2.166822903360607
 31
0.0
  0
LINE
  5
411A
  8
0
 10
140.1442473254705874
 20
2.166822903360607
 30
0.0
 11
140.1590220370705993
 21
2.1557706658606071
 31
0.0
  0
LINE
  5
411B
  8
0
 10
140.1590220370705993
 20
2.1557706658606071
 30
0.0
 11
140.1885714602705946
 21
2.1557706658606071
 31
0.0
  0
LINE
  5
411C
  8
0
 10
140.1885714602705946
 20
2.1829761735606068
 30
0.0
 11
140.2033461718706064
 21
2.1940284110606072
 31
0.0
  0
LINE
  5
411D
  8
0
 10
140.2033461718706064
 20
2.1940284110606072
 30
0.0
 11
140.1885714602705946
 21
2.2050806485606058
 31
0.0
  0
LINE
  5
411E
  8
0
 10
140.1885714602705946
 20
2.2050806485606058
 30
0.0
 11
140.1590220370705993
 21
2.2050806485606058
 31
0.0
  0
LINE
  5
411F
  8
0
 10
140.1590220370705993
 20
2.2050806485606058
 30
0.0
 11
140.1442473254705874
 21
2.1940284110606072
 31
0.0
  0
LINE
  5
4120
  8
0
 10
140.1442473254705874
 20
2.1940284110606072
 30
0.0
 11
140.1590220370705993
 21
2.1829761735606068
 31
0.0
  0
LINE
  5
4121
  8
0
 10
140.1590220370705993
 20
2.1829761735606068
 30
0.0
 11
140.1885714602705946
 21
2.1829761735606068
 31
0.0
  0
LINE
  5
4122
  8
0
 10
140.1885714602705946
 20
2.210181681260607
 30
0.0
 11
140.2033461718706064
 21
2.2212339187606061
 31
0.0
  0
LINE
  5
4123
  8
0
 10
140.2033461718706064
 20
2.2212339187606061
 30
0.0
 11
140.1885714602705946
 21
2.232286156260606
 31
0.0
  0
LINE
  5
4124
  8
0
 10
140.1885714602705946
 20
2.232286156260606
 30
0.0
 11
140.1590220370705993
 21
2.232286156260606
 31
0.0
  0
LINE
  5
4125
  8
0
 10
140.1590220370705993
 20
2.232286156260606
 30
0.0
 11
140.1442473254705874
 21
2.2212339187606061
 31
0.0
  0
LINE
  5
4126
  8
0
 10
140.1442473254705874
 20
2.2212339187606061
 30
0.0
 11
140.1590220370705993
 21
2.210181681260607
 31
0.0
  0
LINE
  5
4127
  8
0
 10
140.1590220370705993
 20
2.210181681260607
 30
0.0
 11
140.1885714602705946
 21
2.210181681260607
 31
0.0
  0
LINE
  5
4128
  8
0
 10
140.2431242416706141
 20
2.0877568966606068
 30
0.0
 11
140.2578989532705975
 21
2.0988091341606099
 31
0.0
  0
LINE
  5
4129
  8
0
 10
140.2578989532705975
 20
2.0988091341606099
 30
0.0
 11
140.2431242416706141
 21
2.1098613716606058
 31
0.0
  0
LINE
  5
412A
  8
0
 10
140.2431242416706141
 20
2.1098613716606058
 30
0.0
 11
140.2135748184705903
 21
2.1098613716606058
 31
0.0
  0
LINE
  5
412B
  8
0
 10
140.2135748184705903
 20
2.1098613716606058
 30
0.0
 11
140.1988001068706069
 21
2.0988091341606099
 31
0.0
  0
LINE
  5
412C
  8
0
 10
140.1988001068706069
 20
2.0988091341606099
 30
0.0
 11
140.2135748184705903
 21
2.0877568966606068
 31
0.0
  0
LINE
  5
412D
  8
0
 10
140.2135748184705903
 20
2.0877568966606068
 30
0.0
 11
140.2431242416706141
 21
2.0877568966606068
 31
0.0
  0
LINE
  5
412E
  8
0
 10
140.2431242416706141
 20
2.114962404360611
 30
0.0
 11
140.2578989532705975
 21
2.1260146418606101
 31
0.0
  0
LINE
  5
412F
  8
0
 10
140.2578989532705975
 20
2.1260146418606101
 30
0.0
 11
140.2431242416706141
 21
2.13706687936061
 31
0.0
  0
LINE
  5
4130
  8
0
 10
140.2431242416706141
 20
2.13706687936061
 30
0.0
 11
140.2135748184705903
 21
2.13706687936061
 31
0.0
  0
LINE
  5
4131
  8
0
 10
140.2135748184705903
 20
2.13706687936061
 30
0.0
 11
140.1988001068706069
 21
2.1260146418606101
 31
0.0
  0
LINE
  5
4132
  8
0
 10
140.1988001068706069
 20
2.1260146418606101
 30
0.0
 11
140.2135748184705903
 21
2.114962404360611
 31
0.0
  0
LINE
  5
4133
  8
0
 10
140.2135748184705903
 20
2.114962404360611
 30
0.0
 11
140.2431242416706141
 21
2.114962404360611
 31
0.0
  0
LINE
  5
4134
  8
0
 10
140.2431242416706141
 20
2.1421679120606072
 30
0.0
 11
140.2578989532705975
 21
2.1532201495606098
 31
0.0
  0
LINE
  5
4135
  8
0
 10
140.2578989532705975
 20
2.1532201495606098
 30
0.0
 11
140.2431242416706141
 21
2.1642723870606062
 31
0.0
  0
LINE
  5
4136
  8
0
 10
140.2431242416706141
 20
2.1642723870606062
 30
0.0
 11
140.2135748184705903
 21
2.1642723870606062
 31
0.0
  0
LINE
  5
4137
  8
0
 10
140.2135748184705903
 20
2.1642723870606062
 30
0.0
 11
140.1988001068706069
 21
2.1532201495606098
 31
0.0
  0
LINE
  5
4138
  8
0
 10
140.1988001068706069
 20
2.1532201495606098
 30
0.0
 11
140.2135748184705903
 21
2.1421679120606072
 31
0.0
  0
LINE
  5
4139
  8
0
 10
140.2135748184705903
 20
2.1421679120606072
 30
0.0
 11
140.2431242416706141
 21
2.1421679120606072
 31
0.0
  0
LINE
  5
413A
  8
0
 10
140.2431242416706141
 20
2.16937341976061
 30
0.0
 11
140.2578989532705975
 21
2.180425657260606
 31
0.0
  0
LINE
  5
413B
  8
0
 10
140.2578989532705975
 20
2.180425657260606
 30
0.0
 11
140.2431242416706141
 21
2.1914778947606091
 31
0.0
  0
LINE
  5
413C
  8
0
 10
140.2431242416706141
 20
2.1914778947606091
 30
0.0
 11
140.2135748184705903
 21
2.1914778947606091
 31
0.0
  0
LINE
  5
413D
  8
0
 10
140.2135748184705903
 20
2.1914778947606091
 30
0.0
 11
140.1988001068706069
 21
2.180425657260606
 31
0.0
  0
LINE
  5
413E
  8
0
 10
140.1988001068706069
 20
2.180425657260606
 30
0.0
 11
140.2135748184705903
 21
2.16937341976061
 31
0.0
  0
LINE
  5
413F
  8
0
 10
140.2135748184705903
 20
2.16937341976061
 30
0.0
 11
140.2431242416706141
 21
2.16937341976061
 31
0.0
  0
LINE
  5
4140
  8
0
 10
140.2431242416706141
 20
2.1965789274606058
 30
0.0
 11
140.2578989532705975
 21
2.2076311649606088
 31
0.0
  0
LINE
  5
4141
  8
0
 10
140.2578989532705975
 20
2.2076311649606088
 30
0.0
 11
140.2431242416706141
 21
2.2186834024606048
 31
0.0
  0
LINE
  5
4142
  8
0
 10
140.2431242416706141
 20
2.2186834024606048
 30
0.0
 11
140.2135748184705903
 21
2.2186834024606048
 31
0.0
  0
LINE
  5
4143
  8
0
 10
140.2135748184705903
 20
2.2186834024606048
 30
0.0
 11
140.1988001068706069
 21
2.2076311649606088
 31
0.0
  0
LINE
  5
4144
  8
0
 10
140.1988001068706069
 20
2.2076311649606088
 30
0.0
 11
140.2135748184705903
 21
2.1965789274606058
 31
0.0
  0
LINE
  5
4145
  8
0
 10
140.2135748184705903
 20
2.1965789274606058
 30
0.0
 11
140.2431242416706141
 21
2.1965789274606058
 31
0.0
  0
LINE
  5
4146
  8
0
 10
140.2976770229705892
 20
2.101359650460608
 30
0.0
 11
140.312451734570601
 21
2.1124118879606071
 31
0.0
  0
LINE
  5
4147
  8
0
 10
140.312451734570601
 20
2.1124118879606071
 30
0.0
 11
140.2976770229705892
 21
2.123464125460607
 31
0.0
  0
LINE
  5
4148
  8
0
 10
140.2976770229705892
 20
2.123464125460607
 30
0.0
 11
140.2681275997705939
 21
2.123464125460607
 31
0.0
  0
LINE
  5
4149
  8
0
 10
140.2681275997705939
 20
2.123464125460607
 30
0.0
 11
140.2533528881706104
 21
2.1124118879606071
 31
0.0
  0
LINE
  5
414A
  8
0
 10
140.2533528881706104
 20
2.1124118879606071
 30
0.0
 11
140.2681275997705939
 21
2.101359650460608
 31
0.0
  0
LINE
  5
414B
  8
0
 10
140.2681275997705939
 20
2.101359650460608
 30
0.0
 11
140.2976770229705892
 21
2.101359650460608
 31
0.0
  0
LINE
  5
414C
  8
0
 10
140.2976770229705892
 20
2.1285651581606109
 30
0.0
 11
140.312451734570601
 21
2.1396173956606068
 31
0.0
  0
LINE
  5
414D
  8
0
 10
140.312451734570601
 20
2.1396173956606068
 30
0.0
 11
140.2976770229705892
 21
2.1506696331606099
 31
0.0
  0
LINE
  5
414E
  8
0
 10
140.2976770229705892
 20
2.1506696331606099
 30
0.0
 11
140.2681275997705939
 21
2.1506696331606099
 31
0.0
  0
LINE
  5
414F
  8
0
 10
140.2681275997705939
 20
2.1506696331606099
 30
0.0
 11
140.2533528881706104
 21
2.1396173956606068
 31
0.0
  0
LINE
  5
4150
  8
0
 10
140.2533528881706104
 20
2.1396173956606068
 30
0.0
 11
140.2681275997705939
 21
2.1285651581606109
 31
0.0
  0
LINE
  5
4151
  8
0
 10
140.2681275997705939
 20
2.1285651581606109
 30
0.0
 11
140.2976770229705892
 21
2.1285651581606109
 31
0.0
  0
LINE
  5
4152
  8
0
 10
140.2976770229705892
 20
2.1557706658606071
 30
0.0
 11
140.312451734570601
 21
2.166822903360607
 31
0.0
  0
LINE
  5
4153
  8
0
 10
140.312451734570601
 20
2.166822903360607
 30
0.0
 11
140.2976770229705892
 21
2.1778751408606061
 31
0.0
  0
LINE
  5
4154
  8
0
 10
140.2976770229705892
 20
2.1778751408606061
 30
0.0
 11
140.2681275997705939
 21
2.1778751408606061
 31
0.0
  0
LINE
  5
4155
  8
0
 10
140.2681275997705939
 20
2.1778751408606061
 30
0.0
 11
140.2533528881706104
 21
2.166822903360607
 31
0.0
  0
LINE
  5
4156
  8
0
 10
140.2533528881706104
 20
2.166822903360607
 30
0.0
 11
140.2681275997705939
 21
2.1557706658606071
 31
0.0
  0
LINE
  5
4157
  8
0
 10
140.2681275997705939
 20
2.1557706658606071
 30
0.0
 11
140.2976770229705892
 21
2.1557706658606071
 31
0.0
  0
LINE
  5
4158
  8
0
 10
140.2976770229705892
 20
2.1829761735606068
 30
0.0
 11
140.312451734570601
 21
2.1940284110606072
 31
0.0
  0
LINE
  5
4159
  8
0
 10
140.312451734570601
 20
2.1940284110606072
 30
0.0
 11
140.2976770229705892
 21
2.2050806485606058
 31
0.0
  0
LINE
  5
415A
  8
0
 10
140.2976770229705892
 20
2.2050806485606058
 30
0.0
 11
140.2681275997705939
 21
2.2050806485606058
 31
0.0
  0
LINE
  5
415B
  8
0
 10
140.2681275997705939
 20
2.2050806485606058
 30
0.0
 11
140.2533528881706104
 21
2.1940284110606072
 31
0.0
  0
LINE
  5
415C
  8
0
 10
140.2533528881706104
 20
2.1940284110606072
 30
0.0
 11
140.2681275997705939
 21
2.1829761735606068
 31
0.0
  0
LINE
  5
415D
  8
0
 10
140.2681275997705939
 20
2.1829761735606068
 30
0.0
 11
140.2976770229705892
 21
2.1829761735606068
 31
0.0
  0
LINE
  5
415E
  8
0
 10
140.2976770229705892
 20
2.210181681260607
 30
0.0
 11
140.312451734570601
 21
2.2212339187606061
 31
0.0
  0
LINE
  5
415F
  8
0
 10
140.312451734570601
 20
2.2212339187606061
 30
0.0
 11
140.2976770229705892
 21
2.232286156260606
 31
0.0
  0
LINE
  5
4160
  8
0
 10
140.2976770229705892
 20
2.232286156260606
 30
0.0
 11
140.2681275997705939
 21
2.232286156260606
 31
0.0
  0
LINE
  5
4161
  8
0
 10
140.2681275997705939
 20
2.232286156260606
 30
0.0
 11
140.2533528881706104
 21
2.2212339187606061
 31
0.0
  0
LINE
  5
4162
  8
0
 10
140.2533528881706104
 20
2.2212339187606061
 30
0.0
 11
140.2681275997705939
 21
2.210181681260607
 31
0.0
  0
LINE
  5
4163
  8
0
 10
140.2681275997705939
 20
2.210181681260607
 30
0.0
 11
140.2976770229705892
 21
2.210181681260607
 31
0.0
  0
LINE
  5
4164
  8
0
 10
140.3522298043706087
 20
2.114962404360611
 30
0.0
 11
140.3670045159705921
 21
2.1260146418606061
 31
0.0
  0
LINE
  5
4165
  8
0
 10
140.3670045159705921
 20
2.1260146418606061
 30
0.0
 11
140.3522298043706087
 21
2.13706687936061
 31
0.0
  0
LINE
  5
4166
  8
0
 10
140.3522298043706087
 20
2.13706687936061
 30
0.0
 11
140.3226803811706986
 21
2.13706687936061
 31
0.0
  0
LINE
  5
4167
  8
0
 10
140.3226803811706986
 20
2.13706687936061
 30
0.0
 11
140.3079056695706015
 21
2.1260146418606061
 31
0.0
  0
LINE
  5
4168
  8
0
 10
140.3079056695706015
 20
2.1260146418606061
 30
0.0
 11
140.3226803811706986
 21
2.114962404360611
 31
0.0
  0
LINE
  5
4169
  8
0
 10
140.3226803811706986
 20
2.114962404360611
 30
0.0
 11
140.3522298043706087
 21
2.114962404360611
 31
0.0
  0
LINE
  5
416A
  8
0
 10
140.3522298043706087
 20
2.1421679120606099
 30
0.0
 11
140.3670045159705921
 21
2.1532201495606098
 31
0.0
  0
LINE
  5
416B
  8
0
 10
140.3670045159705921
 20
2.1532201495606098
 30
0.0
 11
140.3522298043706087
 21
2.1642723870606089
 31
0.0
  0
LINE
  5
416C
  8
0
 10
140.3522298043706087
 20
2.1642723870606089
 30
0.0
 11
140.3226803811706986
 21
2.1642723870606089
 31
0.0
  0
LINE
  5
416D
  8
0
 10
140.3226803811706986
 20
2.1642723870606089
 30
0.0
 11
140.3079056695706015
 21
2.1532201495606098
 31
0.0
  0
LINE
  5
416E
  8
0
 10
140.3079056695706015
 20
2.1532201495606098
 30
0.0
 11
140.3226803811706986
 21
2.1421679120606099
 31
0.0
  0
LINE
  5
416F
  8
0
 10
140.3226803811706986
 20
2.1421679120606099
 30
0.0
 11
140.3522298043706087
 21
2.1421679120606099
 31
0.0
  0
LINE
  5
4170
  8
0
 10
140.3522298043706087
 20
2.16937341976061
 30
0.0
 11
140.3670045159705921
 21
2.180425657260606
 31
0.0
  0
LINE
  5
4171
  8
0
 10
140.3670045159705921
 20
2.180425657260606
 30
0.0
 11
140.3522298043706087
 21
2.1914778947606091
 31
0.0
  0
LINE
  5
4172
  8
0
 10
140.3522298043706087
 20
2.1914778947606091
 30
0.0
 11
140.3226803811706986
 21
2.1914778947606091
 31
0.0
  0
LINE
  5
4173
  8
0
 10
140.3226803811706986
 20
2.1914778947606091
 30
0.0
 11
140.3079056695706015
 21
2.180425657260606
 31
0.0
  0
LINE
  5
4174
  8
0
 10
140.3079056695706015
 20
2.180425657260606
 30
0.0
 11
140.3226803811706986
 21
2.16937341976061
 31
0.0
  0
LINE
  5
4175
  8
0
 10
140.3226803811706986
 20
2.16937341976061
 30
0.0
 11
140.3522298043706087
 21
2.16937341976061
 31
0.0
  0
LINE
  5
4176
  8
0
 10
140.3522298043706087
 20
2.1965789274606058
 30
0.0
 11
140.3670045159705921
 21
2.2076311649606088
 31
0.0
  0
LINE
  5
4177
  8
0
 10
140.3670045159705921
 20
2.2076311649606088
 30
0.0
 11
140.3522298043706087
 21
2.2186834024606048
 31
0.0
  0
LINE
  5
4178
  8
0
 10
140.3522298043706087
 20
2.2186834024606048
 30
0.0
 11
140.3226803811706986
 21
2.2186834024606048
 31
0.0
  0
LINE
  5
4179
  8
0
 10
140.3226803811706986
 20
2.2186834024606048
 30
0.0
 11
140.3079056695706015
 21
2.2076311649606088
 31
0.0
  0
LINE
  5
417A
  8
0
 10
140.3079056695706015
 20
2.2076311649606088
 30
0.0
 11
140.3226803811706986
 21
2.1965789274606058
 31
0.0
  0
LINE
  5
417B
  8
0
 10
140.3226803811706986
 20
2.1965789274606058
 30
0.0
 11
140.3522298043706087
 21
2.1965789274606058
 31
0.0
  0
LINE
  5
417C
  8
0
 10
140.3522298043706087
 20
2.2237844351606091
 30
0.0
 11
140.3670045159705921
 21
2.234836672660605
 31
0.0
  0
LINE
  5
417D
  8
0
 10
140.3670045159705921
 20
2.234836672660605
 30
0.0
 11
140.3629613804878034
 21
2.2378611441231508
 31
0.0
  0
LINE
  5
417E
  8
0
 10
140.3234283387417065
 20
2.2458889101606081
 30
0.0
 11
140.3226803811706986
 21
2.2458889101606081
 31
0.0
  0
LINE
  5
417F
  8
0
 10
140.3226803811706986
 20
2.2458889101606081
 30
0.0
 11
140.3079056695706015
 21
2.234836672660605
 31
0.0
  0
LINE
  5
4180
  8
0
 10
140.3079056695706015
 20
2.234836672660605
 30
0.0
 11
140.3226803811706986
 21
2.2237844351606091
 31
0.0
  0
LINE
  5
4181
  8
0
 10
140.3226803811706986
 20
2.2237844351606091
 30
0.0
 11
140.3522298043706087
 21
2.2237844351606091
 31
0.0
  0
LINE
  5
4182
  8
0
 10
140.4067825856706122
 20
2.1285651581606082
 30
0.0
 11
140.4215572972705957
 21
2.1396173956606068
 31
0.0
  0
LINE
  5
4183
  8
0
 10
140.4215572972705957
 20
2.1396173956606068
 30
0.0
 11
140.4067825856706122
 21
2.1506696331606072
 31
0.0
  0
LINE
  5
4184
  8
0
 10
140.4067825856706122
 20
2.1506696331606072
 30
0.0
 11
140.3772331624705885
 21
2.1506696331606072
 31
0.0
  0
LINE
  5
4185
  8
0
 10
140.3772331624705885
 20
2.1506696331606072
 30
0.0
 11
140.362458450870605
 21
2.1396173956606068
 31
0.0
  0
LINE
  5
4186
  8
0
 10
140.362458450870605
 20
2.1396173956606068
 30
0.0
 11
140.3772331624705885
 21
2.1285651581606082
 31
0.0
  0
LINE
  5
4187
  8
0
 10
140.3772331624705885
 20
2.1285651581606082
 30
0.0
 11
140.4067825856706122
 21
2.1285651581606082
 31
0.0
  0
LINE
  5
4188
  8
0
 10
140.4067825856706122
 20
2.1557706658606071
 30
0.0
 11
140.4215572972705957
 21
2.166822903360611
 31
0.0
  0
LINE
  5
4189
  8
0
 10
140.4215572972705957
 20
2.166822903360611
 30
0.0
 11
140.4067825856706122
 21
2.1778751408606061
 31
0.0
  0
LINE
  5
418A
  8
0
 10
140.4067825856706122
 20
2.1778751408606061
 30
0.0
 11
140.3772331624705885
 21
2.1778751408606061
 31
0.0
  0
LINE
  5
418B
  8
0
 10
140.3772331624705885
 20
2.1778751408606061
 30
0.0
 11
140.362458450870605
 21
2.166822903360611
 31
0.0
  0
LINE
  5
418C
  8
0
 10
140.362458450870605
 20
2.166822903360611
 30
0.0
 11
140.3772331624705885
 21
2.1557706658606071
 31
0.0
  0
LINE
  5
418D
  8
0
 10
140.3772331624705885
 20
2.1557706658606071
 30
0.0
 11
140.4067825856706122
 21
2.1557706658606071
 31
0.0
  0
LINE
  5
418E
  8
0
 10
140.4067825856706122
 20
2.1829761735606068
 30
0.0
 11
140.4215572972705957
 21
2.1940284110606072
 31
0.0
  0
LINE
  5
418F
  8
0
 10
140.4215572972705957
 20
2.1940284110606072
 30
0.0
 11
140.4067825856706122
 21
2.2050806485606058
 31
0.0
  0
LINE
  5
4190
  8
0
 10
140.4067825856706122
 20
2.2050806485606058
 30
0.0
 11
140.3772331624705885
 21
2.2050806485606058
 31
0.0
  0
LINE
  5
4191
  8
0
 10
140.3772331624705885
 20
2.2050806485606058
 30
0.0
 11
140.362458450870605
 21
2.1940284110606072
 31
0.0
  0
LINE
  5
4192
  8
0
 10
140.362458450870605
 20
2.1940284110606072
 30
0.0
 11
140.3772331624705885
 21
2.1829761735606068
 31
0.0
  0
LINE
  5
4193
  8
0
 10
140.3772331624705885
 20
2.1829761735606068
 30
0.0
 11
140.4067825856706122
 21
2.1829761735606068
 31
0.0
  0
LINE
  5
4194
  8
0
 10
140.4067825856706122
 20
2.210181681260607
 30
0.0
 11
140.4215572972705957
 21
2.2212339187606061
 31
0.0
  0
LINE
  5
4195
  8
0
 10
140.4215572972705957
 20
2.2212339187606061
 30
0.0
 11
140.4191738413211112
 21
2.2230168653208011
 31
0.0
  0
LINE
  5
4196
  8
0
 10
140.3859494129578991
 20
2.232286156260606
 30
0.0
 11
140.3772331624705885
 21
2.232286156260606
 31
0.0
  0
LINE
  5
4197
  8
0
 10
140.3772331624705885
 20
2.232286156260606
 30
0.0
 11
140.362458450870605
 21
2.2212339187606061
 31
0.0
  0
LINE
  5
4198
  8
0
 10
140.362458450870605
 20
2.2212339187606061
 30
0.0
 11
140.3772331624705885
 21
2.210181681260607
 31
0.0
  0
LINE
  5
4199
  8
0
 10
140.3772331624705885
 20
2.210181681260607
 30
0.0
 11
140.4067825856706122
 21
2.210181681260607
 31
0.0
  0
LINE
  5
419A
  8
0
 10
140.4613353670706033
 20
2.1421679120606072
 30
0.0
 11
140.4761100786705867
 21
2.1532201495606098
 31
0.0
  0
LINE
  5
419B
  8
0
 10
140.4761100786705867
 20
2.1532201495606098
 30
0.0
 11
140.4613353670706033
 21
2.1642723870606062
 31
0.0
  0
LINE
  5
419C
  8
0
 10
140.4613353670706033
 20
2.1642723870606062
 30
0.0
 11
140.431785943870608
 21
2.1642723870606062
 31
0.0
  0
LINE
  5
419D
  8
0
 10
140.431785943870608
 20
2.1642723870606062
 30
0.0
 11
140.4170112322705961
 21
2.1532201495606098
 31
0.0
  0
LINE
  5
419E
  8
0
 10
140.4170112322705961
 20
2.1532201495606098
 30
0.0
 11
140.431785943870608
 21
2.1421679120606072
 31
0.0
  0
LINE
  5
419F
  8
0
 10
140.431785943870608
 20
2.1421679120606072
 30
0.0
 11
140.4613353670706033
 21
2.1421679120606072
 31
0.0
  0
LINE
  5
41A0
  8
0
 10
140.4613353670706033
 20
2.16937341976061
 30
0.0
 11
140.4761100786705867
 21
2.180425657260606
 31
0.0
  0
LINE
  5
41A1
  8
0
 10
140.4761100786705867
 20
2.180425657260606
 30
0.0
 11
140.4613353670706033
 21
2.1914778947606091
 31
0.0
  0
LINE
  5
41A2
  8
0
 10
140.4613353670706033
 20
2.1914778947606091
 30
0.0
 11
140.431785943870608
 21
2.1914778947606091
 31
0.0
  0
LINE
  5
41A3
  8
0
 10
140.431785943870608
 20
2.1914778947606091
 30
0.0
 11
140.4170112322705961
 21
2.180425657260606
 31
0.0
  0
LINE
  5
41A4
  8
0
 10
140.4170112322705961
 20
2.180425657260606
 30
0.0
 11
140.431785943870608
 21
2.16937341976061
 31
0.0
  0
LINE
  5
41A5
  8
0
 10
140.431785943870608
 20
2.16937341976061
 30
0.0
 11
140.4613353670706033
 21
2.16937341976061
 31
0.0
  0
LINE
  5
41A6
  8
0
 10
140.4613353670706033
 20
2.1965789274606058
 30
0.0
 11
140.4710393176993932
 21
2.203837977243857
 31
0.0
  0
LINE
  5
41A7
  8
0
 10
140.4331659544756974
 20
2.2186834024606048
 30
0.0
 11
140.431785943870608
 21
2.2186834024606048
 31
0.0
  0
LINE
  5
41A8
  8
0
 10
140.431785943870608
 20
2.2186834024606048
 30
0.0
 11
140.4170112322705961
 21
2.2076311649606088
 31
0.0
  0
LINE
  5
41A9
  8
0
 10
140.4170112322705961
 20
2.2076311649606088
 30
0.0
 11
140.431785943870608
 21
2.1965789274606058
 31
0.0
  0
LINE
  5
41AA
  8
0
 10
140.431785943870608
 20
2.1965789274606058
 30
0.0
 11
140.4613353670706033
 21
2.1965789274606058
 31
0.0
  0
LINE
  5
41AB
  8
0
 10
140.2976770229705892
 20
2.2373871889606098
 30
0.0
 11
140.3117230001383007
 21
2.247894295953933
 31
0.0
  0
LINE
  5
41AC
  8
0
 10
140.2615900837998879
 20
2.254601268728226
 30
0.0
 11
140.2533528881706104
 21
2.2484394264606058
 31
0.0
  0
LINE
  5
41AD
  8
0
 10
140.2533528881706104
 20
2.2484394264606058
 30
0.0
 11
140.2681275997705939
 21
2.2373871889606098
 31
0.0
  0
LINE
  5
41AE
  8
0
 10
140.2681275997705939
 20
2.2373871889606098
 30
0.0
 11
140.2976770229705892
 21
2.2373871889606098
 31
0.0
  0
LINE
  5
41AF
  8
0
 10
140.2431242416706141
 20
2.2237844351606091
 30
0.0
 11
140.2578989532705975
 21
2.234836672660605
 31
0.0
  0
LINE
  5
41B0
  8
0
 10
140.2578989532705975
 20
2.234836672660605
 30
0.0
 11
140.2431242416706141
 21
2.2458889101606081
 31
0.0
  0
LINE
  5
41B1
  8
0
 10
140.2431242416706141
 20
2.2458889101606081
 30
0.0
 11
140.2135748184705903
 21
2.2458889101606081
 31
0.0
  0
LINE
  5
41B2
  8
0
 10
140.2135748184705903
 20
2.2458889101606081
 30
0.0
 11
140.1988001068706069
 21
2.234836672660605
 31
0.0
  0
LINE
  5
41B3
  8
0
 10
140.1988001068706069
 20
2.234836672660605
 30
0.0
 11
140.2135748184705903
 21
2.2237844351606091
 31
0.0
  0
LINE
  5
41B4
  8
0
 10
140.2135748184705903
 20
2.2237844351606091
 30
0.0
 11
140.2431242416706141
 21
2.2237844351606091
 31
0.0
  0
LINE
  5
41B5
  8
0
 10
140.2431242416706141
 20
2.2509899428606062
 30
0.0
 11
140.2495096079435939
 21
2.2557665223623822
 31
0.0
  0
LINE
  5
41B6
  8
0
 10
140.2033675616044945
 20
2.2586254913682349
 30
0.0
 11
140.2135748184705903
 21
2.2509899428606062
 31
0.0
  0
LINE
  5
41B7
  8
0
 10
140.2135748184705903
 20
2.2509899428606062
 30
0.0
 11
140.2431242416706141
 21
2.2509899428606062
 31
0.0
  0
LINE
  5
41B8
  8
0
 10
140.1885714602705946
 20
2.2373871889606098
 30
0.0
 11
140.2033461718706064
 21
2.2484394264606058
 31
0.0
  0
LINE
  5
41B9
  8
0
 10
140.2033461718706064
 20
2.2484394264606058
 30
0.0
 11
140.1892298539079036
 21
2.2589991519546682
 31
0.0
  0
LINE
  5
41BA
  8
0
 10
140.1583632925795087
 20
2.258998889498069
 30
0.0
 11
140.1442473254705874
 21
2.2484394264606058
 31
0.0
  0
LINE
  5
41BB
  8
0
 10
140.1442473254705874
 20
2.2484394264606058
 30
0.0
 11
140.1590220370705993
 21
2.2373871889606098
 31
0.0
  0
LINE
  5
41BC
  8
0
 10
140.1590220370705993
 20
2.2373871889606098
 30
0.0
 11
140.1885714602705946
 21
2.2373871889606098
 31
0.0
  0
LINE
  5
41BD
  8
0
 10
137.3822106015705913
 20
-1.156161371139393
 30
0.0
 11
134.9732808373707087
 21
-1.156161371139393
 31
0.0
  0
ARC
  5
41BE
  8
0
 10
129.7292117521519117
 20
2.5146974575561032
 30
0.0
 40
9.8698485596538905
 50
338.683191106456718
 51
357.4941436597002848
  0
ARC
  5
41BF
  8
0
 10
139.7161698094178917
 20
3.5606571000854572
 30
0.0
 40
0.064939991113298
 50
102.4876256574290068
 51
175.2132667014928131
  0
ARC
  5
41C0
  8
0
 10
127.4240139047375067
 20
3.6809004078169418
 30
0.0
 40
12.2279815389721591
 50
353.8728831984213912
 51
359.4619682916197121
  0
ARC
  5
41C1
  8
0
 10
139.6912632751912895
 20
2.517873836108194
 30
0.0
 40
0.0642551665158778
 50
88.7737296064706527
 51
135.1821685916893045
  0
ARC
  5
41C2
  8
0
 10
139.6360487728553892
 20
2.1091954486756519
 30
0.0
 40
0.0532220683968474
 50
209.2711805259579023
 51
262.9596521515497898
  0
ARC
  5
41C3
  8
0
 10
140.2701941223965036
 20
2.246953983012598
 30
0.0
 40
0.7000015715506988
 50
153.1453842867603043
 51
193.5310640931284922
  0
ARC
  5
41C4
  8
0
 10
140.4047364916052913
 20
7.2821372878446828
 30
0.0
 40
5.2829487141985778
 50
261.5620451647350819
 51
262.7795854275705096
  0
LINE
  5
41C5
  8
0
 10
135.8037424158401905
 20
2.1038389523976799
 30
0.0
 11
135.8037424785468943
 21
2.1274387691513961
 31
0.0
  0
ARC
  5
41C6
  8
0
 10
127.8898085778127012
 20
2.314267861029307
 30
0.0
 40
7.8999999982514293
 50
335.2259007933132011
 51
358.4736563889292142
  0
ARC
  5
41C7
  8
0
 10
135.3302585549662069
 20
2.9446849500578551
 30
0.0
 40
1.189170272938177
 50
291.9976790164498084
 51
313.2704209018261849
  0
ARC
  5
41C8
  8
0
 10
136.1777429659811105
 20
1.9939707847377901
 30
0.0
 40
0.0908148665515311
 50
69.1136875401370503
 51
110.8860862970472994
  0
LINE
  5
41C9
  8
0
 10
138.9238108748706111
 20
-1.073234755153883
 30
0.0
 11
138.9238108748706111
 21
-1.096635518467092
 31
0.0
  0
ARC
  5
41CA
  8
0
 10
138.9838122211266125
 20
-1.096158127768696
 30
0.0
 40
0.0600032453655568
 50
180.455854689123413
 51
269.9852256919264164
  0
LINE
  5
41CB
  8
0
 10
139.6514563154898099
 20
3.5660761543775581
 30
0.0
 11
139.6514563154898099
 21
2.5683132292777131
 31
0.0
  0
LINE
  5
41CC
  8
0
 10
139.7407400086707128
 20
2.041082452460607
 30
0.0
 11
139.7407400086707128
 21
2.2414284384606091
 31
0.0
  0
LINE
  5
41CD
  8
0
 10
139.7249081546706861
 20
2.1966689426606081
 30
0.0
 11
139.7250969646468093
 21
2.357498588473685
 31
0.0
  0
ARC
  5
41CE
  8
0
 10
139.8007333704429129
 20
2.2769948594919671
 30
0.0
 40
0.1104613790503903
 50
133.2145090572647064
 51
226.6509633841903053
  0
ARC
  5
41CF
  8
0
 10
139.784952207275893
 20
2.2579765909493039
 30
0.0
 40
0.1161347409753896
 50
121.0238482120360999
 51
243.5541198850239084
  0
ARC
  5
41D0
  8
0
 10
139.8111560380916956
 20
2.1913419419606082
 30
0.0
 40
0.0864122348459886
 50
144.5759873079917099
 51
215.4240126920080911
  0
ARC
  5
41D1
  8
0
 10
139.9589871521249904
 20
2.2025681951899889
 30
0.0
 40
0.2714948631758514
 50
216.4985328868590102
 51
251.3990819700948123
  0
ARC
  5
41D2
  8
0
 10
139.9688808392330088
 20
2.1754113399240458
 30
0.0
 40
0.2307493162858543
 50
214.3482229913298056
 51
251.4143122753660862
  0
ARC
  5
41D3
  8
0
 10
139.8523807243767862
 20
2.084710389054194
 30
0.0
 40
0.0838894958387173
 50
136.3475406070573115
 51
208.0843155037632073
  0
ARC
  5
41D4
  8
0
 10
140.0012368900488013
 20
1.941519493971636
 30
0.0
 40
0.2904362968955343
 50
107.156371946883894
 51
136.1795439568435029
  0
ARC
  5
41D5
  8
0
 10
139.9213892095108918
 20
2.05722638070658
 30
0.0
 40
0.1498853007302607
 50
126.3256259741005039
 51
156.0434504981990074
  0
ARC
  5
41D6
  8
0
 10
139.8769456411997965
 20
2.0952988440327398
 30
0.0
 40
0.0952943296245258
 50
166.1649314725245858
 51
238.5400731819902092
  0
ARC
  5
41D7
  8
0
 10
140.0523407304750947
 20
2.3224482874153329
 30
0.0
 40
0.3818586457661779
 50
233.8740577108075911
 51
255.7995048271918108
  0
ARC
  5
41D8
  8
0
 10
140.0564982503142062
 20
2.3419878927740321
 30
0.0
 40
0.3851163288155388
 50
231.770198093689288
 51
258.0159829846576827
  0
ARC
  5
41D9
  8
0
 10
139.881430130054099
 20
2.119833788925042
 30
0.0
 40
0.1022713476044598
 50
192.7290490289647096
 51
231.7978774259574095
  0
LINE
  5
41DA
  8
0
 10
139.8317194751707007
 20
2.0469486350606081
 30
0.0
 11
139.8169447635706035
 21
2.058000872560608
 31
0.0
  0
LINE
  5
41DB
  8
0
 10
139.8169447635706035
 20
2.058000872560608
 30
0.0
 11
139.8317194751707007
 21
2.0690531100606071
 31
0.0
  0
LINE
  5
41DC
  8
0
 10
139.8317194751707007
 20
2.0690531100606071
 30
0.0
 11
139.8612688983706107
 21
2.0690531100606071
 31
0.0
  0
LINE
  5
41DD
  8
0
 10
139.8612688983706107
 20
2.0690531100606071
 30
0.0
 11
139.8760436099707078
 21
2.058000872560608
 31
0.0
  0
LINE
  5
41DE
  8
0
 10
139.8760436099707078
 20
2.058000872560608
 30
0.0
 11
139.8612688983706107
 21
2.0469486350606081
 31
0.0
  0
LINE
  5
41DF
  8
0
 10
139.8612688983706107
 20
2.0469486350606081
 30
0.0
 11
139.8317194751707007
 21
2.0469486350606081
 31
0.0
  0
LINE
  5
41E0
  8
0
 10
139.8317194751707007
 20
2.0741541427606118
 30
0.0
 11
139.8169447635706035
 21
2.0852063802606078
 31
0.0
  0
LINE
  5
41E1
  8
0
 10
139.8169447635706035
 20
2.0852063802606078
 30
0.0
 11
139.8317194751707007
 21
2.0962586177606108
 31
0.0
  0
LINE
  5
41E2
  8
0
 10
139.8317194751707007
 20
2.0962586177606108
 30
0.0
 11
139.8612688983706107
 21
2.0962586177606108
 31
0.0
  0
LINE
  5
41E3
  8
0
 10
139.8612688983706107
 20
2.0962586177606108
 30
0.0
 11
139.8760436099707078
 21
2.0852063802606078
 31
0.0
  0
LINE
  5
41E4
  8
0
 10
139.8760436099707078
 20
2.0852063802606078
 30
0.0
 11
139.8612688983706107
 21
2.0741541427606118
 31
0.0
  0
LINE
  5
41E5
  8
0
 10
139.8612688983706107
 20
2.0741541427606118
 30
0.0
 11
139.8317194751707007
 21
2.0741541427606118
 31
0.0
  0
LINE
  5
41E6
  8
0
 10
139.8317194751707007
 20
2.101359650460608
 30
0.0
 11
139.8169447635706035
 21
2.1124118879606071
 31
0.0
  0
LINE
  5
41E7
  8
0
 10
139.8169447635706035
 20
2.1124118879606071
 30
0.0
 11
139.8317194751707007
 21
2.123464125460607
 31
0.0
  0
LINE
  5
41E8
  8
0
 10
139.8317194751707007
 20
2.123464125460607
 30
0.0
 11
139.8612688983706107
 21
2.123464125460607
 31
0.0
  0
LINE
  5
41E9
  8
0
 10
139.8612688983706107
 20
2.123464125460607
 30
0.0
 11
139.8760436099707078
 21
2.1124118879606071
 31
0.0
  0
LINE
  5
41EA
  8
0
 10
139.8760436099707078
 20
2.1124118879606071
 30
0.0
 11
139.8612688983706107
 21
2.101359650460608
 31
0.0
  0
LINE
  5
41EB
  8
0
 10
139.8612688983706107
 20
2.101359650460608
 30
0.0
 11
139.8317194751707007
 21
2.101359650460608
 31
0.0
  0
LINE
  5
41EC
  8
0
 10
139.8317194751707007
 20
2.1285651581606082
 30
0.0
 11
139.8169447635706035
 21
2.1396173956606068
 31
0.0
  0
LINE
  5
41ED
  8
0
 10
139.8169447635706035
 20
2.1396173956606068
 30
0.0
 11
139.8317194751707007
 21
2.1506696331606072
 31
0.0
  0
LINE
  5
41EE
  8
0
 10
139.8317194751707007
 20
2.1506696331606072
 30
0.0
 11
139.8612688983706107
 21
2.1506696331606072
 31
0.0
  0
LINE
  5
41EF
  8
0
 10
139.8612688983706107
 20
2.1506696331606072
 30
0.0
 11
139.8760436099707078
 21
2.1396173956606068
 31
0.0
  0
LINE
  5
41F0
  8
0
 10
139.8760436099707078
 20
2.1396173956606068
 30
0.0
 11
139.8612688983706107
 21
2.1285651581606082
 31
0.0
  0
LINE
  5
41F1
  8
0
 10
139.8612688983706107
 20
2.1285651581606082
 30
0.0
 11
139.8317194751707007
 21
2.1285651581606082
 31
0.0
  0
LINE
  5
41F2
  8
0
 10
139.8317194751707007
 20
2.1557706658606071
 30
0.0
 11
139.8181698390835095
 21
2.1659064844219098
 31
0.0
  0
LINE
  5
41F3
  8
0
 10
139.8317194751707007
 20
2.1778751408606061
 30
0.0
 11
139.8324492994561012
 21
2.1778751408606061
 31
0.0
  0
LINE
  5
41F4
  8
0
 10
139.8324539518889083
 20
2.1778751408606061
 30
0.0
 11
139.8612688983706107
 21
2.1778751408606061
 31
0.0
  0
LINE
  5
41F5
  8
0
 10
139.8612688983706107
 20
2.1778751408606061
 30
0.0
 11
139.8760436099707078
 21
2.166822903360607
 31
0.0
  0
LINE
  5
41F6
  8
0
 10
139.8760436099707078
 20
2.166822903360607
 30
0.0
 11
139.8612688983706107
 21
2.1557706658606071
 31
0.0
  0
LINE
  5
41F7
  8
0
 10
139.8612688983706107
 20
2.1557706658606071
 30
0.0
 11
139.8317194751707007
 21
2.1557706658606071
 31
0.0
  0
LINE
  5
41F8
  8
0
 10
139.8862722564707042
 20
2.006140373560604
 30
0.0
 11
139.871497544870607
 21
2.0171926110606071
 31
0.0
  0
LINE
  5
41F9
  8
0
 10
139.871497544870607
 20
2.0171926110606071
 30
0.0
 11
139.8862722564707042
 21
2.0282448485606031
 31
0.0
  0
LINE
  5
41FA
  8
0
 10
139.8862722564707042
 20
2.0282448485606031
 30
0.0
 11
139.9158216796705858
 21
2.0282448485606031
 31
0.0
  0
LINE
  5
41FB
  8
0
 10
139.9158216796705858
 20
2.0282448485606031
 30
0.0
 11
139.9305963912707114
 21
2.0171926110606071
 31
0.0
  0
LINE
  5
41FC
  8
0
 10
139.9305963912707114
 20
2.0171926110606071
 30
0.0
 11
139.9158216796705858
 21
2.006140373560604
 31
0.0
  0
LINE
  5
41FD
  8
0
 10
139.9158216796705858
 20
2.006140373560604
 30
0.0
 11
139.8862722564707042
 21
2.006140373560604
 31
0.0
  0
LINE
  5
41FE
  8
0
 10
139.8862722564707042
 20
2.0333458812606078
 30
0.0
 11
139.871497544870607
 21
2.0443981187606068
 31
0.0
  0
LINE
  5
41FF
  8
0
 10
139.871497544870607
 20
2.0443981187606068
 30
0.0
 11
139.8862722564707042
 21
2.0554503562606068
 31
0.0
  0
LINE
  5
4200
  8
0
 10
139.8862722564707042
 20
2.0554503562606068
 30
0.0
 11
139.9158216796705858
 21
2.0554503562606068
 31
0.0
  0
LINE
  5
4201
  8
0
 10
139.9158216796705858
 20
2.0554503562606068
 30
0.0
 11
139.9305963912707114
 21
2.0443981187606068
 31
0.0
  0
LINE
  5
4202
  8
0
 10
139.9305963912707114
 20
2.0443981187606068
 30
0.0
 11
139.9158216796705858
 21
2.0333458812606078
 31
0.0
  0
LINE
  5
4203
  8
0
 10
139.9158216796705858
 20
2.0333458812606078
 30
0.0
 11
139.8862722564707042
 21
2.0333458812606078
 31
0.0
  0
LINE
  5
4204
  8
0
 10
139.8862722564707042
 20
2.060551388960604
 30
0.0
 11
139.871497544870607
 21
2.071603626460607
 31
0.0
  0
LINE
  5
4205
  8
0
 10
139.871497544870607
 20
2.071603626460607
 30
0.0
 11
139.8862722564707042
 21
2.082655863960603
 31
0.0
  0
LINE
  5
4206
  8
0
 10
139.8862722564707042
 20
2.082655863960603
 30
0.0
 11
139.9158216796705858
 21
2.082655863960603
 31
0.0
  0
LINE
  5
4207
  8
0
 10
139.9158216796705858
 20
2.082655863960603
 30
0.0
 11
139.9305963912707114
 21
2.071603626460607
 31
0.0
  0
LINE
  5
4208
  8
0
 10
139.9305963912707114
 20
2.071603626460607
 30
0.0
 11
139.9158216796705858
 21
2.060551388960604
 31
0.0
  0
LINE
  5
4209
  8
0
 10
139.9158216796705858
 20
2.060551388960604
 30
0.0
 11
139.8862722564707042
 21
2.060551388960604
 31
0.0
  0
LINE
  5
420A
  8
0
 10
139.8862722564707042
 20
2.0877568966606068
 30
0.0
 11
139.871497544870607
 21
2.0988091341606032
 31
0.0
  0
LINE
  5
420B
  8
0
 10
139.871497544870607
 20
2.0988091341606032
 30
0.0
 11
139.8862722564707042
 21
2.1098613716606058
 31
0.0
  0
LINE
  5
420C
  8
0
 10
139.8862722564707042
 20
2.1098613716606058
 30
0.0
 11
139.9158216796705858
 21
2.1098613716606058
 31
0.0
  0
LINE
  5
420D
  8
0
 10
139.9158216796705858
 20
2.1098613716606058
 30
0.0
 11
139.9305963912707114
 21
2.0988091341606032
 31
0.0
  0
LINE
  5
420E
  8
0
 10
139.9305963912707114
 20
2.0988091341606032
 30
0.0
 11
139.9158216796705858
 21
2.0877568966606068
 31
0.0
  0
LINE
  5
420F
  8
0
 10
139.9158216796705858
 20
2.0877568966606068
 30
0.0
 11
139.8862722564707042
 21
2.0877568966606068
 31
0.0
  0
LINE
  5
4210
  8
0
 10
139.8862722564707042
 20
2.114962404360603
 30
0.0
 11
139.871497544870607
 21
2.1260146418606061
 31
0.0
  0
LINE
  5
4211
  8
0
 10
139.871497544870607
 20
2.1260146418606061
 30
0.0
 11
139.8862722564707042
 21
2.137066879360602
 31
0.0
  0
LINE
  5
4212
  8
0
 10
139.8862722564707042
 20
2.137066879360602
 30
0.0
 11
139.9158216796705858
 21
2.137066879360602
 31
0.0
  0
LINE
  5
4213
  8
0
 10
139.9158216796705858
 20
2.137066879360602
 30
0.0
 11
139.9305963912707114
 21
2.1260146418606061
 31
0.0
  0
LINE
  5
4214
  8
0
 10
139.9305963912707114
 20
2.1260146418606061
 30
0.0
 11
139.9158216796705858
 21
2.114962404360603
 31
0.0
  0
LINE
  5
4215
  8
0
 10
139.9158216796705858
 20
2.114962404360603
 30
0.0
 11
139.8862722564707042
 21
2.114962404360603
 31
0.0
  0
LINE
  5
4216
  8
0
 10
139.94082503787061
 20
1.992537619660609
 30
0.0
 11
139.9260503262707118
 21
2.003589857160609
 31
0.0
  0
LINE
  5
4217
  8
0
 10
139.9260503262707118
 20
2.003589857160609
 30
0.0
 11
139.94082503787061
 21
2.0146420946606081
 31
0.0
  0
LINE
  5
4218
  8
0
 10
139.94082503787061
 20
2.0146420946606081
 30
0.0
 11
139.9703744610706053
 21
2.0146420946606081
 31
0.0
  0
LINE
  5
4219
  8
0
 10
139.9703744610706053
 20
2.0146420946606081
 30
0.0
 11
139.9851491726707025
 21
2.003589857160609
 31
0.0
  0
LINE
  5
421A
  8
0
 10
139.9851491726707025
 20
2.003589857160609
 30
0.0
 11
139.9703744610706053
 21
1.992537619660609
 31
0.0
  0
LINE
  5
421B
  8
0
 10
139.9703744610706053
 20
1.992537619660609
 30
0.0
 11
139.94082503787061
 21
1.992537619660609
 31
0.0
  0
LINE
  5
421C
  8
0
 10
139.94082503787061
 20
2.0197431273606119
 30
0.0
 11
139.9260503262707118
 21
2.0307953648606079
 31
0.0
  0
LINE
  5
421D
  8
0
 10
139.9260503262707118
 20
2.0307953648606079
 30
0.0
 11
139.94082503787061
 21
2.0418476023606109
 31
0.0
  0
LINE
  5
421E
  8
0
 10
139.94082503787061
 20
2.0418476023606109
 30
0.0
 11
139.9703744610706053
 21
2.0418476023606109
 31
0.0
  0
LINE
  5
421F
  8
0
 10
139.9703744610706053
 20
2.0418476023606109
 30
0.0
 11
139.9851491726707025
 21
2.0307953648606079
 31
0.0
  0
LINE
  5
4220
  8
0
 10
139.9851491726707025
 20
2.0307953648606079
 30
0.0
 11
139.9703744610706053
 21
2.0197431273606119
 31
0.0
  0
LINE
  5
4221
  8
0
 10
139.9703744610706053
 20
2.0197431273606119
 30
0.0
 11
139.94082503787061
 21
2.0197431273606119
 31
0.0
  0
LINE
  5
4222
  8
0
 10
139.94082503787061
 20
2.0469486350606081
 30
0.0
 11
139.9260503262707118
 21
2.058000872560608
 31
0.0
  0
LINE
  5
4223
  8
0
 10
139.9260503262707118
 20
2.058000872560608
 30
0.0
 11
139.94082503787061
 21
2.0690531100606071
 31
0.0
  0
LINE
  5
4224
  8
0
 10
139.94082503787061
 20
2.0690531100606071
 30
0.0
 11
139.9703744610706053
 21
2.0690531100606071
 31
0.0
  0
LINE
  5
4225
  8
0
 10
139.9703744610706053
 20
2.0690531100606071
 30
0.0
 11
139.9851491726707025
 21
2.058000872560608
 31
0.0
  0
LINE
  5
4226
  8
0
 10
139.9851491726707025
 20
2.058000872560608
 30
0.0
 11
139.9703744610706053
 21
2.0469486350606081
 31
0.0
  0
LINE
  5
4227
  8
0
 10
139.9703744610706053
 20
2.0469486350606081
 30
0.0
 11
139.94082503787061
 21
2.0469486350606081
 31
0.0
  0
LINE
  5
4228
  8
0
 10
139.94082503787061
 20
2.0741541427606078
 30
0.0
 11
139.9260503262707118
 21
2.0852063802606078
 31
0.0
  0
LINE
  5
4229
  8
0
 10
139.9260503262707118
 20
2.0852063802606078
 30
0.0
 11
139.94082503787061
 21
2.0962586177606068
 31
0.0
  0
LINE
  5
422A
  8
0
 10
139.94082503787061
 20
2.0962586177606068
 30
0.0
 11
139.9703744610706053
 21
2.0962586177606068
 31
0.0
  0
LINE
  5
422B
  8
0
 10
139.9703744610706053
 20
2.0962586177606068
 30
0.0
 11
139.9851491726707025
 21
2.0852063802606078
 31
0.0
  0
LINE
  5
422C
  8
0
 10
139.9851491726707025
 20
2.0852063802606078
 30
0.0
 11
139.9703744610706053
 21
2.0741541427606078
 31
0.0
  0
LINE
  5
422D
  8
0
 10
139.9703744610706053
 20
2.0741541427606078
 30
0.0
 11
139.94082503787061
 21
2.0741541427606078
 31
0.0
  0
LINE
  5
422E
  8
0
 10
139.94082503787061
 20
2.101359650460608
 30
0.0
 11
139.9260503262707118
 21
2.1124118879606071
 31
0.0
  0
LINE
  5
422F
  8
0
 10
139.9260503262707118
 20
2.1124118879606071
 30
0.0
 11
139.94082503787061
 21
2.123464125460607
 31
0.0
  0
LINE
  5
4230
  8
0
 10
139.94082503787061
 20
2.123464125460607
 30
0.0
 11
139.9703744610706053
 21
2.123464125460607
 31
0.0
  0
LINE
  5
4231
  8
0
 10
139.9703744610706053
 20
2.123464125460607
 30
0.0
 11
139.9851491726707025
 21
2.1124118879606071
 31
0.0
  0
LINE
  5
4232
  8
0
 10
139.9851491726707025
 20
2.1124118879606071
 30
0.0
 11
139.9703744610706053
 21
2.101359650460608
 31
0.0
  0
LINE
  5
4233
  8
0
 10
139.9703744610706053
 20
2.101359650460608
 30
0.0
 11
139.94082503787061
 21
2.101359650460608
 31
0.0
  0
LINE
  5
4234
  8
0
 10
139.9953778191706135
 20
1.9789348658606081
 30
0.0
 11
139.9806031075706017
 21
1.989987103360604
 31
0.0
  0
LINE
  5
4235
  8
0
 10
139.9806031075706017
 20
1.989987103360604
 30
0.0
 11
139.9953778191706135
 21
2.0010393408606069
 31
0.0
  0
LINE
  5
4236
  8
0
 10
139.9953778191706135
 20
2.0010393408606069
 30
0.0
 11
140.0249272423706941
 21
2.0010393408606069
 31
0.0
  0
LINE
  5
4237
  8
0
 10
140.0249272423706941
 20
2.0010393408606069
 30
0.0
 11
140.039701953970706
 21
1.989987103360604
 31
0.0
  0
LINE
  5
4238
  8
0
 10
140.039701953970706
 20
1.989987103360604
 30
0.0
 11
140.0249272423706941
 21
1.9789348658606081
 31
0.0
  0
LINE
  5
4239
  8
0
 10
140.0249272423706941
 20
1.9789348658606081
 30
0.0
 11
139.9953778191706135
 21
1.9789348658606081
 31
0.0
  0
LINE
  5
423A
  8
0
 10
139.9953778191706135
 20
2.006140373560608
 30
0.0
 11
139.9806031075706017
 21
2.0171926110606071
 31
0.0
  0
LINE
  5
423B
  8
0
 10
139.9806031075706017
 20
2.0171926110606071
 30
0.0
 11
139.9953778191706135
 21
2.028244848560607
 31
0.0
  0
LINE
  5
423C
  8
0
 10
139.9953778191706135
 20
2.028244848560607
 30
0.0
 11
140.0249272423706941
 21
2.028244848560607
 31
0.0
  0
LINE
  5
423D
  8
0
 10
140.0249272423706941
 20
2.028244848560607
 30
0.0
 11
140.039701953970706
 21
2.0171926110606071
 31
0.0
  0
LINE
  5
423E
  8
0
 10
140.039701953970706
 20
2.0171926110606071
 30
0.0
 11
140.0249272423706941
 21
2.006140373560608
 31
0.0
  0
LINE
  5
423F
  8
0
 10
140.0249272423706941
 20
2.006140373560608
 30
0.0
 11
139.9953778191706135
 21
2.006140373560608
 31
0.0
  0
LINE
  5
4240
  8
0
 10
139.9953778191706135
 20
2.0333458812606078
 30
0.0
 11
139.9806031075706017
 21
2.0443981187606042
 31
0.0
  0
LINE
  5
4241
  8
0
 10
139.9806031075706017
 20
2.0443981187606042
 30
0.0
 11
139.9953778191706135
 21
2.0554503562606068
 31
0.0
  0
LINE
  5
4242
  8
0
 10
139.9953778191706135
 20
2.0554503562606068
 30
0.0
 11
140.0249272423706941
 21
2.0554503562606068
 31
0.0
  0
LINE
  5
4243
  8
0
 10
140.0249272423706941
 20
2.0554503562606068
 30
0.0
 11
140.039701953970706
 21
2.0443981187606042
 31
0.0
  0
LINE
  5
4244
  8
0
 10
140.039701953970706
 20
2.0443981187606042
 30
0.0
 11
140.0249272423706941
 21
2.0333458812606078
 31
0.0
  0
LINE
  5
4245
  8
0
 10
140.0249272423706941
 20
2.0333458812606078
 30
0.0
 11
139.9953778191706135
 21
2.0333458812606078
 31
0.0
  0
LINE
  5
4246
  8
0
 10
139.9953778191706135
 20
2.060551388960604
 30
0.0
 11
139.9806031075706017
 21
2.071603626460607
 31
0.0
  0
LINE
  5
4247
  8
0
 10
139.9806031075706017
 20
2.071603626460607
 30
0.0
 11
139.9953778191706135
 21
2.082655863960603
 31
0.0
  0
LINE
  5
4248
  8
0
 10
139.9953778191706135
 20
2.082655863960603
 30
0.0
 11
140.0249272423706941
 21
2.082655863960603
 31
0.0
  0
LINE
  5
4249
  8
0
 10
140.0249272423706941
 20
2.082655863960603
 30
0.0
 11
140.039701953970706
 21
2.071603626460607
 31
0.0
  0
LINE
  5
424A
  8
0
 10
140.039701953970706
 20
2.071603626460607
 30
0.0
 11
140.0249272423706941
 21
2.060551388960604
 31
0.0
  0
LINE
  5
424B
  8
0
 10
140.0249272423706941
 20
2.060551388960604
 30
0.0
 11
139.9953778191706135
 21
2.060551388960604
 31
0.0
  0
LINE
  5
424C
  8
0
 10
139.9953778191706135
 20
2.0877568966606068
 30
0.0
 11
139.9806031075706017
 21
2.0988091341606032
 31
0.0
  0
LINE
  5
424D
  8
0
 10
139.9806031075706017
 20
2.0988091341606032
 30
0.0
 11
139.9953778191706135
 21
2.1098613716606058
 31
0.0
  0
LINE
  5
424E
  8
0
 10
139.9953778191706135
 20
2.1098613716606058
 30
0.0
 11
140.0249272423706941
 21
2.1098613716606058
 31
0.0
  0
LINE
  5
424F
  8
0
 10
140.0249272423706941
 20
2.1098613716606058
 30
0.0
 11
140.039701953970706
 21
2.0988091341606032
 31
0.0
  0
LINE
  5
4250
  8
0
 10
140.039701953970706
 20
2.0988091341606032
 30
0.0
 11
140.0249272423706941
 21
2.0877568966606068
 31
0.0
  0
LINE
  5
4251
  8
0
 10
140.0249272423706941
 20
2.0877568966606068
 30
0.0
 11
139.9953778191706135
 21
2.0877568966606068
 31
0.0
  0
LINE
  5
4252
  8
0
 10
140.0499306005706046
 20
1.9653321119606091
 30
0.0
 11
140.0351558889707064
 21
1.976384349460609
 31
0.0
  0
LINE
  5
4253
  8
0
 10
140.0351558889707064
 20
1.976384349460609
 30
0.0
 11
140.0499306005706046
 21
1.9874365869606081
 31
0.0
  0
LINE
  5
4254
  8
0
 10
140.0499306005706046
 20
1.9874365869606081
 30
0.0
 11
140.0794800237707136
 21
1.9874365869606081
 31
0.0
  0
LINE
  5
4255
  8
0
 10
140.0794800237707136
 20
1.9874365869606081
 30
0.0
 11
140.0942547353706118
 21
1.976384349460609
 31
0.0
  0
LINE
  5
4256
  8
0
 10
140.0942547353706118
 20
1.976384349460609
 30
0.0
 11
140.0794800237707136
 21
1.9653321119606091
 31
0.0
  0
LINE
  5
4257
  8
0
 10
140.0794800237707136
 20
1.9653321119606091
 30
0.0
 11
140.0499306005706046
 21
1.9653321119606091
 31
0.0
  0
LINE
  5
4258
  8
0
 10
140.0499306005706046
 20
1.992537619660609
 30
0.0
 11
140.0351558889707064
 21
2.0035898571606121
 31
0.0
  0
LINE
  5
4259
  8
0
 10
140.0351558889707064
 20
2.0035898571606121
 30
0.0
 11
140.0499306005706046
 21
2.0146420946606081
 31
0.0
  0
LINE
  5
425A
  8
0
 10
140.0499306005706046
 20
2.0146420946606081
 30
0.0
 11
140.0794800237707136
 21
2.0146420946606081
 31
0.0
  0
LINE
  5
425B
  8
0
 10
140.0794800237707136
 20
2.0146420946606081
 30
0.0
 11
140.0942547353706118
 21
2.0035898571606121
 31
0.0
  0
LINE
  5
425C
  8
0
 10
140.0942547353706118
 20
2.0035898571606121
 30
0.0
 11
140.0794800237707136
 21
1.992537619660609
 31
0.0
  0
LINE
  5
425D
  8
0
 10
140.0794800237707136
 20
1.992537619660609
 30
0.0
 11
140.0499306005706046
 21
1.992537619660609
 31
0.0
  0
LINE
  5
425E
  8
0
 10
140.0499306005706046
 20
2.0197431273606088
 30
0.0
 11
140.0351558889707064
 21
2.0307953648606079
 31
0.0
  0
LINE
  5
425F
  8
0
 10
140.0351558889707064
 20
2.0307953648606079
 30
0.0
 11
140.0499306005706046
 21
2.0418476023606078
 31
0.0
  0
LINE
  5
4260
  8
0
 10
140.0499306005706046
 20
2.0418476023606078
 30
0.0
 11
140.0794800237707136
 21
2.0418476023606078
 31
0.0
  0
LINE
  5
4261
  8
0
 10
140.0794800237707136
 20
2.0418476023606078
 30
0.0
 11
140.0942547353706118
 21
2.0307953648606079
 31
0.0
  0
LINE
  5
4262
  8
0
 10
140.0942547353706118
 20
2.0307953648606079
 30
0.0
 11
140.0794800237707136
 21
2.0197431273606088
 31
0.0
  0
LINE
  5
4263
  8
0
 10
140.0794800237707136
 20
2.0197431273606088
 30
0.0
 11
140.0499306005706046
 21
2.0197431273606088
 31
0.0
  0
LINE
  5
4264
  8
0
 10
140.0499306005706046
 20
2.0469486350606081
 30
0.0
 11
140.0351558889707064
 21
2.058000872560608
 31
0.0
  0
LINE
  5
4265
  8
0
 10
140.0351558889707064
 20
2.058000872560608
 30
0.0
 11
140.0499306005706046
 21
2.0690531100606071
 31
0.0
  0
LINE
  5
4266
  8
0
 10
140.0499306005706046
 20
2.0690531100606071
 30
0.0
 11
140.0794800237707136
 21
2.0690531100606071
 31
0.0
  0
LINE
  5
4267
  8
0
 10
140.0794800237707136
 20
2.0690531100606071
 30
0.0
 11
140.0942547353706118
 21
2.058000872560608
 31
0.0
  0
LINE
  5
4268
  8
0
 10
140.0942547353706118
 20
2.058000872560608
 30
0.0
 11
140.0794800237707136
 21
2.0469486350606081
 31
0.0
  0
LINE
  5
4269
  8
0
 10
140.0794800237707136
 20
2.0469486350606081
 30
0.0
 11
140.0499306005706046
 21
2.0469486350606081
 31
0.0
  0
LINE
  5
426A
  8
0
 10
140.0499306005706046
 20
2.0741541427606078
 30
0.0
 11
140.0351558889707064
 21
2.0852063802606078
 31
0.0
  0
LINE
  5
426B
  8
0
 10
140.0351558889707064
 20
2.0852063802606078
 30
0.0
 11
140.0499306005706046
 21
2.0962586177606068
 31
0.0
  0
LINE
  5
426C
  8
0
 10
140.0499306005706046
 20
2.0962586177606068
 30
0.0
 11
140.0794800237707136
 21
2.0962586177606068
 31
0.0
  0
LINE
  5
426D
  8
0
 10
140.0794800237707136
 20
2.0962586177606068
 30
0.0
 11
140.0942547353706118
 21
2.0852063802606078
 31
0.0
  0
LINE
  5
426E
  8
0
 10
140.0942547353706118
 20
2.0852063802606078
 30
0.0
 11
140.0794800237707136
 21
2.0741541427606078
 31
0.0
  0
LINE
  5
426F
  8
0
 10
140.0794800237707136
 20
2.0741541427606078
 30
0.0
 11
140.0499306005706046
 21
2.0741541427606078
 31
0.0
  0
LINE
  5
4270
  8
0
 10
140.1044833818706081
 20
1.951729358160605
 30
0.0
 11
140.0897086702707099
 21
1.9627815956606081
 31
0.0
  0
LINE
  5
4271
  8
0
 10
140.0897086702707099
 20
1.9627815956606081
 30
0.0
 11
140.1044833818706081
 21
1.973833833160604
 31
0.0
  0
LINE
  5
4272
  8
0
 10
140.1044833818706081
 20
1.973833833160604
 30
0.0
 11
140.1340328050706034
 21
1.973833833160604
 31
0.0
  0
LINE
  5
4273
  8
0
 10
140.1340328050706034
 20
1.973833833160604
 30
0.0
 11
140.1488075166705869
 21
1.9627815956606081
 31
0.0
  0
LINE
  5
4274
  8
0
 10
140.1488075166705869
 20
1.9627815956606081
 30
0.0
 11
140.1340328050706034
 21
1.951729358160605
 31
0.0
  0
LINE
  5
4275
  8
0
 10
140.1340328050706034
 20
1.951729358160605
 30
0.0
 11
140.1044833818706081
 21
1.951729358160605
 31
0.0
  0
LINE
  5
4276
  8
0
 10
140.1044833818706081
 20
1.9789348658606081
 30
0.0
 11
140.0897086702707099
 21
1.989987103360608
 31
0.0
  0
LINE
  5
4277
  8
0
 10
140.0897086702707099
 20
1.989987103360608
 30
0.0
 11
140.1044833818706081
 21
2.0010393408606069
 31
0.0
  0
LINE
  5
4278
  8
0
 10
140.1044833818706081
 20
2.0010393408606069
 30
0.0
 11
140.1340328050706034
 21
2.0010393408606069
 31
0.0
  0
LINE
  5
4279
  8
0
 10
140.1340328050706034
 20
2.0010393408606069
 30
0.0
 11
140.1488075166705869
 21
1.989987103360608
 31
0.0
  0
LINE
  5
427A
  8
0
 10
140.1488075166705869
 20
1.989987103360608
 30
0.0
 11
140.1340328050706034
 21
1.9789348658606081
 31
0.0
  0
LINE
  5
427B
  8
0
 10
140.1340328050706034
 20
1.9789348658606081
 30
0.0
 11
140.1044833818706081
 21
1.9789348658606081
 31
0.0
  0
LINE
  5
427C
  8
0
 10
140.1044833818706081
 20
2.006140373560604
 30
0.0
 11
140.0897086702707099
 21
2.0171926110606071
 31
0.0
  0
LINE
  5
427D
  8
0
 10
140.0897086702707099
 20
2.0171926110606071
 30
0.0
 11
140.1044833818706081
 21
2.0282448485606031
 31
0.0
  0
LINE
  5
427E
  8
0
 10
140.1044833818706081
 20
2.0282448485606031
 30
0.0
 11
140.1340328050706034
 21
2.0282448485606031
 31
0.0
  0
LINE
  5
427F
  8
0
 10
140.1340328050706034
 20
2.0282448485606031
 30
0.0
 11
140.1488075166705869
 21
2.0171926110606071
 31
0.0
  0
LINE
  5
4280
  8
0
 10
140.1488075166705869
 20
2.0171926110606071
 30
0.0
 11
140.1340328050706034
 21
2.006140373560604
 31
0.0
  0
LINE
  5
4281
  8
0
 10
140.1340328050706034
 20
2.006140373560604
 30
0.0
 11
140.1044833818706081
 21
2.006140373560604
 31
0.0
  0
LINE
  5
4282
  8
0
 10
140.1044833818706081
 20
2.0333458812606078
 30
0.0
 11
140.0897086702707099
 21
2.0443981187606042
 31
0.0
  0
LINE
  5
4283
  8
0
 10
140.0897086702707099
 20
2.0443981187606042
 30
0.0
 11
140.1044833818706081
 21
2.0554503562606068
 31
0.0
  0
LINE
  5
4284
  8
0
 10
140.1044833818706081
 20
2.0554503562606068
 30
0.0
 11
140.1340328050706034
 21
2.0554503562606068
 31
0.0
  0
LINE
  5
4285
  8
0
 10
140.1340328050706034
 20
2.0554503562606068
 30
0.0
 11
140.1488075166705869
 21
2.0443981187606042
 31
0.0
  0
LINE
  5
4286
  8
0
 10
140.1488075166705869
 20
2.0443981187606042
 30
0.0
 11
140.1340328050706034
 21
2.0333458812606078
 31
0.0
  0
LINE
  5
4287
  8
0
 10
140.1340328050706034
 20
2.0333458812606078
 30
0.0
 11
140.1044833818706081
 21
2.0333458812606078
 31
0.0
  0
LINE
  5
4288
  8
0
 10
140.1044833818706081
 20
2.060551388960604
 30
0.0
 11
140.0897086702707099
 21
2.071603626460607
 31
0.0
  0
LINE
  5
4289
  8
0
 10
140.0897086702707099
 20
2.071603626460607
 30
0.0
 11
140.1044833818706081
 21
2.082655863960603
 31
0.0
  0
LINE
  5
428A
  8
0
 10
140.1044833818706081
 20
2.082655863960603
 30
0.0
 11
140.1340328050706034
 21
2.082655863960603
 31
0.0
  0
LINE
  5
428B
  8
0
 10
140.1340328050706034
 20
2.082655863960603
 30
0.0
 11
140.1488075166705869
 21
2.071603626460607
 31
0.0
  0
LINE
  5
428C
  8
0
 10
140.1488075166705869
 20
2.071603626460607
 30
0.0
 11
140.1340328050706034
 21
2.060551388960604
 31
0.0
  0
LINE
  5
428D
  8
0
 10
140.1340328050706034
 20
2.060551388960604
 30
0.0
 11
140.1044833818706081
 21
2.060551388960604
 31
0.0
  0
LINE
  5
428E
  8
0
 10
140.1590361632707129
 20
1.9653321119606091
 30
0.0
 11
140.1442614516705873
 21
1.976384349460609
 31
0.0
  0
LINE
  5
428F
  8
0
 10
140.1442614516705873
 20
1.976384349460609
 30
0.0
 11
140.1590361632707129
 21
1.9874365869606081
 31
0.0
  0
LINE
  5
4290
  8
0
 10
140.1590361632707129
 20
1.9874365869606081
 30
0.0
 11
140.1885855864707082
 21
1.9874365869606081
 31
0.0
  0
LINE
  5
4291
  8
0
 10
140.1885855864707082
 20
1.9874365869606081
 30
0.0
 11
140.2033602980706064
 21
1.976384349460609
 31
0.0
  0
LINE
  5
4292
  8
0
 10
140.2033602980706064
 20
1.976384349460609
 30
0.0
 11
140.1885855864707082
 21
1.9653321119606091
 31
0.0
  0
LINE
  5
4293
  8
0
 10
140.1885855864707082
 20
1.9653321119606091
 30
0.0
 11
140.1590361632707129
 21
1.9653321119606091
 31
0.0
  0
LINE
  5
4294
  8
0
 10
140.1590361632707129
 20
1.992537619660609
 30
0.0
 11
140.1442614516705873
 21
2.0035898571606121
 31
0.0
  0
LINE
  5
4295
  8
0
 10
140.1442614516705873
 20
2.0035898571606121
 30
0.0
 11
140.1590361632707129
 21
2.0146420946606081
 31
0.0
  0
LINE
  5
4296
  8
0
 10
140.1590361632707129
 20
2.0146420946606081
 30
0.0
 11
140.1885855864707082
 21
2.0146420946606081
 31
0.0
  0
LINE
  5
4297
  8
0
 10
140.1885855864707082
 20
2.0146420946606081
 30
0.0
 11
140.2033602980706064
 21
2.0035898571606121
 31
0.0
  0
LINE
  5
4298
  8
0
 10
140.2033602980706064
 20
2.0035898571606121
 30
0.0
 11
140.1885855864707082
 21
1.992537619660609
 31
0.0
  0
LINE
  5
4299
  8
0
 10
140.1885855864707082
 20
1.992537619660609
 30
0.0
 11
140.1590361632707129
 21
1.992537619660609
 31
0.0
  0
LINE
  5
429A
  8
0
 10
140.1590361632707129
 20
2.0197431273606088
 30
0.0
 11
140.1442614516705873
 21
2.0307953648606079
 31
0.0
  0
LINE
  5
429B
  8
0
 10
140.1442614516705873
 20
2.0307953648606079
 30
0.0
 11
140.1590361632707129
 21
2.0418476023606078
 31
0.0
  0
LINE
  5
429C
  8
0
 10
140.1590361632707129
 20
2.0418476023606078
 30
0.0
 11
140.1885855864707082
 21
2.0418476023606078
 31
0.0
  0
LINE
  5
429D
  8
0
 10
140.1885855864707082
 20
2.0418476023606078
 30
0.0
 11
140.2033602980706064
 21
2.0307953648606079
 31
0.0
  0
LINE
  5
429E
  8
0
 10
140.2033602980706064
 20
2.0307953648606079
 30
0.0
 11
140.1885855864707082
 21
2.0197431273606088
 31
0.0
  0
LINE
  5
429F
  8
0
 10
140.1885855864707082
 20
2.0197431273606088
 30
0.0
 11
140.1590361632707129
 21
2.0197431273606088
 31
0.0
  0
LINE
  5
42A0
  8
0
 10
140.1590361632707129
 20
2.0469486350606081
 30
0.0
 11
140.1442614516705873
 21
2.058000872560608
 31
0.0
  0
LINE
  5
42A1
  8
0
 10
140.1442614516705873
 20
2.058000872560608
 30
0.0
 11
140.1590361632707129
 21
2.0690531100606071
 31
0.0
  0
LINE
  5
42A2
  8
0
 10
140.1590361632707129
 20
2.0690531100606071
 30
0.0
 11
140.1885855864707082
 21
2.0690531100606071
 31
0.0
  0
LINE
  5
42A3
  8
0
 10
140.1885855864707082
 20
2.0690531100606071
 30
0.0
 11
140.2033602980706064
 21
2.058000872560608
 31
0.0
  0
LINE
  5
42A4
  8
0
 10
140.2033602980706064
 20
2.058000872560608
 30
0.0
 11
140.1885855864707082
 21
2.0469486350606081
 31
0.0
  0
LINE
  5
42A5
  8
0
 10
140.1885855864707082
 20
2.0469486350606081
 30
0.0
 11
140.1590361632707129
 21
2.0469486350606081
 31
0.0
  0
LINE
  5
42A6
  8
0
 10
140.1590361632707129
 20
2.0741541427606078
 30
0.0
 11
140.1442614516705873
 21
2.0852063802606078
 31
0.0
  0
LINE
  5
42A7
  8
0
 10
140.1442614516705873
 20
2.0852063802606078
 30
0.0
 11
140.1590361632707129
 21
2.0962586177606068
 31
0.0
  0
LINE
  5
42A8
  8
0
 10
140.1590361632707129
 20
2.0962586177606068
 30
0.0
 11
140.1885855864707082
 21
2.0962586177606068
 31
0.0
  0
LINE
  5
42A9
  8
0
 10
140.1885855864707082
 20
2.0962586177606068
 30
0.0
 11
140.2033602980706064
 21
2.0852063802606078
 31
0.0
  0
LINE
  5
42AA
  8
0
 10
140.2033602980706064
 20
2.0852063802606078
 30
0.0
 11
140.1885855864707082
 21
2.0741541427606078
 31
0.0
  0
LINE
  5
42AB
  8
0
 10
140.1885855864707082
 20
2.0741541427606078
 30
0.0
 11
140.1590361632707129
 21
2.0741541427606078
 31
0.0
  0
LINE
  5
42AC
  8
0
 10
140.1590361632707129
 20
2.101359650460608
 30
0.0
 11
140.1442614516705873
 21
2.1124118879606071
 31
0.0
  0
LINE
  5
42AD
  8
0
 10
140.1442614516705873
 20
2.1124118879606071
 30
0.0
 11
140.1590361632707129
 21
2.123464125460607
 31
0.0
  0
LINE
  5
42AE
  8
0
 10
140.1590361632707129
 20
2.123464125460607
 30
0.0
 11
140.1885855864707082
 21
2.123464125460607
 31
0.0
  0
LINE
  5
42AF
  8
0
 10
140.1885855864707082
 20
2.123464125460607
 30
0.0
 11
140.2033602980706064
 21
2.1124118879606071
 31
0.0
  0
LINE
  5
42B0
  8
0
 10
140.2033602980706064
 20
2.1124118879606071
 30
0.0
 11
140.1885855864707082
 21
2.101359650460608
 31
0.0
  0
LINE
  5
42B1
  8
0
 10
140.1885855864707082
 20
2.101359650460608
 30
0.0
 11
140.1590361632707129
 21
2.101359650460608
 31
0.0
  0
LINE
  5
42B2
  8
0
 10
140.1590361632707129
 20
2.1285651581606109
 30
0.0
 11
140.1442614516705873
 21
2.1396173956606068
 31
0.0
  0
LINE
  5
42B3
  8
0
 10
140.1442614516705873
 20
2.1396173956606068
 30
0.0
 11
140.1590361632707129
 21
2.1506696331606099
 31
0.0
  0
LINE
  5
42B4
  8
0
 10
140.1590361632707129
 20
2.1506696331606099
 30
0.0
 11
140.1885855864707082
 21
2.1506696331606099
 31
0.0
  0
LINE
  5
42B5
  8
0
 10
140.1885855864707082
 20
2.1506696331606099
 30
0.0
 11
140.2033602980706064
 21
2.1396173956606068
 31
0.0
  0
LINE
  5
42B6
  8
0
 10
140.2033602980706064
 20
2.1396173956606068
 30
0.0
 11
140.1885855864707082
 21
2.1285651581606109
 31
0.0
  0
LINE
  5
42B7
  8
0
 10
140.1885855864707082
 20
2.1285651581606109
 30
0.0
 11
140.1590361632707129
 21
2.1285651581606109
 31
0.0
  0
LINE
  5
42B8
  8
0
 10
140.1590361632707129
 20
2.1557706658606071
 30
0.0
 11
140.1442614516705873
 21
2.166822903360607
 31
0.0
  0
LINE
  5
42B9
  8
0
 10
140.1442614516705873
 20
2.166822903360607
 30
0.0
 11
140.1590361632707129
 21
2.1778751408606061
 31
0.0
  0
LINE
  5
42BA
  8
0
 10
140.1590361632707129
 20
2.1778751408606061
 30
0.0
 11
140.1885855864707082
 21
2.1778751408606061
 31
0.0
  0
LINE
  5
42BB
  8
0
 10
140.1885855864707082
 20
2.1778751408606061
 30
0.0
 11
140.2033602980706064
 21
2.166822903360607
 31
0.0
  0
LINE
  5
42BC
  8
0
 10
140.2033602980706064
 20
2.166822903360607
 30
0.0
 11
140.1885855864707082
 21
2.1557706658606071
 31
0.0
  0
LINE
  5
42BD
  8
0
 10
140.1885855864707082
 20
2.1557706658606071
 30
0.0
 11
140.1590361632707129
 21
2.1557706658606071
 31
0.0
  0
LINE
  5
42BE
  8
0
 10
140.1590361632707129
 20
2.1829761735606068
 30
0.0
 11
140.1442614516705873
 21
2.1940284110606072
 31
0.0
  0
LINE
  5
42BF
  8
0
 10
140.1442614516705873
 20
2.1940284110606072
 30
0.0
 11
140.1590361632707129
 21
2.2050806485606058
 31
0.0
  0
LINE
  5
42C0
  8
0
 10
140.1590361632707129
 20
2.2050806485606058
 30
0.0
 11
140.1885855864707082
 21
2.2050806485606058
 31
0.0
  0
LINE
  5
42C1
  8
0
 10
140.1885855864707082
 20
2.2050806485606058
 30
0.0
 11
140.2033602980706064
 21
2.1940284110606072
 31
0.0
  0
LINE
  5
42C2
  8
0
 10
140.2033602980706064
 20
2.1940284110606072
 30
0.0
 11
140.1885855864707082
 21
2.1829761735606068
 31
0.0
  0
LINE
  5
42C3
  8
0
 10
140.1885855864707082
 20
2.1829761735606068
 30
0.0
 11
140.1590361632707129
 21
2.1829761735606068
 31
0.0
  0
LINE
  5
42C4
  8
0
 10
140.1590361632707129
 20
2.210181681260607
 30
0.0
 11
140.1442614516705873
 21
2.2212339187606061
 31
0.0
  0
LINE
  5
42C5
  8
0
 10
140.1442614516705873
 20
2.2212339187606061
 30
0.0
 11
140.1590361632707129
 21
2.232286156260606
 31
0.0
  0
LINE
  5
42C6
  8
0
 10
140.1590361632707129
 20
2.232286156260606
 30
0.0
 11
140.1885855864707082
 21
2.232286156260606
 31
0.0
  0
LINE
  5
42C7
  8
0
 10
140.1885855864707082
 20
2.232286156260606
 30
0.0
 11
140.2033602980706064
 21
2.2212339187606061
 31
0.0
  0
LINE
  5
42C8
  8
0
 10
140.2033602980706064
 20
2.2212339187606061
 30
0.0
 11
140.1885855864707082
 21
2.210181681260607
 31
0.0
  0
LINE
  5
42C9
  8
0
 10
140.1885855864707082
 20
2.210181681260607
 30
0.0
 11
140.1590361632707129
 21
2.210181681260607
 31
0.0
  0
LINE
  5
42CA
  8
0
 10
140.1044833818706081
 20
2.0877568966606068
 30
0.0
 11
140.0897086702707099
 21
2.0988091341606099
 31
0.0
  0
LINE
  5
42CB
  8
0
 10
140.0897086702707099
 20
2.0988091341606099
 30
0.0
 11
140.1044833818706081
 21
2.1098613716606058
 31
0.0
  0
LINE
  5
42CC
  8
0
 10
140.1044833818706081
 20
2.1098613716606058
 30
0.0
 11
140.1340328050706034
 21
2.1098613716606058
 31
0.0
  0
LINE
  5
42CD
  8
0
 10
140.1340328050706034
 20
2.1098613716606058
 30
0.0
 11
140.1488075166705869
 21
2.0988091341606099
 31
0.0
  0
LINE
  5
42CE
  8
0
 10
140.1488075166705869
 20
2.0988091341606099
 30
0.0
 11
140.1340328050706034
 21
2.0877568966606068
 31
0.0
  0
LINE
  5
42CF
  8
0
 10
140.1340328050706034
 20
2.0877568966606068
 30
0.0
 11
140.1044833818706081
 21
2.0877568966606068
 31
0.0
  0
LINE
  5
42D0
  8
0
 10
140.1044833818706081
 20
2.114962404360611
 30
0.0
 11
140.0897086702707099
 21
2.1260146418606101
 31
0.0
  0
LINE
  5
42D1
  8
0
 10
140.0897086702707099
 20
2.1260146418606101
 30
0.0
 11
140.1044833818706081
 21
2.13706687936061
 31
0.0
  0
LINE
  5
42D2
  8
0
 10
140.1044833818706081
 20
2.13706687936061
 30
0.0
 11
140.1340328050706034
 21
2.13706687936061
 31
0.0
  0
LINE
  5
42D3
  8
0
 10
140.1340328050706034
 20
2.13706687936061
 30
0.0
 11
140.1488075166705869
 21
2.1260146418606101
 31
0.0
  0
LINE
  5
42D4
  8
0
 10
140.1488075166705869
 20
2.1260146418606101
 30
0.0
 11
140.1340328050706034
 21
2.114962404360611
 31
0.0
  0
LINE
  5
42D5
  8
0
 10
140.1340328050706034
 20
2.114962404360611
 30
0.0
 11
140.1044833818706081
 21
2.114962404360611
 31
0.0
  0
LINE
  5
42D6
  8
0
 10
140.1044833818706081
 20
2.1421679120606072
 30
0.0
 11
140.0897086702707099
 21
2.1532201495606098
 31
0.0
  0
LINE
  5
42D7
  8
0
 10
140.0897086702707099
 20
2.1532201495606098
 30
0.0
 11
140.1044833818706081
 21
2.1642723870606062
 31
0.0
  0
LINE
  5
42D8
  8
0
 10
140.1044833818706081
 20
2.1642723870606062
 30
0.0
 11
140.1340328050706034
 21
2.1642723870606062
 31
0.0
  0
LINE
  5
42D9
  8
0
 10
140.1340328050706034
 20
2.1642723870606062
 30
0.0
 11
140.1488075166705869
 21
2.1532201495606098
 31
0.0
  0
LINE
  5
42DA
  8
0
 10
140.1488075166705869
 20
2.1532201495606098
 30
0.0
 11
140.1340328050706034
 21
2.1421679120606072
 31
0.0
  0
LINE
  5
42DB
  8
0
 10
140.1340328050706034
 20
2.1421679120606072
 30
0.0
 11
140.1044833818706081
 21
2.1421679120606072
 31
0.0
  0
LINE
  5
42DC
  8
0
 10
140.1044833818706081
 20
2.16937341976061
 30
0.0
 11
140.0897086702707099
 21
2.180425657260606
 31
0.0
  0
LINE
  5
42DD
  8
0
 10
140.0897086702707099
 20
2.180425657260606
 30
0.0
 11
140.1044833818706081
 21
2.1914778947606091
 31
0.0
  0
LINE
  5
42DE
  8
0
 10
140.1044833818706081
 20
2.1914778947606091
 30
0.0
 11
140.1340328050706034
 21
2.1914778947606091
 31
0.0
  0
LINE
  5
42DF
  8
0
 10
140.1340328050706034
 20
2.1914778947606091
 30
0.0
 11
140.1488075166705869
 21
2.180425657260606
 31
0.0
  0
LINE
  5
42E0
  8
0
 10
140.1488075166705869
 20
2.180425657260606
 30
0.0
 11
140.1340328050706034
 21
2.16937341976061
 31
0.0
  0
LINE
  5
42E1
  8
0
 10
140.1340328050706034
 20
2.16937341976061
 30
0.0
 11
140.1044833818706081
 21
2.16937341976061
 31
0.0
  0
LINE
  5
42E2
  8
0
 10
140.1044833818706081
 20
2.1965789274606058
 30
0.0
 11
140.0897086702707099
 21
2.2076311649606088
 31
0.0
  0
LINE
  5
42E3
  8
0
 10
140.0897086702707099
 20
2.2076311649606088
 30
0.0
 11
140.1044833818706081
 21
2.2186834024606048
 31
0.0
  0
LINE
  5
42E4
  8
0
 10
140.1044833818706081
 20
2.2186834024606048
 30
0.0
 11
140.1340328050706034
 21
2.2186834024606048
 31
0.0
  0
LINE
  5
42E5
  8
0
 10
140.1340328050706034
 20
2.2186834024606048
 30
0.0
 11
140.1488075166705869
 21
2.2076311649606088
 31
0.0
  0
LINE
  5
42E6
  8
0
 10
140.1488075166705869
 20
2.2076311649606088
 30
0.0
 11
140.1340328050706034
 21
2.1965789274606058
 31
0.0
  0
LINE
  5
42E7
  8
0
 10
140.1340328050706034
 20
2.1965789274606058
 30
0.0
 11
140.1044833818706081
 21
2.1965789274606058
 31
0.0
  0
LINE
  5
42E8
  8
0
 10
140.0499306005706046
 20
2.101359650460608
 30
0.0
 11
140.0351558889707064
 21
2.1124118879606071
 31
0.0
  0
LINE
  5
42E9
  8
0
 10
140.0351558889707064
 20
2.1124118879606071
 30
0.0
 11
140.0499306005706046
 21
2.123464125460607
 31
0.0
  0
LINE
  5
42EA
  8
0
 10
140.0499306005706046
 20
2.123464125460607
 30
0.0
 11
140.0794800237707136
 21
2.123464125460607
 31
0.0
  0
LINE
  5
42EB
  8
0
 10
140.0794800237707136
 20
2.123464125460607
 30
0.0
 11
140.0942547353706118
 21
2.1124118879606071
 31
0.0
  0
LINE
  5
42EC
  8
0
 10
140.0942547353706118
 20
2.1124118879606071
 30
0.0
 11
140.0794800237707136
 21
2.101359650460608
 31
0.0
  0
LINE
  5
42ED
  8
0
 10
140.0794800237707136
 20
2.101359650460608
 30
0.0
 11
140.0499306005706046
 21
2.101359650460608
 31
0.0
  0
LINE
  5
42EE
  8
0
 10
140.0499306005706046
 20
2.1285651581606109
 30
0.0
 11
140.0351558889707064
 21
2.1396173956606068
 31
0.0
  0
LINE
  5
42EF
  8
0
 10
140.0351558889707064
 20
2.1396173956606068
 30
0.0
 11
140.0499306005706046
 21
2.1506696331606099
 31
0.0
  0
LINE
  5
42F0
  8
0
 10
140.0499306005706046
 20
2.1506696331606099
 30
0.0
 11
140.0794800237707136
 21
2.1506696331606099
 31
0.0
  0
LINE
  5
42F1
  8
0
 10
140.0794800237707136
 20
2.1506696331606099
 30
0.0
 11
140.0942547353706118
 21
2.1396173956606068
 31
0.0
  0
LINE
  5
42F2
  8
0
 10
140.0942547353706118
 20
2.1396173956606068
 30
0.0
 11
140.0794800237707136
 21
2.1285651581606109
 31
0.0
  0
LINE
  5
42F3
  8
0
 10
140.0794800237707136
 20
2.1285651581606109
 30
0.0
 11
140.0499306005706046
 21
2.1285651581606109
 31
0.0
  0
LINE
  5
42F4
  8
0
 10
140.0499306005706046
 20
2.1557706658606071
 30
0.0
 11
140.0351558889707064
 21
2.166822903360607
 31
0.0
  0
LINE
  5
42F5
  8
0
 10
140.0351558889707064
 20
2.166822903360607
 30
0.0
 11
140.0499306005706046
 21
2.1778751408606061
 31
0.0
  0
LINE
  5
42F6
  8
0
 10
140.0499306005706046
 20
2.1778751408606061
 30
0.0
 11
140.0794800237707136
 21
2.1778751408606061
 31
0.0
  0
LINE
  5
42F7
  8
0
 10
140.0794800237707136
 20
2.1778751408606061
 30
0.0
 11
140.0942547353706118
 21
2.166822903360607
 31
0.0
  0
LINE
  5
42F8
  8
0
 10
140.0942547353706118
 20
2.166822903360607
 30
0.0
 11
140.0794800237707136
 21
2.1557706658606071
 31
0.0
  0
LINE
  5
42F9
  8
0
 10
140.0794800237707136
 20
2.1557706658606071
 30
0.0
 11
140.0499306005706046
 21
2.1557706658606071
 31
0.0
  0
LINE
  5
42FA
  8
0
 10
140.0499306005706046
 20
2.1829761735606068
 30
0.0
 11
140.0351558889707064
 21
2.1940284110606072
 31
0.0
  0
LINE
  5
42FB
  8
0
 10
140.0351558889707064
 20
2.1940284110606072
 30
0.0
 11
140.0499306005706046
 21
2.2050806485606058
 31
0.0
  0
LINE
  5
42FC
  8
0
 10
140.0499306005706046
 20
2.2050806485606058
 30
0.0
 11
140.0794800237707136
 21
2.2050806485606058
 31
0.0
  0
LINE
  5
42FD
  8
0
 10
140.0794800237707136
 20
2.2050806485606058
 30
0.0
 11
140.0942547353706118
 21
2.1940284110606072
 31
0.0
  0
LINE
  5
42FE
  8
0
 10
140.0942547353706118
 20
2.1940284110606072
 30
0.0
 11
140.0794800237707136
 21
2.1829761735606068
 31
0.0
  0
LINE
  5
42FF
  8
0
 10
140.0794800237707136
 20
2.1829761735606068
 30
0.0
 11
140.0499306005706046
 21
2.1829761735606068
 31
0.0
  0
LINE
  5
4300
  8
0
 10
140.0499306005706046
 20
2.210181681260607
 30
0.0
 11
140.0351558889707064
 21
2.2212339187606061
 31
0.0
  0
LINE
  5
4301
  8
0
 10
140.0351558889707064
 20
2.2212339187606061
 30
0.0
 11
140.0499306005706046
 21
2.232286156260606
 31
0.0
  0
LINE
  5
4302
  8
0
 10
140.0499306005706046
 20
2.232286156260606
 30
0.0
 11
140.0794800237707136
 21
2.232286156260606
 31
0.0
  0
LINE
  5
4303
  8
0
 10
140.0794800237707136
 20
2.232286156260606
 30
0.0
 11
140.0942547353706118
 21
2.2212339187606061
 31
0.0
  0
LINE
  5
4304
  8
0
 10
140.0942547353706118
 20
2.2212339187606061
 30
0.0
 11
140.0794800237707136
 21
2.210181681260607
 31
0.0
  0
LINE
  5
4305
  8
0
 10
140.0794800237707136
 20
2.210181681260607
 30
0.0
 11
140.0499306005706046
 21
2.210181681260607
 31
0.0
  0
LINE
  5
4306
  8
0
 10
139.9953778191706135
 20
2.114962404360611
 30
0.0
 11
139.9806031075706017
 21
2.1260146418606061
 31
0.0
  0
LINE
  5
4307
  8
0
 10
139.9806031075706017
 20
2.1260146418606061
 30
0.0
 11
139.9953778191706135
 21
2.13706687936061
 31
0.0
  0
LINE
  5
4308
  8
0
 10
139.9953778191706135
 20
2.13706687936061
 30
0.0
 11
140.0249272423706941
 21
2.13706687936061
 31
0.0
  0
LINE
  5
4309
  8
0
 10
140.0249272423706941
 20
2.13706687936061
 30
0.0
 11
140.039701953970706
 21
2.1260146418606061
 31
0.0
  0
LINE
  5
430A
  8
0
 10
140.039701953970706
 20
2.1260146418606061
 30
0.0
 11
140.0249272423706941
 21
2.114962404360611
 31
0.0
  0
LINE
  5
430B
  8
0
 10
140.0249272423706941
 20
2.114962404360611
 30
0.0
 11
139.9953778191706135
 21
2.114962404360611
 31
0.0
  0
LINE
  5
430C
  8
0
 10
139.9953778191706135
 20
2.1421679120606099
 30
0.0
 11
139.9806031075706017
 21
2.1532201495606098
 31
0.0
  0
LINE
  5
430D
  8
0
 10
139.9806031075706017
 20
2.1532201495606098
 30
0.0
 11
139.9953778191706135
 21
2.1642723870606089
 31
0.0
  0
LINE
  5
430E
  8
0
 10
139.9953778191706135
 20
2.1642723870606089
 30
0.0
 11
140.0249272423706941
 21
2.1642723870606089
 31
0.0
  0
LINE
  5
430F
  8
0
 10
140.0249272423706941
 20
2.1642723870606089
 30
0.0
 11
140.039701953970706
 21
2.1532201495606098
 31
0.0
  0
LINE
  5
4310
  8
0
 10
140.039701953970706
 20
2.1532201495606098
 30
0.0
 11
140.0249272423706941
 21
2.1421679120606099
 31
0.0
  0
LINE
  5
4311
  8
0
 10
140.0249272423706941
 20
2.1421679120606099
 30
0.0
 11
139.9953778191706135
 21
2.1421679120606099
 31
0.0
  0
LINE
  5
4312
  8
0
 10
139.9953778191706135
 20
2.16937341976061
 30
0.0
 11
139.9806031075706017
 21
2.180425657260606
 31
0.0
  0
LINE
  5
4313
  8
0
 10
139.9806031075706017
 20
2.180425657260606
 30
0.0
 11
139.9953778191706135
 21
2.1914778947606091
 31
0.0
  0
LINE
  5
4314
  8
0
 10
139.9953778191706135
 20
2.1914778947606091
 30
0.0
 11
140.0249272423706941
 21
2.1914778947606091
 31
0.0
  0
LINE
  5
4315
  8
0
 10
140.0249272423706941
 20
2.1914778947606091
 30
0.0
 11
140.039701953970706
 21
2.180425657260606
 31
0.0
  0
LINE
  5
4316
  8
0
 10
140.039701953970706
 20
2.180425657260606
 30
0.0
 11
140.0249272423706941
 21
2.16937341976061
 31
0.0
  0
LINE
  5
4317
  8
0
 10
140.0249272423706941
 20
2.16937341976061
 30
0.0
 11
139.9953778191706135
 21
2.16937341976061
 31
0.0
  0
LINE
  5
4318
  8
0
 10
139.9953778191706135
 20
2.1965789274606058
 30
0.0
 11
139.9806031075706017
 21
2.2076311649606088
 31
0.0
  0
LINE
  5
4319
  8
0
 10
139.9806031075706017
 20
2.2076311649606088
 30
0.0
 11
139.9953778191706135
 21
2.2186834024606048
 31
0.0
  0
LINE
  5
431A
  8
0
 10
139.9953778191706135
 20
2.2186834024606048
 30
0.0
 11
140.0249272423706941
 21
2.2186834024606048
 31
0.0
  0
LINE
  5
431B
  8
0
 10
140.0249272423706941
 20
2.2186834024606048
 30
0.0
 11
140.039701953970706
 21
2.2076311649606088
 31
0.0
  0
LINE
  5
431C
  8
0
 10
140.039701953970706
 20
2.2076311649606088
 30
0.0
 11
140.0249272423706941
 21
2.1965789274606058
 31
0.0
  0
LINE
  5
431D
  8
0
 10
140.0249272423706941
 20
2.1965789274606058
 30
0.0
 11
139.9953778191706135
 21
2.1965789274606058
 31
0.0
  0
LINE
  5
431E
  8
0
 10
139.9953778191706135
 20
2.2237844351606091
 30
0.0
 11
139.9806031075706017
 21
2.234836672660605
 31
0.0
  0
LINE
  5
431F
  8
0
 10
139.9806031075706017
 20
2.234836672660605
 30
0.0
 11
139.9846462430535041
 21
2.2378611441231508
 31
0.0
  0
LINE
  5
4320
  8
0
 10
140.024179284799601
 20
2.2458889101606081
 30
0.0
 11
140.0249272423706941
 21
2.2458889101606081
 31
0.0
  0
LINE
  5
4321
  8
0
 10
140.0249272423706941
 20
2.2458889101606081
 30
0.0
 11
140.039701953970706
 21
2.234836672660605
 31
0.0
  0
LINE
  5
4322
  8
0
 10
140.039701953970706
 20
2.234836672660605
 30
0.0
 11
140.0249272423706941
 21
2.2237844351606091
 31
0.0
  0
LINE
  5
4323
  8
0
 10
140.0249272423706941
 20
2.2237844351606091
 30
0.0
 11
139.9953778191706135
 21
2.2237844351606091
 31
0.0
  0
LINE
  5
4324
  8
0
 10
139.94082503787061
 20
2.1285651581606082
 30
0.0
 11
139.9260503262707118
 21
2.1396173956606068
 31
0.0
  0
LINE
  5
4325
  8
0
 10
139.9260503262707118
 20
2.1396173956606068
 30
0.0
 11
139.94082503787061
 21
2.1506696331606072
 31
0.0
  0
LINE
  5
4326
  8
0
 10
139.94082503787061
 20
2.1506696331606072
 30
0.0
 11
139.9703744610706053
 21
2.1506696331606072
 31
0.0
  0
LINE
  5
4327
  8
0
 10
139.9703744610706053
 20
2.1506696331606072
 30
0.0
 11
139.9851491726707025
 21
2.1396173956606068
 31
0.0
  0
LINE
  5
4328
  8
0
 10
139.9851491726707025
 20
2.1396173956606068
 30
0.0
 11
139.9703744610706053
 21
2.1285651581606082
 31
0.0
  0
LINE
  5
4329
  8
0
 10
139.9703744610706053
 20
2.1285651581606082
 30
0.0
 11
139.94082503787061
 21
2.1285651581606082
 31
0.0
  0
LINE
  5
432A
  8
0
 10
139.94082503787061
 20
2.1557706658606071
 30
0.0
 11
139.9260503262707118
 21
2.166822903360611
 31
0.0
  0
LINE
  5
432B
  8
0
 10
139.9260503262707118
 20
2.166822903360611
 30
0.0
 11
139.94082503787061
 21
2.1778751408606061
 31
0.0
  0
LINE
  5
432C
  8
0
 10
139.94082503787061
 20
2.1778751408606061
 30
0.0
 11
139.9703744610706053
 21
2.1778751408606061
 31
0.0
  0
LINE
  5
432D
  8
0
 10
139.9703744610706053
 20
2.1778751408606061
 30
0.0
 11
139.9851491726707025
 21
2.166822903360611
 31
0.0
  0
LINE
  5
432E
  8
0
 10
139.9851491726707025
 20
2.166822903360611
 30
0.0
 11
139.9703744610706053
 21
2.1557706658606071
 31
0.0
  0
LINE
  5
432F
  8
0
 10
139.9703744610706053
 20
2.1557706658606071
 30
0.0
 11
139.94082503787061
 21
2.1557706658606071
 31
0.0
  0
LINE
  5
4330
  8
0
 10
139.94082503787061
 20
2.1829761735606068
 30
0.0
 11
139.9260503262707118
 21
2.1940284110606072
 31
0.0
  0
LINE
  5
4331
  8
0
 10
139.9260503262707118
 20
2.1940284110606072
 30
0.0
 11
139.94082503787061
 21
2.2050806485606058
 31
0.0
  0
LINE
  5
4332
  8
0
 10
139.94082503787061
 20
2.2050806485606058
 30
0.0
 11
139.9703744610706053
 21
2.2050806485606058
 31
0.0
  0
LINE
  5
4333
  8
0
 10
139.9703744610706053
 20
2.2050806485606058
 30
0.0
 11
139.9851491726707025
 21
2.1940284110606072
 31
0.0
  0
LINE
  5
4334
  8
0
 10
139.9851491726707025
 20
2.1940284110606072
 30
0.0
 11
139.9703744610706053
 21
2.1829761735606068
 31
0.0
  0
LINE
  5
4335
  8
0
 10
139.9703744610706053
 20
2.1829761735606068
 30
0.0
 11
139.94082503787061
 21
2.1829761735606068
 31
0.0
  0
LINE
  5
4336
  8
0
 10
139.94082503787061
 20
2.210181681260607
 30
0.0
 11
139.9260503262707118
 21
2.2212339187606061
 31
0.0
  0
LINE
  5
4337
  8
0
 10
139.9260503262707118
 20
2.2212339187606061
 30
0.0
 11
139.9284337822201962
 21
2.2230168653208011
 31
0.0
  0
LINE
  5
4338
  8
0
 10
139.9616582105834084
 20
2.232286156260606
 30
0.0
 11
139.9703744610706053
 21
2.232286156260606
 31
0.0
  0
LINE
  5
4339
  8
0
 10
139.9703744610706053
 20
2.232286156260606
 30
0.0
 11
139.9851491726707025
 21
2.2212339187606061
 31
0.0
  0
LINE
  5
433A
  8
0
 10
139.9851491726707025
 20
2.2212339187606061
 30
0.0
 11
139.9703744610706053
 21
2.210181681260607
 31
0.0
  0
LINE
  5
433B
  8
0
 10
139.9703744610706053
 20
2.210181681260607
 30
0.0
 11
139.94082503787061
 21
2.210181681260607
 31
0.0
  0
LINE
  5
433C
  8
0
 10
139.8862722564707042
 20
2.1421679120606072
 30
0.0
 11
139.871497544870607
 21
2.1532201495606098
 31
0.0
  0
LINE
  5
433D
  8
0
 10
139.871497544870607
 20
2.1532201495606098
 30
0.0
 11
139.8862722564707042
 21
2.1642723870606062
 31
0.0
  0
LINE
  5
433E
  8
0
 10
139.8862722564707042
 20
2.1642723870606062
 30
0.0
 11
139.9158216796705858
 21
2.1642723870606062
 31
0.0
  0
LINE
  5
433F
  8
0
 10
139.9158216796705858
 20
2.1642723870606062
 30
0.0
 11
139.9305963912707114
 21
2.1532201495606098
 31
0.0
  0
LINE
  5
4340
  8
0
 10
139.9305963912707114
 20
2.1532201495606098
 30
0.0
 11
139.9158216796705858
 21
2.1421679120606072
 31
0.0
  0
LINE
  5
4341
  8
0
 10
139.9158216796705858
 20
2.1421679120606072
 30
0.0
 11
139.8862722564707042
 21
2.1421679120606072
 31
0.0
  0
LINE
  5
4342
  8
0
 10
139.8862722564707042
 20
2.16937341976061
 30
0.0
 11
139.871497544870607
 21
2.180425657260606
 31
0.0
  0
LINE
  5
4343
  8
0
 10
139.871497544870607
 20
2.180425657260606
 30
0.0
 11
139.8862722564707042
 21
2.1914778947606091
 31
0.0
  0
LINE
  5
4344
  8
0
 10
139.8862722564707042
 20
2.1914778947606091
 30
0.0
 11
139.9158216796705858
 21
2.1914778947606091
 31
0.0
  0
LINE
  5
4345
  8
0
 10
139.9158216796705858
 20
2.1914778947606091
 30
0.0
 11
139.9305963912707114
 21
2.180425657260606
 31
0.0
  0
LINE
  5
4346
  8
0
 10
139.9305963912707114
 20
2.180425657260606
 30
0.0
 11
139.9158216796705858
 21
2.16937341976061
 31
0.0
  0
LINE
  5
4347
  8
0
 10
139.9158216796705858
 20
2.16937341976061
 30
0.0
 11
139.8862722564707042
 21
2.16937341976061
 31
0.0
  0
LINE
  5
4348
  8
0
 10
139.8862722564707042
 20
2.1965789274606058
 30
0.0
 11
139.8765683058418858
 21
2.203837977243857
 31
0.0
  0
LINE
  5
4349
  8
0
 10
139.9144416690656101
 20
2.2186834024606048
 30
0.0
 11
139.9158216796705858
 21
2.2186834024606048
 31
0.0
  0
LINE
  5
434A
  8
0
 10
139.9158216796705858
 20
2.2186834024606048
 30
0.0
 11
139.9305963912707114
 21
2.2076311649606088
 31
0.0
  0
LINE
  5
434B
  8
0
 10
139.9305963912707114
 20
2.2076311649606088
 30
0.0
 11
139.9158216796705858
 21
2.1965789274606058
 31
0.0
  0
LINE
  5
434C
  8
0
 10
139.9158216796705858
 20
2.1965789274606058
 30
0.0
 11
139.8862722564707042
 21
2.1965789274606058
 31
0.0
  0
LINE
  5
434D
  8
0
 10
140.0499306005706046
 20
2.2373871889606098
 30
0.0
 11
140.0358846234030068
 21
2.247894295953933
 31
0.0
  0
LINE
  5
434E
  8
0
 10
140.0860175397413911
 20
2.254601268728226
 30
0.0
 11
140.0942547353706118
 21
2.2484394264606058
 31
0.0
  0
LINE
  5
434F
  8
0
 10
140.0942547353706118
 20
2.2484394264606058
 30
0.0
 11
140.0794800237707136
 21
2.2373871889606098
 31
0.0
  0
LINE
  5
4350
  8
0
 10
140.0794800237707136
 20
2.2373871889606098
 30
0.0
 11
140.0499306005706046
 21
2.2373871889606098
 31
0.0
  0
LINE
  5
4351
  8
0
 10
140.1044833818706081
 20
2.2237844351606091
 30
0.0
 11
140.0897086702707099
 21
2.234836672660605
 31
0.0
  0
LINE
  5
4352
  8
0
 10
140.0897086702707099
 20
2.234836672660605
 30
0.0
 11
140.1044833818706081
 21
2.2458889101606081
 31
0.0
  0
LINE
  5
4353
  8
0
 10
140.1044833818706081
 20
2.2458889101606081
 30
0.0
 11
140.1340328050706034
 21
2.2458889101606081
 31
0.0
  0
LINE
  5
4354
  8
0
 10
140.1340328050706034
 20
2.2458889101606081
 30
0.0
 11
140.1488075166705869
 21
2.234836672660605
 31
0.0
  0
LINE
  5
4355
  8
0
 10
140.1488075166705869
 20
2.234836672660605
 30
0.0
 11
140.1340328050706034
 21
2.2237844351606091
 31
0.0
  0
LINE
  5
4356
  8
0
 10
140.1340328050706034
 20
2.2237844351606091
 30
0.0
 11
140.1044833818706081
 21
2.2237844351606091
 31
0.0
  0
LINE
  5
4357
  8
0
 10
140.1044833818706081
 20
2.2509899428606062
 30
0.0
 11
140.0980980155977136
 21
2.2557665223623822
 31
0.0
  0
LINE
  5
4358
  8
0
 10
140.1442400619368129
 20
2.2586254913682349
 30
0.0
 11
140.1340328050706034
 21
2.2509899428606062
 31
0.0
  0
LINE
  5
4359
  8
0
 10
140.1340328050706034
 20
2.2509899428606062
 30
0.0
 11
140.1044833818706081
 21
2.2509899428606062
 31
0.0
  0
LINE
  5
435A
  8
0
 10
135.7876050811206028
 20
2.1274387691513961
 30
0.0
 11
136.5678623087206063
 21
2.1274387691513961
 31
0.0
  0
LINE
  5
435B
  8
0
 10
135.7870055265271958
 20
2.1038389523976799
 30
0.0
 11
136.5684859124141042
 21
2.1038389523976799
 31
0.0
  0
LINE
  5
435C
  8
0
 10
135.0627478826706067
 20
-0.9961613711393937
 30
0.0
 11
135.0627478826706067
 21
-1.036161371139392
 31
0.0
  0
LINE
  5
435D
  8
0
 10
135.0627478826706067
 20
-0.9961613711393937
 30
0.0
 11
137.292743556270608
 21
-0.9961613711393937
 31
0.0
  0
LINE
  5
435E
  8
0
 10
135.019879701570602
 20
-1.036161371139392
 30
0.0
 11
137.3356117373706127
 21
-1.036161371139392
 31
0.0
  0
ARC
  5
435F
  8
0
 10
134.9732808373707087
 20
-1.1411613711393891
 30
0.0
 40
0.0150000000000024
 50
180.0000000000067075
 51
269.9999999999935199
  0
ARC
  5
4360
  8
0
 10
195.6740362942738045
 20
-3.2260391966141562
 30
0.0
 40
60.7515405257317127
 50
177.9888893110990864
 51
178.0333311844632078
  0
ARC
  5
4361
  8
0
 10
135.019879701570602
 20
-1.0961613711393909
 30
0.0
 40
0.0599999999999992
 50
90.0
 51
178.0000000020544917
  0
LINE
  5
4362
  8
0
 10
136.5517490231011095
 20
2.1038389523976799
 30
0.0
 11
136.5517489603944057
 21
2.1274387691513961
 31
0.0
  0
ARC
  5
4363
  8
0
 10
144.465682861128613
 20
2.314267861029307
 30
0.0
 40
7.8999999982514293
 50
181.5263436110707005
 51
204.7740992066858894
  0
ARC
  5
4364
  8
0
 10
137.0252328839752067
 20
2.9446849500578551
 30
0.0
 40
1.189170272938177
 50
226.7295790981737866
 51
248.0023209835501916
  0
ARC
  5
4365
  8
0
 10
136.1777484729601895
 20
1.9939707847377901
 30
0.0
 40
0.0908148665515311
 50
69.113913702952658
 51
110.8863124598629071
  0
LINE
  5
4366
  8
0
 10
137.292743556270608
 20
-0.9961613711393937
 30
0.0
 11
137.292743556270608
 21
-1.036161371139392
 31
0.0
  0
ARC
  5
4367
  8
0
 10
137.3822106015705913
 20
-1.1411613711393891
 30
0.0
 40
0.0150000000000024
 50
270.0000000000064801
 51
359.9999999999931788
  0
ARC
  5
4368
  8
0
 10
76.6814551446674955
 20
-3.2260391966141562
 30
0.0
 40
60.7515405257317127
 50
1.9666688155368131
 51
2.0111106889008661
  0
ARC
  5
4369
  8
0
 10
137.3356117373706127
 20
-1.0961613711393909
 30
0.0
 40
0.0599999999999992
 50
1.999999997945362
 51
90.0
  0
ARC
  5
436A
  8
0
 10
140.1738038117705969
 20
2.8078247018917888
 30
0.0
 40
0.9137165258311819
 50
250.738521872228489
 51
289.2614781277706015
  0
ARC
  5
436B
  8
0
 10
140.1738038117705969
 20
2.7434848297340149
 30
0.0
 40
0.8346142838189345
 50
250.5096120773841903
 51
289.4903879226166055
  0
ARC
  5
436C
  8
0
 10
140.1738038117705969
 20
2.8040206676261259
 30
0.0
 40
0.8616419524164483
 50
256.7648927950829716
 51
283.2351072049170284
  0
ARC
  5
436D
  8
0
 10
140.1738038117705969
 20
2.7758963904833638
 30
0.0
 40
0.8512725680280192
 50
255.3610963831985998
 51
284.6389036168005191
  0
ARC
  5
436E
  8
0
 10
140.1738038117705969
 20
1.407702315258951
 30
0.0
 40
0.8514365900900372
 50
72.3441347460262705
 51
107.6558652539737011
  0
ARC
  5
436F
  8
0
 10
140.1738038117705969
 20
1.56746844105821
 30
0.0
 40
0.9085623085298506
 50
60.4050851491962604
 51
119.5949148508027946
  0
ARC
  5
4370
  8
0
 10
140.1738038117705969
 20
-3.0022133483094491
 30
0.0
 40
5.605018759930557
 50
85.0753560299844338
 51
94.924643970015552
  0
ARC
  5
4371
  8
0
 10
140.1738038117705969
 20
1.2366269727688239
 30
0.0
 40
2.4335813884134589
 50
78.8242208512126155
 51
101.1757791487872993
  0
ARC
  5
4372
  8
0
 10
140.1738038117705969
 20
1.5766220392600301
 30
0.0
 40
0.7115863552325116
 50
52.5124340085208914
 51
127.4875659914791015
  0
LINE
  5
4373
  8
0
 10
133.4047235520206129
 20
2.5087534037314132
 30
0.0
 11
133.4047235520206129
 21
3.0828150050898042
 31
0.0
  0
LINE
  5
4374
  8
0
 10
133.509959653882504
 20
2.3963785144360101
 30
0.0
 11
133.4106636639997134
 21
2.4945294960813569
 31
0.0
  0
ARC
  5
4375
  8
0
 10
134.8444502293806124
 20
-5.519444064238602
 30
0.0
 40
8.0192272312518664
 50
95.8782081524979759
 51
99.4535787395341373
  0
ARC
  5
4376
  8
0
 10
135.024903775351504
 20
-7.2721764442477079
 30
0.0
 40
9.7812244725056292
 50
92.0995792409997875
 51
95.8782081524979759
  0
ARC
  5
4377
  8
0
 10
135.5304963971472034
 20
-21.9789451731026411
 30
0.0
 40
24.4966660533402312
 50
89.6310263576468742
 51
92.0211097510234453
  0
ARC
  5
4378
  8
0
 10
135.7465583023688112
 20
2.3185167083000291
 30
0.0
 40
0.1991444117102977
 50
30.0934124815436199
 51
86.6760728899645301
  0
ARC
  5
4379
  8
0
 10
136.0471630582503053
 20
2.5097666293981931
 30
0.0
 40
0.1575279762659318
 50
215.4641365799097059
 51
261.7555823557815984
  0
ARC
  5
437A
  8
0
 10
136.1748177358176974
 20
3.1827059521199681
 30
0.0
 40
0.842346561208637
 50
259.7255672638847841
 51
280.2744327361144201
  0
ARC
  5
437B
  8
0
 10
136.3037333268763973
 20
2.5304167867498162
 30
0.0
 40
0.177833729046381
 50
276.8881926511540996
 51
310.0266811930270023
  0
ARC
  5
437C
  8
0
 10
136.3222741387868098
 20
2.4933357324147152
 30
0.0
 40
0.1378529196997911
 50
314.0411802983294933
 51
347.5379599644679729
  0
LINE
  5
437D
  8
0
 10
135.5852849514213005
 20
3.0601181131816051
 30
0.0
 11
136.4308237304842066
 21
3.0601181131816051
 31
0.0
  0
LINE
  5
437E
  8
0
 10
136.4508237304841884
 20
2.5052404122681731
 30
0.0
 11
136.4508237304841884
 21
3.0401181131816051
 31
0.0
  0
ARC
  5
437F
  8
0
 10
133.524019541903499
 20
2.4106024220860731
 30
0.0
 40
0.02
 50
225.3322583457307076
 51
279.4535787395291777
  0
ARC
  5
4380
  8
0
 10
133.4247235520207084
 20
2.5087534037314159
 30
0.0
 40
0.02
 50
180.0000000000100897
 51
225.3322583457176904
  0
LINE
  5
4381
  8
0
 10
133.509959653882504
 20
3.1951898943852099
 30
0.0
 11
133.4106636639997134
 21
3.0970389127398632
 31
0.0
  0
ARC
  5
4382
  8
0
 10
134.8444502293806124
 20
11.1110124730598194
 30
0.0
 40
8.0192272312518664
 50
260.5464212604658769
 51
264.1217918475020952
  0
ARC
  5
4383
  8
0
 10
134.9650404518642972
 20
10.5336209681382194
 30
0.0
 40
7.4593720468299054
 50
262.7460670423325269
 51
267.7034222000178261
  0
ARC
  5
4384
  8
0
 10
133.524019541903499
 20
3.180965986735147
 30
0.0
 40
0.02
 50
80.5464212604708081
 51
134.6677416542692924
  0
ARC
  5
4385
  8
0
 10
133.4247235520207084
 20
3.0828150050898042
 30
0.0
 40
0.02
 50
134.6677416542823096
 51
179.9999999999897966
  0
ARC
  5
4386
  8
0
 10
135.4805297609923116
 20
20.6094290659132398
 30
0.0
 40
17.5480969747972395
 50
267.3399639844192848
 51
269.7176634114322837
  0
ARC
  5
4387
  8
0
 10
135.2081699211487944
 20
-34.6612785037829667
 30
0.0
 40
37.7232816504662622
 50
89.4272115629968738
 51
89.7176634114323832
  0
LINE
  5
4388
  8
0
 10
133.509959653882504
 20
2.3963785144360101
 30
0.0
 11
133.509959653882504
 21
3.1951898943852099
 31
0.0
  0
LINE
  5
4389
  8
0
 10
135.7876050811206028
 20
2.417215003851922
 30
0.0
 11
135.7876050811206028
 21
2.1274387691513961
 31
0.0
  0
LINE
  5
438A
  8
0
 10
136.5678623087206063
 20
2.1274387691513961
 30
0.0
 11
136.5678623087206063
 21
2.3403467404026301
 31
0.0
  0
ARC
  5
438B
  8
0
 10
135.6876050811206085
 20
2.417215003851922
 30
0.0
 40
0.1
 50
0.0
 51
89.6310263576436341
  0
LINE
  5
438C
  8
0
 10
135.7581048818206
 20
2.5173260974606091
 30
0.0
 11
135.6882490571607889
 21
2.5172129303047219
 31
0.0
  0
ARC
  5
438D
  8
0
 10
136.6022588076934881
 20
2.5016752667609969
 30
0.0
 40
0.1502523788892817
 50
197.855758193919911
 51
251.3670034734284116
  0
ARC
  5
438E
  8
0
 10
136.6266670850627918
 20
2.5095381173013278
 30
0.0
 40
0.1758958658354013
 50
181.4000605733594114
 51
197.855758193919911
  0
ARC
  5
438F
  8
0
 10
136.547862308720596
 20
2.3403467404026119
 30
0.0
 40
0.02
 50
0.0000000000508889
 51
71.367003473299448
  0
ARC
  5
4390
  8
0
 10
136.4308237304842066
 20
3.040118113181602
 30
0.0
 40
0.02
 50
0.0000000000101778
 51
89.9999999999951115
  0
LINE
  5
4391
  8
0
 10
142.9653827724706048
 20
-1.156161371139393
 30
0.0
 11
145.374312536670601
 21
-1.156161371139393
 31
0.0
  0
LINE
  5
4392
  8
0
 10
144.5438509582010909
 20
2.1038389523976799
 30
0.0
 11
144.543850895494387
 21
2.1274387691513961
 31
0.0
  0
ARC
  5
4393
  8
0
 10
152.4577847962285944
 20
2.314267861029307
 30
0.0
 40
7.8999999982514293
 50
181.5263436110708142
 51
204.7740992066869126
  0
ARC
  5
4394
  8
0
 10
145.0173348190751028
 20
2.9446849500578551
 30
0.0
 40
1.189170272938177
 50
226.7295790981737866
 51
248.0023209835501916
  0
ARC
  5
4395
  8
0
 10
144.1698504080601992
 20
1.9939707847377901
 30
0.0
 40
0.0908148665515311
 50
69.113913702952658
 51
110.8863124598629071
  0
LINE
  5
4396
  8
0
 10
144.5599882929205933
 20
2.1274387691513961
 30
0.0
 11
143.7797310653205898
 21
2.1274387691513961
 31
0.0
  0
LINE
  5
4397
  8
0
 10
144.5605878475141139
 20
2.1038389523976799
 30
0.0
 11
143.7791074616272056
 21
2.1038389523976799
 31
0.0
  0
LINE
  5
4398
  8
0
 10
145.2848454913705893
 20
-0.9961613711393937
 30
0.0
 11
145.2848454913705893
 21
-1.036161371139392
 31
0.0
  0
LINE
  5
4399
  8
0
 10
145.2848454913705893
 20
-0.9961613711393937
 30
0.0
 11
143.0548498177705881
 21
-0.9961613711393937
 31
0.0
  0
LINE
  5
439A
  8
0
 10
145.327713672470594
 20
-1.036161371139392
 30
0.0
 11
143.0119816366706118
 21
-1.036161371139392
 31
0.0
  0
ARC
  5
439B
  8
0
 10
145.374312536670601
 20
-1.1411613711393891
 30
0.0
 40
0.0150000000000024
 50
270.0000000000064801
 51
359.9999999999932925
  0
ARC
  5
439C
  8
0
 10
84.6735570797674484
 20
-3.2260391966141562
 30
0.0
 40
60.7515405257317127
 50
1.9666688155368131
 51
2.0111106889008661
  0
ARC
  5
439D
  8
0
 10
145.327713672470594
 20
-1.0961613711393909
 30
0.0
 40
0.0599999999999992
 50
1.9999999979454639
 51
90.0
  0
LINE
  5
439E
  8
0
 10
143.7958443509402002
 20
2.1038389523976799
 30
0.0
 11
143.7958444136469041
 21
2.1274387691513961
 31
0.0
  0
ARC
  5
439F
  8
0
 10
135.8819105129126967
 20
2.314267861029307
 30
0.0
 40
7.8999999982514293
 50
335.2259007933141106
 51
358.4736563889293279
  0
ARC
  5
43A0
  8
0
 10
143.322360490066103
 20
2.9446849500578551
 30
0.0
 40
1.189170272938177
 50
291.9976790164498084
 51
313.2704209018261849
  0
ARC
  5
43A1
  8
0
 10
144.1698449010810066
 20
1.9939707847377901
 30
0.0
 40
0.0908148665515311
 50
69.1136875401370503
 51
110.8860862970472994
  0
LINE
  5
43A2
  8
0
 10
143.0548498177705881
 20
-0.9961613711393937
 30
0.0
 11
143.0548498177705881
 21
-1.036161371139392
 31
0.0
  0
ARC
  5
43A3
  8
0
 10
142.9653827724706048
 20
-1.1411613711393891
 30
0.0
 40
0.0150000000000024
 50
180.0000000000067928
 51
269.9999999999935199
  0
ARC
  5
43A4
  8
0
 10
203.6661382293737859
 20
-3.2260391966141562
 30
0.0
 40
60.7515405257317127
 50
177.9888893110990864
 51
178.0333311844632078
  0
ARC
  5
43A5
  8
0
 10
143.0119816366706118
 20
-1.0961613711393909
 30
0.0
 40
0.0599999999999992
 50
90.0
 51
178.0000000020546054
  0
LINE
  5
43A6
  8
0
 10
146.9428698220206115
 20
2.5087534037314132
 30
0.0
 11
146.9428698220206115
 21
3.0828150050898042
 31
0.0
  0
LINE
  5
43A7
  8
0
 10
146.8376337201588058
 20
2.3963785144360101
 30
0.0
 11
146.9369297100415963
 21
2.4945294960813569
 31
0.0
  0
ARC
  5
43A8
  8
0
 10
145.5031431446606973
 20
-5.519444064238602
 30
0.0
 40
8.0192272312518664
 50
80.5464212604658485
 51
84.1217918475020667
  0
ARC
  5
43A9
  8
0
 10
145.322689598689692
 20
-7.2721764442477079
 30
0.0
 40
9.7812244725056292
 50
84.1217918475020667
 51
87.9004207590002267
  0
ARC
  5
43AA
  8
0
 10
144.8170969768941063
 20
-21.9789451731026411
 30
0.0
 40
24.4966660533402312
 50
87.9788902489765832
 51
90.3689736423531116
  0
ARC
  5
43AB
  8
0
 10
144.6010350716724986
 20
2.3185167083000291
 30
0.0
 40
0.1991444117102977
 50
93.3239271100354841
 51
149.906587518456405
  0
ARC
  5
43AC
  8
0
 10
144.3004303157910044
 20
2.5097666293981931
 30
0.0
 40
0.1575279762659318
 50
278.2444176442182879
 51
324.5358634200903225
  0
ARC
  5
43AD
  8
0
 10
144.1727756382236123
 20
3.1827059521199681
 30
0.0
 40
0.842346561208637
 50
259.7255672638847841
 51
280.2744327361144201
  0
ARC
  5
43AE
  8
0
 10
144.0438600471647987
 20
2.5304167867498162
 30
0.0
 40
0.177833729046381
 50
229.9733188069729124
 51
263.1118073488459004
  0
ARC
  5
43AF
  8
0
 10
144.0253192352543863
 20
2.4933357324147152
 30
0.0
 40
0.1378529196997911
 50
192.4620400355317997
 51
225.9588197016705067
  0
LINE
  5
43B0
  8
0
 10
144.7623084226200092
 20
3.0601181131816051
 30
0.0
 11
143.9167696435571031
 21
3.0601181131816051
 31
0.0
  0
LINE
  5
43B1
  8
0
 10
143.8967696435570076
 20
2.5052404122681731
 30
0.0
 11
143.8967696435570076
 21
3.0401181131816051
 31
0.0
  0
ARC
  5
43B2
  8
0
 10
146.8235738321378108
 20
2.4106024220860731
 30
0.0
 40
0.02
 50
260.5464212604708223
 51
314.6677416542692072
  0
ARC
  5
43B3
  8
0
 10
146.9228698220206013
 20
2.5087534037314159
 30
0.0
 40
0.02
 50
314.6677416542822812
 51
359.999999999989825
  0
LINE
  5
43B4
  8
0
 10
146.8376337201588058
 20
3.1951898943852099
 30
0.0
 11
146.9369297100415963
 21
3.0970389127398632
 31
0.0
  0
ARC
  5
43B5
  8
0
 10
145.5031431446606973
 20
11.1110124730598194
 30
0.0
 40
8.0192272312518664
 50
275.8782081524980185
 51
279.4535787395341231
  0
ARC
  5
43B6
  8
0
 10
145.3825529221770125
 20
10.5336209681382194
 30
0.0
 40
7.4593720468299054
 50
272.2965777999813781
 51
277.2539329576674163
  0
ARC
  5
43B7
  8
0
 10
146.8235738321378108
 20
3.180965986735147
 30
0.0
 40
0.02
 50
45.3322583457307005
 51
99.4535787395292203
  0
ARC
  5
43B8
  8
0
 10
146.9228698220206013
 20
3.0828150050898042
 30
0.0
 40
0.02
 50
0.0000000000101778
 51
45.332258345717662
  0
ARC
  5
43B9
  8
0
 10
144.8670636130489129
 20
20.6094290659132398
 30
0.0
 40
17.5480969747972395
 50
270.2823365885668068
 51
272.6600360155806015
  0
ARC
  5
43BA
  8
0
 10
145.1394234528924869
 20
-34.6612785037829667
 30
0.0
 40
37.7232816504662622
 50
90.282336588567631
 51
90.5727884370031262
  0
LINE
  5
43BB
  8
0
 10
146.8376337201588058
 20
2.3963785144360101
 30
0.0
 11
146.8376337201588058
 21
3.1951898943852099
 31
0.0
  0
LINE
  5
43BC
  8
0
 10
144.5599882929205933
 20
2.417215003851922
 30
0.0
 11
144.5599882929205933
 21
2.1274387691513961
 31
0.0
  0
LINE
  5
43BD
  8
0
 10
143.7797310653205898
 20
2.1274387691513961
 30
0.0
 11
143.7797310653205898
 21
2.3403467404026301
 31
0.0
  0
ARC
  5
43BE
  8
0
 10
144.6599882929207013
 20
2.417215003851922
 30
0.0
 40
0.1
 50
90.3689736423563801
 51
180.0
  0
LINE
  5
43BF
  8
0
 10
144.5894884922205961
 20
2.5173260974606091
 30
0.0
 11
144.6593443168804924
 21
2.5172129303047219
 31
0.0
  0
ARC
  5
43C0
  8
0
 10
143.7453345663477933
 20
2.5016752667609969
 30
0.0
 40
0.1502523788892817
 50
288.6329965265708779
 51
342.1442418060801174
  0
ARC
  5
43C1
  8
0
 10
143.7209262889784895
 20
2.5095381173013278
 30
0.0
 40
0.1758958658354013
 50
342.1442418060800037
 51
358.5999394266405034
  0
ARC
  5
43C2
  8
0
 10
143.7997310653207137
 20
2.3403467404026119
 30
0.0
 40
0.02
 50
108.6329965267004951
 51
179.9999999999490967
  0
ARC
  5
43C3
  8
0
 10
143.9167696435571031
 20
3.040118113181602
 30
0.0
 40
0.02
 50
90.0000000000048743
 51
179.9999999999897966
  0
ENDSEC
  0
EOF
