  0
SECTION
  2
HEADER
  9
$ACADVER
  1
AC1009
  9
$INSBASE
 10
4205.3072819428916773
 20
206.5889608649484046
 30
0.0
  9
$EXTMIN
 10
4197.7488333728933867
 20
188.8717932756316884
 30
0.0
  9
$EXTMAX
 10
4212.8657305128917869
 20
206.5936664779316914
 30
0.0
  9
$LIMMIN
 10
0.0
 20
0.0
  9
$LIMMAX
 10
11.6929133858000007
 20
8.2677165353999982
  9
$ORTHOMODE
 70
     1
  9
$REGENMODE
 70
     1
  9
$FILLMODE
 70
     1
  9
$QTEXTMODE
 70
     0
  9
$MIRRTEXT
 70
     0
  9
$DRAGMODE
 70
     2
  9
$LTSCALE
 40
0.6431102362
  9
$OSMODE
 70
  3839
  9
$ATTMODE
 70
     1
  9
$TEXTSIZE
 40
0.2
  9
$TRACEWID
 40
0.05
  9
$TEXTSTYLE
  7
STANDARD
  9
$CLAYER
  8
0
  9
$CELTYPE
  6
BYLAYER
  9
$CECOLOR
 62
   256
  9
$DIMSCALE
 40
1.0
  9
$DIMASZ
 40
0.1875
  9
$DIMEXO
 40
0.0625
  9
$DIMDLI
 40
0.4443307087
  9
$DIMRND
 40
0.0
  9
$DIMDLE
 40
0.0
  9
$DIMEXE
 40
0.125
  9
$DIMTP
 40
0.01
  9
$DIMTM
 40
0.01
  9
$DIMTXT
 40
2.0
  9
$DIMCEN
 40
0.1052362205
  9
$DIMTSZ
 40
0.0
  9
$DIMTOL
 70
     1
  9
$DIMLIM
 70
     0
  9
$DIMTIH
 70
     1
  9
$DIMTOH
 70
     1
  9
$DIMSE1
 70
     0
  9
$DIMSE2
 70
     0
  9
$DIMTAD
 70
     0
  9
$DIMZIN
 70
     0
  9
$DIMBLK
  1

  9
$DIMASO
 70
     1
  9
$DIMSHO
 70
     1
  9
$DIMPOST
  1
\X
  9
$DIMAPOST
  1

  9
$DIMALT
 70
     1
  9
$DIMALTD
 70
     2
  9
$DIMALTF
 40
25.3999999999999986
  9
$DIMLFAC
 40
1.0
  9
$DIMTOFL
 70
     0
  9
$DIMTVP
 40
0.0
  9
$DIMTIX
 70
     0
  9
$DIMSOXD
 70
     0
  9
$DIMSAH
 70
     0
  9
$DIMBLK1
  1

  9
$DIMBLK2
  1

  9
$DIMSTYLE
  2
STANDARD
  9
$DIMCLRD
 70
     0
  9
$DIMCLRE
 70
     0
  9
$DIMCLRT
 70
     0
  9
$DIMTFAC
 40
1.0
  9
$DIMGAP
 40
0.09
  9
$LUNITS
 70
     2
  9
$LUPREC
 70
     4
  9
$SKETCHINC
 40
0.1
  9
$FILLETRAD
 40
0.0
  9
$AUNITS
 70
     0
  9
$AUPREC
 70
     0
  9
$MENU
  1
.
  9
$ELEVATION
 40
0.0
  9
$PELEVATION
 40
0.0
  9
$THICKNESS
 40
0.0
  9
$LIMCHECK
 70
     0
  9
$BLIPMODE
 70
     0
  9
$CHAMFERA
 40
0.0
  9
$CHAMFERB
 40
0.0
  9
$SKPOLY
 70
     0
  9
$TDCREATE
 40
2458060.468368056230247
  9
$TDUPDATE
 40
2459026.7901504631154239
  9
$TDINDWG
 40
0.5655278935
  9
$TDUSRTIMER
 40
0.5655278935
  9
$USRTIMER
 70
     1
  9
$ANGBASE
 50
0.0
  9
$ANGDIR
 70
     0
  9
$PDMODE
 70
     0
  9
$PDSIZE
 40
0.3125
  9
$PLINEWID
 40
0.0
  9
$COORDS
 70
     1
  9
$SPLFRAME
 70
     0
  9
$SPLINETYPE
 70
     6
  9
$SPLINESEGS
 70
     8
  9
$ATTDIA
 70
     1
  9
$ATTREQ
 70
     1
  9
$HANDLING
 70
     1
  9
$HANDSEED
  5
9386
  9
$SURFTAB1
 70
     6
  9
$SURFTAB2
 70
     6
  9
$SURFTYPE
 70
     6
  9
$SURFU
 70
     6
  9
$SURFV
 70
     6
  9
$UCSNAME
  2

  9
$UCSORG
 10
0.0
 20
0.0
 30
0.0
  9
$UCSXDIR
 10
1.0
 20
0.0
 30
0.0
  9
$UCSYDIR
 10
0.0
 20
1.0
 30
0.0
  9
$PUCSNAME
  2

  9
$PUCSORG
 10
0.0
 20
0.0
 30
0.0
  9
$PUCSXDIR
 10
1.0
 20
0.0
 30
0.0
  9
$PUCSYDIR
 10
0.0
 20
1.0
 30
0.0
  9
$USERI1
 70
     0
  9
$USERI2
 70
     0
  9
$USERI3
 70
     0
  9
$USERI4
 70
     0
  9
$USERI5
 70
     0
  9
$USERR1
 40
0.0
  9
$USERR2
 40
0.0
  9
$USERR3
 40
0.0
  9
$USERR4
 40
0.0
  9
$USERR5
 40
0.0
  9
$WORLDVIEW
 70
     1
  9
$SHADEDGE
 70
     3
  9
$SHADEDIF
 70
    70
  9
$TILEMODE
 70
     1
  9
$MAXACTVP
 70
    64
  9
$PLIMCHECK
 70
     0
  9
$PEXTMIN
 10
1.0000000000000000E+20
 20
1.0000000000000000E+20
 30
1.0000000000000000E+20
  9
$PEXTMAX
 10
-1.0000000000000000E+20
 20
-1.0000000000000000E+20
 30
-1.0000000000000000E+20
  9
$PLIMMIN
 10
0.0
 20
0.0
  9
$PLIMMAX
 10
12.0
 20
9.0
  9
$UNITMODE
 70
     0
  9
$VISRETAIN
 70
     1
  9
$PLINEGEN
 70
     0
  9
$PSLTSCALE
 70
     1
  0
ENDSEC
  0
SECTION
  2
TABLES
  0
TABLE
  2
VPORT
 70
     1
  0
VPORT
  2
*ACTIVE
 70
     0
 10
0.0
 20
0.0
 11
1.0
 21
1.0
 12
0.0
 22
0.0
 13
0.0
 23
0.0
 14
1.0
 24
1.0
 15
0.0
 25
0.0
 16
0.0
 26
0.0
 36
96.7033780107895353
 17
4205.307373046875
 27
197.7327310661142121
 37
0.0
 40
23.2933316801129315
 41
3.314341846758349
 42
50.0
 43
0.0
 44
0.0
 50
0.0
 51
0.0
 71
     0
 72
   100
 73
     1
 74
     1
 75
     0
 76
     0
 77
     0
 78
     0
  0
ENDTAB
  0
TABLE
  2
LTYPE
 70
     2
  0
LTYPE
  2
CONTINUOUS
 70
     0
  3
Solid line
 72
    65
 73
     0
 40
0.0
  0
LTYPE
  2
PHANTOM2
 70
     0
  3
___ _ _ ___ _ _ ___ _ _ ___ _ _
 72
    65
 73
     6
 40
1.25
 49
0.625
 49
-0.125
 49
0.125
 49
-0.125
 49
0.125
 49
-0.125
  0
ENDTAB
  0
TABLE
  2
LAYER
 70
     2
  0
LAYER
  2
0
 70
     0
 62
   255
  6
CONTINUOUS
  0
LAYER
  2
DEFPOINTS
 70
     0
 62
     7
  6
CONTINUOUS
  0
ENDTAB
  0
TABLE
  2
STYLE
 70
     1
  0
STYLE
  2
STANDARD
 70
     0
 40
0.0
 41
0.8
 50
0.0
 71
     0
 42
0.2
  3
txt
  4

  0
ENDTAB
  0
TABLE
  2
VIEW
 70
     0
  0
ENDTAB
  0
TABLE
  2
UCS
 70
     0
  0
ENDTAB
  0
TABLE
  2
APPID
 70
     9
  0
APPID
  2
ACAD
 70
     0
  0
APPID
  2
ACAD_MLEADERVER
 70
     0
  0
APPID
  2
ACAD_EXEMPT_FROM_CAD_STANDARDS
 70
     0
  0
APPID
  2
ACAD_NAV_VCDISPLAY
 70
     0
  0
APPID
  2
ACAECLAYERSTANDARD
 70
     0
  0
APPID
  2
ACCMTRANSPARENCY
 70
     0
  0
APPID
  2
ACAD_DSTYLE_DIMJAG
 70
     0
  0
APPID
  2
ACAD_DSTYLE_DIMTALN
 70
     0
  0
APPID
  2
ACDBATTR
 70
     0
  0
ENDTAB
  0
TABLE
  2
DIMSTYLE
 70
     1
  0
DIMSTYLE
  2
STANDARD
 70
     0
  3

  4

  5

  6

  7

 40
1.0
 41
0.1875
 42
0.0625
 43
0.38
 44
0.125
 45
0.0
 46
0.0
 47
0.01
 48
0.01
140
0.15625
141
0.09
142
0.0
143
25.3999999999999986
144
1.0
145
0.0
146
1.0
147
0.09
 71
     1
 72
     0
 73
     1
 74
     1
 75
     0
 76
     0
 77
     0
 78
     4
170
     0
171
     2
172
     0
173
     0
174
     0
175
     0
176
     0
177
     0
178
     0
  0
ENDTAB
  0
ENDSEC
  0
SECTION
  2
BLOCKS
  0
BLOCK
  8
0
  2
$MODEL_SPACE
 70
     0
 10
0.0
 20
0.0
 30
0.0
  3
$MODEL_SPACE
  1

  0
ENDBLK
  5
21
  8
0
  0
BLOCK
 67
     1
  8
0
  2
$PAPER_SPACE
 70
     0
 10
0.0
 20
0.0
 30
0.0
  3
$PAPER_SPACE
  1

  0
ENDBLK
  5
1D
 67
     1
  8
0
  0
BLOCK
  8
0
  2
_FILLED
 70
     0
 10
0.0
 20
0.0
 30
0.0
  3
_FILLED
  1

  0
SOLID
  5
6F59
  8
0
  6
BYBLOCK
 62
     0
 10
0.0
 20
0.0
 30
0.0
 11
-1.0
 21
0.1666666667
 31
0.0
 12
-1.0
 22
-0.1666666667
 32
0.0
 13
-1.0
 23
-0.1666666667
 33
0.0
  0
ENDBLK
  5
6F5A
  8
0
  6
BYBLOCK
 62
     0
  0
ENDSEC
  0
SECTION
  2
ENTITIES
  0
ATTDEF
  5
3930
  8
DEFPOINTS
 10
4205.307610417127762
 20
206.5926664779316013
 30
0.0
 40
0.001
  1
K-4735IN-PP
  3

  2
MODELNUMBER
 70
     0
1001
ACDBATTR
1070
     0
1070
     1
  0
ATTDEF
  5
3931
  8
DEFPOINTS
 10
4205.307610417127762
 20
206.5909998112649077
 30
0.0
 40
0.001
  1
FREELANCE
  3

  2
TRADENAME
 70
     0
1001
ACDBATTR
1070
     0
1070
     1
  0
ATTDEF
  5
3932
  8
DEFPOINTS
 10
4205.307610417127762
 20
206.5893331445982994
 30
0.0
 40
0.001
  1
TOILET SEAT
  3

  2
PRODUCT
 70
     0
1001
ACDBATTR
1070
     0
1070
     1
  0
ARC
  5
8FD6
  8
0
 10
4205.3072820780980692
 20
200.17303725929969
 30
0.0
 40
11.3012439836679999
 50
253.3984504045440929
 51
269.9999993145423218
  0
ARC
  5
8FD7
  8
0
 10
4203.5974958006227098
 20
194.4382397428547051
 30
0.0
 40
5.3169920112600337
 50
212.1926883600116014
 51
253.3984504045440929
  0
ARC
  5
8FD8
  8
0
 10
4204.5266643172653858
 20
195.0232028039800127
 30
0.0
 40
6.4149610068156928
 50
190.5125731459640122
 51
212.1926883600116014
  0
ARC
  5
8FD9
  8
0
 10
4225.7823608133612652
 20
198.967538123414414
 30
0.0
 40
28.0335274404674593
 50
179.9999999995553992
 51
190.5125731472957114
  0
ARC
  5
8FDA
  8
0
 10
4225.6977534690058746
 20
198.9675381240674881
 30
0.0
 40
27.9489200961143389
 50
174.5369437922765883
 51
180.0000000008940049
  0
ARC
  5
8FDB
  8
0
 10
4202.2608267375353535
 20
201.4765376963725885
 30
0.0
 40
4.3876718712756411
 50
145.9377161735874893
 51
178.0167330307752991
  0
ARC
  5
8FDC
  8
0
 10
4204.3676609468184324
 20
199.9446042613197108
 30
0.0
 40
6.9916286859576608
 50
133.2711146952439094
 51
145.2077456826177979
  0
ARC
  5
8FDD
  8
0
 10
4198.2643215936477645
 20
206.4570564771645991
 30
0.0
 40
1.933853573010325
 50
312.6780902625885119
 51
359.3746522996630119
  0
LINE
  5
8FDE
  8
0
 10
4200.1980599839916977
 20
206.4359500905316906
 30
0.0
 11
4200.2026669252181819
 21
206.5492436956403992
 31
0.0
  0
ARC
  5
8FDF
  8
0
 10
4200.2429405303273597
 20
206.548694868308786
 30
0.0
 40
0.0402773444997724
 50
91.3601111492166353
 51
179.2192518311387914
  0
LINE
  5
8FE0
  8
0
 10
4200.2419844996920801
 20
206.5889608649484046
 30
0.0
 11
4200.8500879862640431
 21
206.5889608649484046
 31
0.0
  0
ARC
  5
8FE1
  8
0
 10
4200.850115674312292
 20
206.5815745993442079
 30
0.0
 40
0.0073863174984568
 50
358.4394057038797996
 51
90.2147771160863243
  0
ARC
  5
8FE2
  8
0
 10
4200.2968250893309232
 20
206.4945678215187002
 30
0.0
 40
0.0780620083789391
 50
90.1944746409072877
 51
179.8715272749354028
  0
ARC
  5
8FE3
  8
0
 10
4249.0577843862693044
 20
206.3852323020502126
 30
0.0
 40
48.8391438853561795
 50
179.8715272749354028
 51
180.1747025919329985
  0
ARC
  5
8FE4
  8
0
 10
4198.3098246359722907
 20
206.2304944198727128
 30
0.0
 40
1.9090517735028281
 50
314.0068417375725858
 51
0.1747025919329945
  0
ARC
  5
8FE5
  8
0
 10
4204.0149610831158498
 20
200.3240642907890958
 30
0.0
 40
6.3027993424313626
 50
134.0068417375726142
 51
150.4721865519744881
  0
ARC
  5
8FE6
  8
0
 10
4202.4217120289267768
 20
201.4274403751437887
 30
0.0
 40
4.376186497904297
 50
152.7619026416222994
 51
177.5851483240599009
  0
ARC
  5
8FE7
  8
0
 10
4225.7510492821729713
 20
198.9941543191766868
 30
0.0
 40
27.8250415968176483
 50
174.6018462933029127
 51
190.5782233590176986
  0
ARC
  5
8FE8
  8
0
 10
4204.5255000428869607
 20
195.0156649534810072
 30
0.0
 40
6.2298708390673667
 50
190.4463652112443981
 51
212.139725890092194
  0
ARC
  5
8FE9
  8
0
 10
4203.5734189441491253
 20
194.4146671110532054
 30
0.0
 40
5.1039712985111239
 50
212.1127475066367083
 51
253.5818585056325105
  0
ARC
  5
8FEA
  8
0
 10
4205.2978107330009152
 20
200.2830405896422974
 30
0.0
 40
11.2204510661476409
 50
253.605289751935203
 51
270.0483635118429788
  0
LINE
  5
8FEB
  8
0
 10
4200.2965601299911214
 20
206.5726293802316889
 30
0.0
 11
4210.3180037557931428
 21
206.5726293802316889
 31
0.0
  0
LINE
  5
8FEC
  8
0
 10
4200.8574992520925662
 20
206.5813734393317134
 30
0.0
 11
4200.8574992520925662
 21
206.5726293802316889
 31
0.0
  0
ARC
  5
8FED
  8
0
 10
4205.307281807686195
 20
200.17303725929969
 30
0.0
 40
11.3012439836679999
 50
270.0000006854576782
 51
286.6015495954558787
  0
ARC
  5
8FEE
  8
0
 10
4207.0170680851615543
 20
194.4382397428547051
 30
0.0
 40
5.3169920112600337
 50
286.6015495954558787
 51
327.8073116399870059
  0
ARC
  5
8FEF
  8
0
 10
4206.0878995685179689
 20
195.0232028039800127
 30
0.0
 40
6.4149610068156928
 50
327.807311639988427
 51
349.4874268540359026
  0
ARC
  5
8FF0
  8
0
 10
4184.8322030723911666
 20
198.9675381234179099
 30
0.0
 40
28.0335274405024499
 50
349.4874268527103141
 51
0.0000000004363658
  0
ARC
  5
8FF1
  8
0
 10
4184.916810416779299
 20
198.9675381240674881
 30
0.0
 40
27.9489200961143389
 50
359.9999999991060236
 51
5.4630562077233451
  0
ARC
  5
8FF2
  8
0
 10
4208.3537371482498202
 20
201.4765376963725885
 30
0.0
 40
4.3876718712756411
 50
1.9832669692246729
 51
34.0622838264125178
  0
ARC
  5
8FF3
  8
0
 10
4206.2469029389667412
 20
199.9446042613197108
 30
0.0
 40
6.9916286859576608
 50
34.7922543173821381
 51
46.7288853047560266
  0
ARC
  5
8FF4
  8
0
 10
4212.3502422921346806
 20
206.4570564771645991
 30
0.0
 40
1.933853573010325
 50
180.6253477003369028
 51
227.3219097374114881
  0
LINE
  5
8FF5
  8
0
 10
4210.416503901791657
 20
206.4359500905316906
 30
0.0
 11
4210.4118969605669918
 21
206.5492436956403992
 31
0.0
  0
ARC
  5
8FF6
  8
0
 10
4210.3716233554587234
 20
206.5486948683092123
 30
0.0
 40
0.0402773444985676
 50
0.7807481683532205
 51
88.6398888520642885
  0
LINE
  5
8FF7
  8
0
 10
4210.372579386092184
 20
206.5889608649484046
 30
0.0
 11
4209.76447589952204
 21
206.5889608649484046
 31
0.0
  0
ARC
  5
8FF8
  8
0
 10
4209.7644482114692437
 20
206.5815745993469932
 30
0.0
 40
0.0073863174966976
 50
89.7852228415329563
 51
181.5605943185148021
  0
ARC
  5
8FF9
  8
0
 10
4210.3177387964533409
 20
206.4945678215187002
 30
0.0
 40
0.0780620083789391
 50
0.1284727250646343
 51
89.8055253590926981
  0
ARC
  5
8FFA
  8
0
 10
4161.5567794995158692
 20
206.3852323020502126
 30
0.0
 40
48.8391438853561795
 50
359.8252974080670015
 51
0.1284727250646343
  0
ARC
  5
8FFB
  8
0
 10
4212.3047392498119734
 20
206.2304944198727128
 30
0.0
 40
1.9090517735028281
 50
179.8252974080670015
 51
225.9931582624273858
  0
ARC
  5
8FFC
  8
0
 10
4206.5996028026693239
 20
200.3240642907890958
 30
0.0
 40
6.3027993424313626
 50
29.5278134480254515
 51
45.9931582624274427
  0
ARC
  5
8FFD
  8
0
 10
4208.1928518568583968
 20
201.4274403751437887
 30
0.0
 40
4.376186497904297
 50
2.4148516759400258
 51
27.23809735837769
  0
ARC
  5
8FFE
  8
0
 10
4184.8635146036122023
 20
198.9941543191766868
 30
0.0
 40
27.8250415968176483
 50
349.4217766409822161
 51
5.3981537066970251
  0
ARC
  5
8FFF
  8
0
 10
4206.0890638428982129
 20
195.0156649534810072
 30
0.0
 40
6.2298708390673667
 50
327.8602741099077775
 51
349.5536347887555735
  0
ARC
  5
9000
  8
0
 10
4207.0411449416360483
 20
194.4146671110532054
 30
0.0
 40
5.1039712985111239
 50
286.4181414943673758
 51
327.8872524933632917
  0
ARC
  5
9001
  8
0
 10
4205.3167531527833489
 20
200.2830405896422974
 30
0.0
 40
11.2204510661476409
 50
269.9516364881569075
 51
286.3947102480647118
  0
LINE
  5
9002
  8
0
 10
4209.757064633691698
 20
206.5813734393317134
 30
0.0
 11
4209.757064633691698
 21
206.5726293802316889
 31
0.0
  0
ENDSEC
  0
EOF
