  0
SECTION
  2
HEADER
  9
$ACADVER
  1
AC1009
  9
$INSBASE
 10
614.4771722663806486
 20
155.8464129063281973
 30
0.0
  9
$EXTMIN
 10
604.5085319804036317
 20
152.5999304441353104
 30
-0.0015258207003583
  9
$EXTMAX
 10
624.4212602410307227
 20
155.8579701612665076
 30
0.0000000349246037
  9
$LIMMIN
 10
0.0
 20
0.0
  9
$LIMMAX
 10
11.6929133858000007
 20
8.2677165353999982
  9
$ORTHOMODE
 70
     1
  9
$REGENMODE
 70
     1
  9
$FILLMODE
 70
     1
  9
$QTEXTMODE
 70
     0
  9
$MIRRTEXT
 70
     0
  9
$DRAGMODE
 70
     2
  9
$LTSCALE
 40
0.6431102362
  9
$OSMODE
 70
     7
  9
$ATTMODE
 70
     1
  9
$TEXTSIZE
 40
0.2
  9
$TRACEWID
 40
0.05
  9
$TEXTSTYLE
  7
STANDARD
  9
$CLAYER
  8
0
  9
$CELTYPE
  6
BYLAYER
  9
$CECOLOR
 62
   256
  9
$DIMSCALE
 40
1.0
  9
$DIMASZ
 40
0.1875
  9
$DIMEXO
 40
0.0625
  9
$DIMDLI
 40
0.4443307087
  9
$DIMRND
 40
0.0
  9
$DIMDLE
 40
0.0
  9
$DIMEXE
 40
0.125
  9
$DIMTP
 40
0.01
  9
$DIMTM
 40
0.01
  9
$DIMTXT
 40
2.0
  9
$DIMCEN
 40
0.1052362205
  9
$DIMTSZ
 40
0.0
  9
$DIMTOL
 70
     1
  9
$DIMLIM
 70
     0
  9
$DIMTIH
 70
     1
  9
$DIMTOH
 70
     1
  9
$DIMSE1
 70
     0
  9
$DIMSE2
 70
     0
  9
$DIMTAD
 70
     0
  9
$DIMZIN
 70
     0
  9
$DIMBLK
  1

  9
$DIMASO
 70
     1
  9
$DIMSHO
 70
     1
  9
$DIMPOST
  1
\X
  9
$DIMAPOST
  1

  9
$DIMALT
 70
     1
  9
$DIMALTD
 70
     2
  9
$DIMALTF
 40
25.3999999999999986
  9
$DIMLFAC
 40
1.0
  9
$DIMTOFL
 70
     0
  9
$DIMTVP
 40
0.0
  9
$DIMTIX
 70
     0
  9
$DIMSOXD
 70
     0
  9
$DIMSAH
 70
     0
  9
$DIMBLK1
  1

  9
$DIMBLK2
  1

  9
$DIMSTYLE
  2
STANDARD
  9
$DIMCLRD
 70
     0
  9
$DIMCLRE
 70
     0
  9
$DIMCLRT
 70
     0
  9
$DIMTFAC
 40
1.0
  9
$DIMGAP
 40
0.09
  9
$LUNITS
 70
     2
  9
$LUPREC
 70
     4
  9
$SKETCHINC
 40
0.1
  9
$FILLETRAD
 40
0.0
  9
$AUNITS
 70
     0
  9
$AUPREC
 70
     0
  9
$MENU
  1
.
  9
$ELEVATION
 40
0.0
  9
$PELEVATION
 40
0.0
  9
$THICKNESS
 40
0.0
  9
$LIMCHECK
 70
     0
  9
$BLIPMODE
 70
     0
  9
$CHAMFERA
 40
0.0
  9
$CHAMFERB
 40
0.0
  9
$SKPOLY
 70
     0
  9
$TDCREATE
 40
2458060.468368056230247
  9
$TDUPDATE
 40
2459562.5631597219035029
  9
$TDINDWG
 40
0.2597124421
  9
$TDUSRTIMER
 40
0.2597124421
  9
$USRTIMER
 70
     1
  9
$ANGBASE
 50
0.0
  9
$ANGDIR
 70
     0
  9
$PDMODE
 70
     0
  9
$PDSIZE
 40
0.3125
  9
$PLINEWID
 40
0.0
  9
$COORDS
 70
     1
  9
$SPLFRAME
 70
     0
  9
$SPLINETYPE
 70
     6
  9
$SPLINESEGS
 70
     8
  9
$ATTDIA
 70
     1
  9
$ATTREQ
 70
     1
  9
$HANDLING
 70
     1
  9
$HANDSEED
  5
4A14
  9
$SURFTAB1
 70
     6
  9
$SURFTAB2
 70
     6
  9
$SURFTYPE
 70
     6
  9
$SURFU
 70
     6
  9
$SURFV
 70
     6
  9
$UCSNAME
  2

  9
$UCSORG
 10
0.0
 20
0.0
 30
0.0
  9
$UCSXDIR
 10
1.0
 20
0.0
 30
0.0
  9
$UCSYDIR
 10
0.0
 20
1.0
 30
0.0
  9
$PUCSNAME
  2

  9
$PUCSORG
 10
0.0
 20
0.0
 30
0.0
  9
$PUCSXDIR
 10
1.0
 20
0.0
 30
0.0
  9
$PUCSYDIR
 10
0.0
 20
1.0
 30
0.0
  9
$USERI1
 70
     0
  9
$USERI2
 70
     0
  9
$USERI3
 70
     0
  9
$USERI4
 70
     0
  9
$USERI5
 70
     0
  9
$USERR1
 40
0.0
  9
$USERR2
 40
0.0
  9
$USERR3
 40
0.0
  9
$USERR4
 40
0.0
  9
$USERR5
 40
0.0
  9
$WORLDVIEW
 70
     1
  9
$SHADEDGE
 70
     3
  9
$SHADEDIF
 70
    70
  9
$TILEMODE
 70
     1
  9
$MAXACTVP
 70
    64
  9
$PLIMCHECK
 70
     0
  9
$PEXTMIN
 10
1.0000000000000000E+20
 20
1.0000000000000000E+20
 30
1.0000000000000000E+20
  9
$PEXTMAX
 10
-1.0000000000000000E+20
 20
-1.0000000000000000E+20
 30
-1.0000000000000000E+20
  9
$PLIMMIN
 10
0.0
 20
0.0
  9
$PLIMMAX
 10
12.0
 20
9.0
  9
$UNITMODE
 70
     0
  9
$VISRETAIN
 70
     1
  9
$PLINEGEN
 70
     0
  9
$PSLTSCALE
 70
     1
  0
ENDSEC
  0
SECTION
  2
TABLES
  0
TABLE
  2
VPORT
 70
     1
  0
VPORT
  2
*ACTIVE
 70
     0
 10
0.0
 20
0.0
 11
1.0
 21
1.0
 12
-0.0122761556634714
 22
-0.0008629183465416
 13
0.0
 23
0.0
 14
1.0
 24
1.0
 15
0.0
 25
0.0
 16
0.0
 26
0.0
 36
56.9166347857280073
 17
614.4771722663806486
 27
154.229813221047408
 37
0.0
 40
10.5887153513368997
 41
1.8876941457586609
 42
50.0
 43
0.0
 44
0.0
 50
0.0
 51
0.0
 71
     0
 72
   100
 73
     1
 74
     1
 75
     0
 76
     0
 77
     0
 78
     0
  0
ENDTAB
  0
TABLE
  2
LTYPE
 70
     2
  0
LTYPE
  2
CONTINUOUS
 70
     0
  3
Solid line
 72
    65
 73
     0
 40
0.0
  0
LTYPE
  2
PHANTOM2
 70
     0
  3
___ _ _ ___ _ _ ___ _ _ ___ _ _
 72
    65
 73
     6
 40
1.25
 49
0.625
 49
-0.125
 49
0.125
 49
-0.125
 49
0.125
 49
-0.125
  0
ENDTAB
  0
TABLE
  2
LAYER
 70
     2
  0
LAYER
  2
0
 70
     0
 62
   255
  6
CONTINUOUS
  0
LAYER
  2
DEFPOINTS
 70
     0
 62
     7
  6
CONTINUOUS
  0
ENDTAB
  0
TABLE
  2
STYLE
 70
     1
  0
STYLE
  2
STANDARD
 70
     0
 40
0.0
 41
0.8
 50
0.0
 71
     0
 42
0.2
  3
txt
  4

  0
ENDTAB
  0
TABLE
  2
VIEW
 70
     0
  0
ENDTAB
  0
TABLE
  2
UCS
 70
     0
  0
ENDTAB
  0
TABLE
  2
APPID
 70
     9
  0
APPID
  2
ACAD
 70
     0
  0
APPID
  2
ACAD_MLEADERVER
 70
     0
  0
APPID
  2
ACAD_EXEMPT_FROM_CAD_STANDARDS
 70
     0
  0
APPID
  2
ACAD_NAV_VCDISPLAY
 70
     0
  0
APPID
  2
ACAECLAYERSTANDARD
 70
     0
  0
APPID
  2
ACCMTRANSPARENCY
 70
     0
  0
APPID
  2
ACAD_DSTYLE_DIMJAG
 70
     0
  0
APPID
  2
ACAD_DSTYLE_DIMTALN
 70
     0
  0
APPID
  2
ACDBATTR
 70
     0
  0
ENDTAB
  0
TABLE
  2
DIMSTYLE
 70
     1
  0
DIMSTYLE
  2
STANDARD
 70
     0
  3

  4

  5

  6

  7

 40
1.0
 41
0.1875
 42
0.0625
 43
0.38
 44
0.125
 45
0.0
 46
0.0
 47
0.01
 48
0.01
140
0.15625
141
0.09
142
0.0
143
25.3999999999999986
144
1.0
145
0.0
146
1.0
147
0.09
 71
     1
 72
     0
 73
     1
 74
     1
 75
     0
 76
     0
 77
     0
 78
     4
170
     0
171
     2
172
     0
173
     0
174
     0
175
     0
176
     0
177
     0
178
     0
  0
ENDTAB
  0
ENDSEC
  0
SECTION
  2
BLOCKS
  0
BLOCK
  8
0
  2
$MODEL_SPACE
 70
     0
 10
0.0
 20
0.0
 30
0.0
  3
$MODEL_SPACE
  1

  0
ENDBLK
  5
21
  8
0
  0
BLOCK
 67
     1
  8
0
  2
$PAPER_SPACE
 70
     0
 10
0.0
 20
0.0
 30
0.0
  3
$PAPER_SPACE
  1

  0
ENDBLK
  5
1D
 67
     1
  8
0
  0
ENDSEC
  0
SECTION
  2
ENTITIES
  0
ATTDEF
  5
3930
  8
DEFPOINTS
 10
614.4740886758646639
 20
155.8522135357667082
 30
0.0
 40
0.001
  1
K-485T
  3

  2
MODELNUMBER
 70
     0
1001
ACDBATTR
1070
     0
1070
     1
  0
ATTDEF
  5
3931
  8
DEFPOINTS
 10
614.4740886758646639
 20
155.8505468690999862
 30
0.0
 40
0.001
  1
MEMOIRS
  3

  2
TRADENAME
 70
     0
1001
ACDBATTR
1070
     0
1070
     1
  0
ATTDEF
  5
3932
  8
DEFPOINTS
 10
614.4740886758646639
 20
155.8488802024332927
 30
0.0
 40
0.001
  1
TOWEL BAR
  3

  2
PRODUCT
 70
     0
1001
ACDBATTR
1070
     0
1070
     1
  0
LINE
  5
46A8
  8
0
 10
604.5521409885807316
 20
155.8164129132281914
 30
0.0
 11
604.5521409885807316
 21
155.8464129063281973
 31
0.0
  0
LINE
  5
46A9
  8
0
 10
604.6321409885805451
 20
155.6864129063282007
 30
0.0
 11
604.6321409885805451
 21
155.7364129063282121
 31
0.0
  0
LINE
  5
46AA
  8
0
 10
605.0771409885807088
 20
152.725757520628207
 30
0.0
 11
605.0771409885807088
 21
153.4064129063281996
 31
0.0
  0
LINE
  5
46AB
  8
0
 10
605.161050951680636
 20
153.5064129063281939
 30
0.0
 11
605.0771409885807088
 21
153.4064129063281996
 31
0.0
  0
LINE
  5
46AC
  8
0
 10
605.0771409885807088
 20
152.725757520628207
 30
0.0
 11
605.8771409885806634
 21
152.725757520628207
 31
0.0
  0
LINE
  5
46AD
  8
0
 10
605.8721382342914694
 20
152.8474129063282021
 30
0.0
 11
623.0822062984698277
 21
152.8474129063282021
 31
0.0
  0
LINE
  5
46AE
  8
0
 10
605.8721382342914694
 20
153.2854129063281903
 30
0.0
 11
623.0822062984698277
 21
153.2854129063281903
 31
0.0
  0
LINE
  5
46AF
  8
0
 10
605.8771409885806634
 20
153.4064129063281996
 30
0.0
 11
605.0771409885807088
 21
153.4064129063281996
 31
0.0
  0
LINE
  5
46B0
  8
0
 10
605.7932310254807362
 20
153.5064129063281939
 30
0.0
 11
605.161050951680636
 21
153.5064129063281939
 31
0.0
  0
LINE
  5
46B1
  8
0
 10
605.8090390815423234
 20
153.5074129063281987
 30
0.0
 11
605.1452428955806226
 21
153.5074129063281987
 31
0.0
  0
LINE
  5
46B2
  8
0
 10
606.3744656591807143
 20
155.7364129063282121
 30
0.0
 11
604.5798163179806579
 21
155.7364129063282121
 31
0.0
  0
LINE
  5
46B3
  8
0
 10
606.4021409885806406
 20
155.8464129063281973
 30
0.0
 11
604.5521409885807316
 21
155.8464129063281973
 31
0.0
  0
ARC
  5
46B4
  8
0
 10
599.1192234412806101
 20
153.318346159528204
 30
0.0
 40
6.0
 50
2.08198385780064
 51
23.2458802374009288
  0
ARC
  5
46B5
  8
0
 10
605.4771409886815263
 20
153.3364129070201045
 30
0.0
 40
0.7300000006918437
 50
236.7738406571922098
 51
269.9999999920852929
  0
ARC
  5
46B6
  8
0
 10
605.145242837280648
 20
153.5374129063281998
 30
0.0
 40
0.03
 50
182.0819838578005943
 51
270.000111418099209
  0
ARC
  5
46B7
  8
0
 10
605.2771409885806406
 20
153.5164129063282132
 30
0.0
 40
0.01
 50
270.0000416149970874
 51
295.8419327632265095
  0
ARC
  5
46B8
  8
0
 10
604.7401409885796966
 20
155.8164129063279972
 30
0.0
 40
0.1879999999991641
 50
179.9999978970697043
 51
202.0688826040448873
  0
ARC
  5
46B9
  8
0
 10
604.5822861955617782
 20
155.755079327099196
 30
0.0
 40
0.018829114680925
 50
209.605188084379904
 51
262.4626004639729899
  0
ARC
  5
46BA
  8
0
 10
604.6927561966346047
 20
152.8049859044778884
 30
0.0
 40
1.0361879227649911
 50
44.8938740588426697
 51
66.6642006644666338
  0
ARC
  5
46BB
  8
0
 10
605.422790802853342
 20
153.5313336338045076
 30
0.0
 40
0.0064053481169895
 50
8.3920880835027116
 51
51.1637157393280901
  0
ARC
  5
46BC
  8
0
 10
605.5481919672905633
 20
153.5293175326598885
 30
0.0
 40
0.1191009646080245
 50
178.5802496111074049
 51
190.5979655006634914
  0
LINE
  5
46BD
  8
0
 10
606.4021409885806406
 20
155.8164129132281914
 30
0.0
 11
606.4021409885806406
 21
155.8464129063281973
 31
0.0
  0
LINE
  5
46BE
  8
0
 10
606.3221409885807134
 20
155.6864129063282007
 30
0.0
 11
606.3221409885807134
 21
155.7364129063282121
 31
0.0
  0
LINE
  5
46BF
  8
0
 10
605.8771409885806634
 20
152.725757520628207
 30
0.0
 11
605.8771409885806634
 21
152.8399129063280952
 31
0.0
  0
LINE
  5
46C0
  8
0
 10
605.8771409885806634
 20
153.2929129063282119
 30
0.0
 11
605.8771409885806634
 21
153.4064129063281996
 31
0.0
  0
LINE
  5
46C1
  8
0
 10
605.7932310254807362
 20
153.5064129063281939
 30
0.0
 11
605.8771409885806634
 21
153.4064129063281996
 31
0.0
  0
ARC
  5
46C2
  8
0
 10
611.8350585358806484
 20
153.318346159528204
 30
0.0
 40
6.0
 50
156.7541197625990037
 51
177.9180161421992921
  0
ARC
  5
46C3
  8
0
 10
605.4771409885805724
 20
153.3364129063282064
 30
0.0
 40
0.73
 50
270.0
 51
303.2261593688998005
  0
ARC
  5
46C4
  8
0
 10
605.8090391398807242
 20
153.5374129063281998
 30
0.0
 40
0.03
 50
269.999888581900791
 51
357.9180161421994057
  0
ARC
  5
46C5
  8
0
 10
605.6771409885807316
 20
153.5164129063282132
 30
0.0
 40
0.01
 50
244.1580672367736042
 51
269.9999583850029126
  0
ARC
  5
46C6
  8
0
 10
606.2141409885814483
 20
155.8164129063279972
 30
0.0
 40
0.1879999999991641
 50
337.9311173959551979
 51
0.0000021029302381
  0
ARC
  5
46C7
  8
0
 10
606.371995781599594
 20
155.755079327099196
 30
0.0
 40
0.018829114680925
 50
277.5373995360270101
 51
330.394811915620096
  0
ARC
  5
46C8
  8
0
 10
606.2615257805266538
 20
152.8049859044778884
 30
0.0
 40
1.0361879227649911
 50
113.3357993355333946
 51
135.1061259411573019
  0
ARC
  5
46C9
  8
0
 10
605.5314911743079165
 20
153.5313336338045076
 30
0.0
 40
0.0064053481169895
 50
128.8362842606719028
 51
171.6079119164971871
  0
ARC
  5
46CA
  8
0
 10
605.4060900098708089
 20
153.5293175326598885
 30
0.0
 40
0.1191009646080245
 50
349.4020344993364802
 51
1.41975038889254
  0
LINE
  5
46CB
  8
0
 10
604.6321409885805451
 20
155.6864129061954998
 30
0.0
 11
606.3221409885807134
 21
155.6864129061954998
 31
0.0
  0
ARC
  5
46CC
  8
0
 10
606.2085806574024218
 20
153.0664129063281962
 30
0.0
 40
0.4014405361553645
 50
145.6519904840376114
 51
214.3480095159650034
  0
LINE
  5
46CD
  8
0
 10
624.4022035441806793
 20
155.8164129132281914
 30
0.0
 11
624.4022035441806793
 21
155.8464129063281973
 31
0.0
  0
LINE
  5
46CE
  8
0
 10
624.322203544180752
 20
155.6864129063282007
 30
0.0
 11
624.322203544180752
 21
155.7364129063282121
 31
0.0
  0
LINE
  5
46CF
  8
0
 10
623.8772035441805883
 20
152.725757520628207
 30
0.0
 11
623.8772035441805883
 21
153.4064129063281996
 31
0.0
  0
LINE
  5
46D0
  8
0
 10
623.7932935810807749
 20
153.5064129063281939
 30
0.0
 11
623.8772035441805883
 21
153.4064129063281996
 31
0.0
  0
LINE
  5
46D1
  8
0
 10
623.8772035441805883
 20
152.725757520628207
 30
0.0
 11
623.0772035441807475
 21
152.725757520628207
 31
0.0
  0
LINE
  5
46D2
  8
0
 10
623.0772035441807475
 20
153.4064129063281996
 30
0.0
 11
623.8772035441805883
 21
153.4064129063281996
 31
0.0
  0
LINE
  5
46D3
  8
0
 10
623.1611135072807883
 20
153.5064129063281939
 30
0.0
 11
623.7932935810807749
 21
153.5064129063281939
 31
0.0
  0
LINE
  5
46D4
  8
0
 10
623.1453054512190874
 20
153.5074129063281987
 30
0.0
 11
623.8091016371806745
 21
153.5074129063281987
 31
0.0
  0
LINE
  5
46D5
  8
0
 10
622.5798788735806966
 20
155.7364129063282121
 30
0.0
 11
624.3745282147807529
 21
155.7364129063282121
 31
0.0
  0
LINE
  5
46D6
  8
0
 10
622.5522035441806565
 20
155.8464129063281973
 30
0.0
 11
624.4022035441806793
 21
155.8464129063281973
 31
0.0
  0
ARC
  5
46D7
  8
0
 10
629.8351210914805733
 20
153.318346159528204
 30
0.0
 40
6.0
 50
156.7541197625990037
 51
177.9180161421992921
  0
ARC
  5
46D8
  8
0
 10
623.4772035440798845
 20
153.3364129070203887
 30
0.0
 40
0.7300000006921721
 50
270.0000000079147071
 51
303.2261593427955972
  0
ARC
  5
46D9
  8
0
 10
623.8091016954807628
 20
153.5374129063281998
 30
0.0
 40
0.03
 50
269.999888581900791
 51
357.9180161421994057
  0
ARC
  5
46DA
  8
0
 10
623.6772035441806565
 20
153.5164129063282132
 30
0.0
 40
0.01
 50
244.1580672367736042
 51
269.9999583850029126
  0
ARC
  5
46DB
  8
0
 10
624.2142035441816006
 20
155.8164129063279972
 30
0.0
 40
0.1879999999991641
 50
337.9311173959551979
 51
0.0000021029302381
  0
ARC
  5
46DC
  8
0
 10
624.3720583371996327
 20
155.755079327099196
 30
0.0
 40
0.018829114680925
 50
277.5373995360270101
 51
330.394811915620096
  0
ARC
  5
46DD
  8
0
 10
624.2615883361268061
 20
152.8049859044778884
 30
0.0
 40
1.0361879227649911
 50
113.3357993355333946
 51
135.1061259411573019
  0
ARC
  5
46DE
  8
0
 10
623.5315537299079551
 20
153.5313336338045076
 30
0.0
 40
0.0064053481169895
 50
128.8362842606719028
 51
171.6079119164971871
  0
ARC
  5
46DF
  8
0
 10
623.4061525654708475
 20
153.5293175326598885
 30
0.0
 40
0.1191009646080245
 50
349.4020344993364802
 51
1.41975038889254
  0
LINE
  5
46E0
  8
0
 10
622.5522035441806565
 20
155.8164129132281914
 30
0.0
 11
622.5522035441806565
 21
155.8464129063281973
 31
0.0
  0
LINE
  5
46E1
  8
0
 10
622.6322035441806975
 20
155.6864129063282007
 30
0.0
 11
622.6322035441806975
 21
155.7364129063282121
 31
0.0
  0
LINE
  5
46E2
  8
0
 10
623.0772035441807475
 20
152.725757520628207
 30
0.0
 11
623.0772035441807475
 21
152.8399129063280952
 31
0.0
  0
LINE
  5
46E3
  8
0
 10
623.0772035441807475
 20
153.2929129063282119
 30
0.0
 11
623.0772035441807475
 21
153.4064129063281996
 31
0.0
  0
LINE
  5
46E4
  8
0
 10
623.1611135072807883
 20
153.5064129063281939
 30
0.0
 11
623.0772035441807475
 21
153.4064129063281996
 31
0.0
  0
ARC
  5
46E5
  8
0
 10
617.1192859968806488
 20
153.318346159528204
 30
0.0
 40
6.0
 50
2.08198385780064
 51
23.2458802374009288
  0
ARC
  5
46E6
  8
0
 10
623.4772035441807247
 20
153.3364129063282064
 30
0.0
 40
0.73
 50
236.7738406311001995
 51
270.0
  0
ARC
  5
46E7
  8
0
 10
623.1453053928808004
 20
153.5374129063281998
 30
0.0
 40
0.03
 50
182.0819838578005943
 51
270.000111418099209
  0
ARC
  5
46E8
  8
0
 10
623.277203544180793
 20
153.5164129063282132
 30
0.0
 40
0.01
 50
270.0000416149970874
 51
295.8419327632265095
  0
ARC
  5
46E9
  8
0
 10
622.7402035441798489
 20
155.8164129063279972
 30
0.0
 40
0.1879999999991641
 50
179.9999978970697043
 51
202.0688826040448873
  0
ARC
  5
46EA
  8
0
 10
622.5823487511618168
 20
155.755079327099196
 30
0.0
 40
0.018829114680925
 50
209.605188084379904
 51
262.4626004639729899
  0
ARC
  5
46EB
  8
0
 10
622.6928187522346434
 20
152.8049859044778884
 30
0.0
 40
1.0361879227649911
 50
44.8938740588426697
 51
66.6642006644666338
  0
ARC
  5
46EC
  8
0
 10
623.4228533584533807
 20
153.5313336338045076
 30
0.0
 40
0.0064053481169895
 50
8.3920880835027116
 51
51.1637157393280901
  0
ARC
  5
46ED
  8
0
 10
623.5482545228904883
 20
153.5293175326598885
 30
0.0
 40
0.1191009646080245
 50
178.5802496111074049
 51
190.5979655006634914
  0
LINE
  5
46EE
  8
0
 10
624.322203544180752
 20
155.6864129061954998
 30
0.0
 11
622.6322035441806975
 21
155.6864129061954998
 31
0.0
  0
ARC
  5
46EF
  8
0
 10
622.7457638753588753
 20
153.0664129063281962
 30
0.0
 40
0.4014405361553645
 50
325.651990484035025
 51
34.3480095159623318
  0
ENDSEC
  0
EOF
