  0
SECTION
  2
HEADER
  9
$ACADVER
  1
AC1009
  9
$INSBASE
 10
503.5405462211870145
 20
96.4693191661025367
 30
0.0
  9
$EXTMIN
 10
500.3368523399598757
 20
90.2787797910829113
 30
-0.0015258207003583
  9
$EXTMAX
 10
506.7545989600102985
 20
97.3972914659588582
 30
0.0000000349246037
  9
$LIMMIN
 10
0.0
 20
0.0
  9
$LIMMAX
 10
11.6929133858000007
 20
8.2677165353999982
  9
$ORTHOMODE
 70
     0
  9
$REGENMODE
 70
     1
  9
$FILLMODE
 70
     1
  9
$QTEXTMODE
 70
     0
  9
$MIRRTEXT
 70
     0
  9
$DRAGMODE
 70
     2
  9
$LTSCALE
 40
0.6431102362
  9
$OSMODE
 70
  2039
  9
$ATTMODE
 70
     1
  9
$TEXTSIZE
 40
0.2
  9
$TRACEWID
 40
0.05
  9
$TEXTSTYLE
  7
STANDARD
  9
$CLAYER
  8
0
  9
$CELTYPE
  6
BYLAYER
  9
$CECOLOR
 62
   256
  9
$DIMSCALE
 40
1.0
  9
$DIMASZ
 40
0.1875
  9
$DIMEXO
 40
0.0625
  9
$DIMDLI
 40
0.4443307087
  9
$DIMRND
 40
0.0
  9
$DIMDLE
 40
0.0
  9
$DIMEXE
 40
0.125
  9
$DIMTP
 40
0.01
  9
$DIMTM
 40
0.01
  9
$DIMTXT
 40
1.0
  9
$DIMCEN
 40
0.1052362205
  9
$DIMTSZ
 40
0.0
  9
$DIMTOL
 70
     1
  9
$DIMLIM
 70
     0
  9
$DIMTIH
 70
     0
  9
$DIMTOH
 70
     1
  9
$DIMSE1
 70
     0
  9
$DIMSE2
 70
     0
  9
$DIMTAD
 70
     0
  9
$DIMZIN
 70
     0
  9
$DIMBLK
  1

  9
$DIMASO
 70
     1
  9
$DIMSHO
 70
     1
  9
$DIMPOST
  1
\X
  9
$DIMAPOST
  1

  9
$DIMALT
 70
     1
  9
$DIMALTD
 70
     2
  9
$DIMALTF
 40
25.3999999999999986
  9
$DIMLFAC
 40
1.0
  9
$DIMTOFL
 70
     0
  9
$DIMTVP
 40
0.0
  9
$DIMTIX
 70
     0
  9
$DIMSOXD
 70
     0
  9
$DIMSAH
 70
     0
  9
$DIMBLK1
  1

  9
$DIMBLK2
  1

  9
$DIMSTYLE
  2
STANDARD
  9
$DIMCLRD
 70
     0
  9
$DIMCLRE
 70
     0
  9
$DIMCLRT
 70
     0
  9
$DIMTFAC
 40
1.0
  9
$DIMGAP
 40
0.09
  9
$LUNITS
 70
     2
  9
$LUPREC
 70
     4
  9
$SKETCHINC
 40
0.1
  9
$FILLETRAD
 40
0.0
  9
$AUNITS
 70
     0
  9
$AUPREC
 70
     0
  9
$MENU
  1
.
  9
$ELEVATION
 40
0.0
  9
$PELEVATION
 40
0.0
  9
$THICKNESS
 40
0.0
  9
$LIMCHECK
 70
     0
  9
$BLIPMODE
 70
     0
  9
$CHAMFERA
 40
0.0
  9
$CHAMFERB
 40
0.0
  9
$SKPOLY
 70
     0
  9
$TDCREATE
 40
2458172.5207638889551163
  9
$TDUPDATE
 40
2459137.7618055557832122
  9
$TDINDWG
 40
0.2974312731
  9
$TDUSRTIMER
 40
0.2974312731
  9
$USRTIMER
 70
     1
  9
$ANGBASE
 50
0.0
  9
$ANGDIR
 70
     0
  9
$PDMODE
 70
     0
  9
$PDSIZE
 40
0.3125
  9
$PLINEWID
 40
0.0
  9
$COORDS
 70
     1
  9
$SPLFRAME
 70
     0
  9
$SPLINETYPE
 70
     6
  9
$SPLINESEGS
 70
     8
  9
$ATTDIA
 70
     1
  9
$ATTREQ
 70
     1
  9
$HANDLING
 70
     1
  9
$HANDSEED
  5
8FCA
  9
$SURFTAB1
 70
     6
  9
$SURFTAB2
 70
     6
  9
$SURFTYPE
 70
     6
  9
$SURFU
 70
     6
  9
$SURFV
 70
     6
  9
$UCSNAME
  2

  9
$UCSORG
 10
0.0
 20
0.0
 30
0.0
  9
$UCSXDIR
 10
1.0
 20
0.0
 30
0.0
  9
$UCSYDIR
 10
0.0
 20
1.0
 30
0.0
  9
$PUCSNAME
  2

  9
$PUCSORG
 10
0.0
 20
0.0
 30
0.0
  9
$PUCSXDIR
 10
1.0
 20
0.0
 30
0.0
  9
$PUCSYDIR
 10
0.0
 20
1.0
 30
0.0
  9
$USERI1
 70
     0
  9
$USERI2
 70
     0
  9
$USERI3
 70
     0
  9
$USERI4
 70
     0
  9
$USERI5
 70
     0
  9
$USERR1
 40
0.0
  9
$USERR2
 40
0.0
  9
$USERR3
 40
0.0
  9
$USERR4
 40
0.0
  9
$USERR5
 40
0.0
  9
$WORLDVIEW
 70
     1
  9
$SHADEDGE
 70
     3
  9
$SHADEDIF
 70
    70
  9
$TILEMODE
 70
     1
  9
$MAXACTVP
 70
    64
  9
$PLIMCHECK
 70
     0
  9
$PEXTMIN
 10
1.0000000000000000E+20
 20
1.0000000000000000E+20
 30
1.0000000000000000E+20
  9
$PEXTMAX
 10
-1.0000000000000000E+20
 20
-1.0000000000000000E+20
 30
-1.0000000000000000E+20
  9
$PLIMMIN
 10
0.0
 20
0.0
  9
$PLIMMAX
 10
12.0
 20
9.0
  9
$UNITMODE
 70
     0
  9
$VISRETAIN
 70
     1
  9
$PLINEGEN
 70
     0
  9
$PSLTSCALE
 70
     1
  0
ENDSEC
  0
SECTION
  2
TABLES
  0
TABLE
  2
VPORT
 70
     1
  0
VPORT
  2
*ACTIVE
 70
     0
 10
0.0
 20
0.0
 11
1.0
 21
1.0
 12
0.005179428798102
 22
-0.0083803508955214
 13
0.0
 23
0.0
 14
1.0
 24
1.0
 15
0.0
 25
0.0
 16
0.0
 26
0.0
 36
25.7967328817476016
 17
503.5405462211870145
 27
93.8464159794164061
 37
0.0
 40
7.1777503295905873
 41
2.6486111111111108
 42
50.0
 43
0.0
 44
0.0
 50
0.0
 51
0.0
 71
     0
 72
   100
 73
     1
 74
     1
 75
     0
 76
     0
 77
     0
 78
     0
  0
ENDTAB
  0
TABLE
  2
LTYPE
 70
     2
  0
LTYPE
  2
CONTINUOUS
 70
     0
  3
Solid line
 72
    65
 73
     0
 40
0.0
  0
LTYPE
  2
PHANTOM2
 70
     0
  3
___ _ _ ___ _ _ ___ _ _ ___ _ _
 72
    65
 73
     6
 40
1.25
 49
0.625
 49
-0.125
 49
0.125
 49
-0.125
 49
0.125
 49
-0.125
  0
ENDTAB
  0
TABLE
  2
LAYER
 70
     2
  0
LAYER
  2
0
 70
     0
 62
   255
  6
CONTINUOUS
  0
LAYER
  2
DEFPOINTS
 70
     0
 62
     7
  6
CONTINUOUS
  0
ENDTAB
  0
TABLE
  2
STYLE
 70
     1
  0
STYLE
  2
STANDARD
 70
     0
 40
0.0
 41
0.8
 50
0.0
 71
     0
 42
0.2
  3
txt
  4

  0
ENDTAB
  0
TABLE
  2
VIEW
 70
     0
  0
ENDTAB
  0
TABLE
  2
UCS
 70
     0
  0
ENDTAB
  0
TABLE
  2
APPID
 70
    10
  0
APPID
  2
ACAD
 70
     0
  0
APPID
  2
ACAD_MLEADERVER
 70
     0
  0
APPID
  2
ACAD_EXEMPT_FROM_CAD_STANDARDS
 70
     0
  0
APPID
  2
ACAD_DSTYLE_DIMJAG
 70
     0
  0
APPID
  2
ACAD_DSTYLE_DIMTALN
 70
     0
  0
APPID
  2
ACAD_NAV_VCDISPLAY
 70
     0
  0
APPID
  2
ACAECLAYERSTANDARD
 70
     0
  0
APPID
  2
ACCMTRANSPARENCY
 70
     0
  0
APPID
  2
DCO15
 70
     0
  0
APPID
  2
ACDBATTR
 70
     0
  0
ENDTAB
  0
TABLE
  2
DIMSTYLE
 70
     1
  0
DIMSTYLE
  2
STANDARD
 70
     0
  3

  4

  5

  6

  7

 40
1.0
 41
0.1875
 42
0.0625
 43
0.38
 44
0.125
 45
0.0
 46
0.0
 47
0.01
 48
0.01
140
0.15625
141
0.09
142
0.0
143
25.3999999999999986
144
1.0
145
0.0
146
1.0
147
0.09
 71
     1
 72
     0
 73
     1
 74
     1
 75
     0
 76
     0
 77
     0
 78
     4
170
     0
171
     2
172
     0
173
     0
174
     0
175
     0
176
     0
177
     0
178
     0
  0
ENDTAB
  0
ENDSEC
  0
SECTION
  2
BLOCKS
  0
BLOCK
  8
0
  2
$MODEL_SPACE
 70
     0
 10
0.0
 20
0.0
 30
0.0
  3
$MODEL_SPACE
  1

  0
ENDBLK
  5
21
  8
0
  0
BLOCK
 67
     1
  8
0
  2
$PAPER_SPACE
 70
     0
 10
0.0
 20
0.0
 30
0.0
  3
$PAPER_SPACE
  1

  0
ENDBLK
  5
1D
 67
     1
  8
0
  0
BLOCK
  8
0
  2
_FILLED
 70
     0
 10
0.0
 20
0.0
 30
0.0
  3
_FILLED
  1

  0
SOLID
  5
8C29
  8
0
  6
BYBLOCK
 62
     0
 10
0.0
 20
0.0
 30
0.0
 11
-1.0
 21
0.1666666667
 31
0.0
 12
-1.0
 22
-0.1666666667
 32
0.0
 13
-1.0
 23
-0.1666666667
 33
0.0
  0
ENDBLK
  5
8C2A
  8
0
  6
BYBLOCK
 62
     0
  0
ENDSEC
  0
SECTION
  2
ENTITIES
  0
ATTDEF
  5
829
  8
DEFPOINTS
 10
503.5387657224565032
 20
96.4671676268579432
 30
0.0
 40
0.001
  1
K-487T
  3

  2
MODELNUMBER
 70
     0
1001
ACDBATTR
1070
     0
1070
     1
  0
ATTDEF
  5
82A
  8
DEFPOINTS
 10
503.5387657224565032
 20
96.4655009601912781
 30
0.0
 40
0.001
  1
MEMOIRS
  3

  2
TRADENAME
 70
     0
1001
ACDBATTR
1070
     0
1070
     1
  0
ATTDEF
  5
82B
  8
DEFPOINTS
 10
503.5387657224565032
 20
96.4638342935246129
 30
0.0
 40
0.001
  1
TOWEL RING
  3

  2
PRODUCT
 70
     0
1001
ACDBATTR
1070
     0
1070
     1
  0
LINE
  5
8DDE
  8
0
 10
504.4505436924869173
 20
97.3943190004525405
 30
0.0
 11
502.6305487498869979
 21
97.3943190004525405
 31
0.0
  0
ARC
  5
8DDF
  8
0
 10
502.6305489027473072
 20
97.3793163186227417
 30
0.0
 40
0.0150026818305989
 50
90.0005837792567434
 51
179.9891253724663045
  0
LINE
  5
8DE0
  8
0
 10
502.6155462211868894
 20
97.3793191661025475
 30
0.0
 11
502.6155462211868894
 21
96.5437382027553639
 31
0.0
  0
LINE
  5
8DE1
  8
0
 10
502.6155462211868894
 20
96.1495956278571526
 30
0.0
 11
502.6155462211868894
 21
95.5593217042025458
 31
0.0
  0
ARC
  5
8DE2
  8
0
 10
502.6305459289330884
 20
95.5593190397352856
 30
0.0
 40
0.0149997079828622
 50
179.9898222866227115
 51
270.0002148778265223
  0
LINE
  5
8DE3
  8
0
 10
502.6305459851869841
 20
95.544319331752547
 30
0.0
 11
504.4505464571868742
 21
95.544319331752547
 31
0.0
  0
LINE
  5
8DE4
  8
0
 10
504.3855462211869849
 20
97.3143191661025355
 30
0.0
 11
502.6955462211868735
 21
97.3143191661025355
 31
0.0
  0
LINE
  5
8DE5
  8
0
 10
502.6955462211868735
 20
97.3143191661025355
 30
0.0
 11
502.6955462211868735
 21
96.5667743014354727
 31
0.0
  0
LINE
  5
8DE6
  8
0
 10
502.6955462211868735
 20
96.1760038757859803
 30
0.0
 11
502.6955462211868735
 21
95.6243191661025378
 31
0.0
  0
LINE
  5
8DE7
  8
0
 10
502.6955462211868735
 20
95.6243191661025378
 30
0.0
 11
504.3855462211869849
 21
95.6243191661025378
 31
0.0
  0
CIRCLE
  5
8DE9
  8
0
 10
503.5405462211870145
 20
96.4693191661025367
 30
0.0
 40
0.4000000000000004
  0
LINE
  5
8DEA
  8
0
 10
503.379598071371106
 20
96.8355099539042925
 30
0.0
 11
503.1666154489777227
 21
96.8432499383144432
 31
0.0
  0
LINE
  5
8DEB
  8
0
 10
503.1666154489777227
 20
96.8432499383144432
 30
0.0
 11
503.1732004830464007
 21
96.6592442707567869
 31
0.0
  0
LINE
  5
8DEC
  8
0
 10
503.1732569174184277
 20
96.2814182118998332
 30
0.0
 11
503.1666154488870006
 21
96.0953883906025652
 31
0.0
  0
LINE
  5
8DED
  8
0
 10
503.1666154488870006
 20
96.0953883906025652
 30
0.0
 11
503.3797626296017143
 21
96.103056095787025
 31
0.0
  0
LINE
  5
8DEE
  8
0
 10
503.1666154489777227
 20
96.8432499383144432
 30
0.0
 11
502.6955462211868735
 21
97.3143191661025355
 31
0.0
  0
LINE
  5
8DEF
  8
0
 10
503.1666154488870006
 20
96.0953883906025652
 30
0.0
 11
502.6955462211868735
 21
95.6243191661025378
 31
0.0
  0
ARC
  5
8DF0
  8
0
 10
503.5405462211870145
 20
93.4818191661025395
 30
0.0
 40
2.823589249499999
 50
97.2027313611892083
 51
82.7972686388107775
  0
ARC
  5
8DF1
  8
0
 10
503.5405462211870145
 20
93.4818191661025395
 30
0.0
 40
3.198589249499999
 50
96.300702132947265
 51
83.6992978670527492
  0
ARC
  5
8DF2
  8
0
 10
504.450543539626608
 20
97.3793163186227417
 30
0.0
 40
0.0150026818305992
 50
0.0108746275336614
 51
89.9994162207399739
  0
LINE
  5
8DF3
  8
0
 10
504.4655462211870258
 20
97.3793191661025475
 30
0.0
 11
504.4655462211870258
 21
96.5437382027553639
 31
0.0
  0
LINE
  5
8DF4
  8
0
 10
504.4655462211870258
 20
96.1495956278571526
 30
0.0
 11
504.4655462211870258
 21
95.5593217042025458
 31
0.0
  0
ARC
  5
8DF5
  8
0
 10
504.4505465134407132
 20
95.5593190397352856
 30
0.0
 40
0.0149997079828637
 50
269.9997851221801284
 51
0.0101777133707331
  0
LINE
  5
8DF6
  8
0
 10
504.3855462211869849
 20
97.3143191661025355
 30
0.0
 11
504.3855462211869849
 21
96.5667743014354727
 31
0.0
  0
LINE
  5
8DF7
  8
0
 10
504.3855462211869849
 20
96.1760038757859803
 30
0.0
 11
504.3855462211869849
 21
95.6243191661025378
 31
0.0
  0
LINE
  5
8DF8
  8
0
 10
503.7014943710028092
 20
96.8355099539042925
 30
0.0
 11
503.9144769933961925
 21
96.8432499383144432
 31
0.0
  0
LINE
  5
8DF9
  8
0
 10
503.9144769933961925
 20
96.8432499383144432
 30
0.0
 11
503.9078919593276282
 21
96.6592442707567869
 31
0.0
  0
LINE
  5
8DFA
  8
0
 10
503.9078355249554875
 20
96.2814182118998332
 30
0.0
 11
503.9144769934869146
 21
96.0953883906025652
 31
0.0
  0
LINE
  5
8DFB
  8
0
 10
503.9144769934869146
 20
96.0953883906025652
 30
0.0
 11
503.701329812772201
 21
96.103056095787025
 31
0.0
  0
LINE
  5
8DFC
  8
0
 10
503.9144769933961925
 20
96.8432499383144432
 30
0.0
 11
504.3855462211869849
 21
97.3143191661025355
 31
0.0
  0
LINE
  5
8DFD
  8
0
 10
503.9144769934869146
 20
96.0953883906025652
 30
0.0
 11
504.3855462211869849
 21
95.6243191661025378
 31
0.0
  0
ENDSEC
  0
EOF
