  0
SECTION
  2
HEADER
  9
$ACADVER
  1
AC1009
  9
$INSBASE
 10
2881.5014864942631903
 20
150.1187991925187077
 30
0.0
  9
$EXTMIN
 10
2880.214078339848129
 20
149.1937991925186111
 30
0.0
  9
$EXTMAX
 10
2882.7888946486777968
 20
151.3249144365186112
 30
0.0
  9
$LIMMIN
 10
0.0
 20
0.0
  9
$LIMMAX
 10
11.6929133858000007
 20
8.2677165353999982
  9
$ORTHOMODE
 70
     0
  9
$REGENMODE
 70
     1
  9
$FILLMODE
 70
     1
  9
$QTEXTMODE
 70
     0
  9
$MIRRTEXT
 70
     0
  9
$DRAGMODE
 70
     2
  9
$LTSCALE
 40
0.6431102362
  9
$OSMODE
 70
  1975
  9
$ATTMODE
 70
     1
  9
$TEXTSIZE
 40
0.2
  9
$TRACEWID
 40
0.05
  9
$TEXTSTYLE
  7
STANDARD
  9
$CLAYER
  8
0
  9
$CELTYPE
  6
BYLAYER
  9
$CECOLOR
 62
   256
  9
$DIMSCALE
 40
1.0
  9
$DIMASZ
 40
0.1875
  9
$DIMEXO
 40
0.0625
  9
$DIMDLI
 40
0.4443307087
  9
$DIMRND
 40
0.0
  9
$DIMDLE
 40
0.0
  9
$DIMEXE
 40
0.125
  9
$DIMTP
 40
0.01
  9
$DIMTM
 40
0.01
  9
$DIMTXT
 40
2.0
  9
$DIMCEN
 40
0.1052362205
  9
$DIMTSZ
 40
0.0
  9
$DIMTOL
 70
     1
  9
$DIMLIM
 70
     0
  9
$DIMTIH
 70
     1
  9
$DIMTOH
 70
     1
  9
$DIMSE1
 70
     0
  9
$DIMSE2
 70
     0
  9
$DIMTAD
 70
     0
  9
$DIMZIN
 70
     0
  9
$DIMBLK
  1

  9
$DIMASO
 70
     1
  9
$DIMSHO
 70
     1
  9
$DIMPOST
  1
\X
  9
$DIMAPOST
  1

  9
$DIMALT
 70
     1
  9
$DIMALTD
 70
     2
  9
$DIMALTF
 40
25.3999999999999986
  9
$DIMLFAC
 40
1.0
  9
$DIMTOFL
 70
     0
  9
$DIMTVP
 40
0.0
  9
$DIMTIX
 70
     0
  9
$DIMSOXD
 70
     0
  9
$DIMSAH
 70
     0
  9
$DIMBLK1
  1

  9
$DIMBLK2
  1

  9
$DIMSTYLE
  2
STANDARD
  9
$DIMCLRD
 70
     0
  9
$DIMCLRE
 70
     0
  9
$DIMCLRT
 70
     0
  9
$DIMTFAC
 40
1.0
  9
$DIMGAP
 40
0.09
  9
$LUNITS
 70
     2
  9
$LUPREC
 70
     4
  9
$SKETCHINC
 40
0.1
  9
$FILLETRAD
 40
0.0
  9
$AUNITS
 70
     0
  9
$AUPREC
 70
     0
  9
$MENU
  1
.
  9
$ELEVATION
 40
0.0
  9
$PELEVATION
 40
0.0
  9
$THICKNESS
 40
0.0
  9
$LIMCHECK
 70
     0
  9
$BLIPMODE
 70
     0
  9
$CHAMFERA
 40
0.0
  9
$CHAMFERB
 40
0.0
  9
$SKPOLY
 70
     0
  9
$TDCREATE
 40
2458060.468368056230247
  9
$TDUPDATE
 40
2458983.7673611110076308
  9
$TDINDWG
 40
0.3155163194
  9
$TDUSRTIMER
 40
0.3155163194
  9
$USRTIMER
 70
     1
  9
$ANGBASE
 50
0.0
  9
$ANGDIR
 70
     0
  9
$PDMODE
 70
     0
  9
$PDSIZE
 40
0.3125
  9
$PLINEWID
 40
0.0
  9
$COORDS
 70
     1
  9
$SPLFRAME
 70
     0
  9
$SPLINETYPE
 70
     6
  9
$SPLINESEGS
 70
     8
  9
$ATTDIA
 70
     1
  9
$ATTREQ
 70
     1
  9
$HANDLING
 70
     1
  9
$HANDSEED
  5
7301
  9
$SURFTAB1
 70
     6
  9
$SURFTAB2
 70
     6
  9
$SURFTYPE
 70
     6
  9
$SURFU
 70
     6
  9
$SURFV
 70
     6
  9
$UCSNAME
  2

  9
$UCSORG
 10
0.0
 20
0.0
 30
0.0
  9
$UCSXDIR
 10
1.0
 20
0.0
 30
0.0
  9
$UCSYDIR
 10
0.0
 20
1.0
 30
0.0
  9
$PUCSNAME
  2

  9
$PUCSORG
 10
0.0
 20
0.0
 30
0.0
  9
$PUCSXDIR
 10
1.0
 20
0.0
 30
0.0
  9
$PUCSYDIR
 10
0.0
 20
1.0
 30
0.0
  9
$USERI1
 70
     0
  9
$USERI2
 70
     0
  9
$USERI3
 70
     0
  9
$USERI4
 70
     0
  9
$USERI5
 70
     0
  9
$USERR1
 40
0.0
  9
$USERR2
 40
0.0
  9
$USERR3
 40
0.0
  9
$USERR4
 40
0.0
  9
$USERR5
 40
0.0
  9
$WORLDVIEW
 70
     1
  9
$SHADEDGE
 70
     3
  9
$SHADEDIF
 70
    70
  9
$TILEMODE
 70
     1
  9
$MAXACTVP
 70
    64
  9
$PLIMCHECK
 70
     0
  9
$PEXTMIN
 10
1.0000000000000000E+20
 20
1.0000000000000000E+20
 30
1.0000000000000000E+20
  9
$PEXTMAX
 10
-1.0000000000000000E+20
 20
-1.0000000000000000E+20
 30
-1.0000000000000000E+20
  9
$PLIMMIN
 10
0.0
 20
0.0
  9
$PLIMMAX
 10
12.0
 20
9.0
  9
$UNITMODE
 70
     0
  9
$VISRETAIN
 70
     1
  9
$PLINEGEN
 70
     0
  9
$PSLTSCALE
 70
     1
  0
ENDSEC
  0
SECTION
  2
TABLES
  0
TABLE
  2
VPORT
 70
     1
  0
VPORT
  2
*ACTIVE
 70
     0
 10
0.0
 20
0.0
 11
1.0
 21
1.0
 12
17.9645841216056787
 22
2.6842431492019831
 13
0.0
 23
0.0
 14
1.0
 24
1.0
 15
0.0
 25
0.0
 16
0.0
 26
0.0
 36
30.1241266108570898
 17
2863.1249790072511132
 27
147.6709518432616903
 37
0.0
 40
8.8289873948090936
 41
2.5459662288930578
 42
50.0
 43
0.0
 44
0.0
 50
0.0
 51
0.0
 71
     0
 72
   100
 73
     1
 74
     1
 75
     0
 76
     0
 77
     0
 78
     0
  0
ENDTAB
  0
TABLE
  2
LTYPE
 70
     2
  0
LTYPE
  2
CONTINUOUS
 70
     0
  3
Solid line
 72
    65
 73
     0
 40
0.0
  0
LTYPE
  2
PHANTOM2
 70
     0
  3
___ _ _ ___ _ _ ___ _ _ ___ _ _
 72
    65
 73
     6
 40
1.25
 49
0.625
 49
-0.125
 49
0.125
 49
-0.125
 49
0.125
 49
-0.125
  0
ENDTAB
  0
TABLE
  2
LAYER
 70
     2
  0
LAYER
  2
0
 70
     0
 62
   255
  6
CONTINUOUS
  0
LAYER
  2
DEFPOINTS
 70
     0
 62
     7
  6
CONTINUOUS
  0
ENDTAB
  0
TABLE
  2
STYLE
 70
     1
  0
STYLE
  2
STANDARD
 70
     0
 40
0.0
 41
0.8
 50
0.0
 71
     0
 42
0.2
  3
txt
  4

  0
ENDTAB
  0
TABLE
  2
VIEW
 70
     0
  0
ENDTAB
  0
TABLE
  2
UCS
 70
     0
  0
ENDTAB
  0
TABLE
  2
APPID
 70
     9
  0
APPID
  2
ACAD
 70
     0
  0
APPID
  2
ACAD_MLEADERVER
 70
     0
  0
APPID
  2
ACAD_EXEMPT_FROM_CAD_STANDARDS
 70
     0
  0
APPID
  2
ACAD_NAV_VCDISPLAY
 70
     0
  0
APPID
  2
ACAECLAYERSTANDARD
 70
     0
  0
APPID
  2
ACCMTRANSPARENCY
 70
     0
  0
APPID
  2
ACAD_DSTYLE_DIMJAG
 70
     0
  0
APPID
  2
ACAD_DSTYLE_DIMTALN
 70
     0
  0
APPID
  2
ACDBATTR
 70
     0
  0
ENDTAB
  0
TABLE
  2
DIMSTYLE
 70
     1
  0
DIMSTYLE
  2
STANDARD
 70
     0
  3

  4

  5

  6

  7

 40
1.0
 41
0.1875
 42
0.0625
 43
0.38
 44
0.125
 45
0.0
 46
0.0
 47
0.01
 48
0.01
140
0.15625
141
0.09
142
0.0
143
25.3999999999999986
144
1.0
145
0.0
146
1.0
147
0.09
 71
     1
 72
     0
 73
     1
 74
     1
 75
     0
 76
     0
 77
     0
 78
     4
170
     0
171
     2
172
     0
173
     0
174
     0
175
     0
176
     0
177
     0
178
     0
  0
ENDTAB
  0
ENDSEC
  0
SECTION
  2
BLOCKS
  0
BLOCK
  8
0
  2
$MODEL_SPACE
 70
     0
 10
0.0
 20
0.0
 30
0.0
  3
$MODEL_SPACE
  1

  0
ENDBLK
  5
21
  8
0
  0
BLOCK
 67
     1
  8
0
  2
$PAPER_SPACE
 70
     0
 10
0.0
 20
0.0
 30
0.0
  3
$PAPER_SPACE
  1

  0
ENDBLK
  5
1D
 67
     1
  8
0
  0
ENDSEC
  0
SECTION
  2
ENTITIES
  0
ATTDEF
  5
6F69
  8
DEFPOINTS
 10
2881.5016329752661477
 20
150.1174702192411985
 30
0.0
 40
0.001
  1
K-492T
  3

  2
MODELNUMBER
 70
     0
1001
ACDBATTR
1070
     0
1070
     1
  0
ATTDEF
  5
6F6A
  8
DEFPOINTS
 10
2881.5016329752661477
 20
150.1158035525745902
 30
0.0
 40
0.001
  1
MEMOIRS
  3

  2
TRADENAME
 70
     0
1001
ACDBATTR
1070
     0
1070
     1
  0
ATTDEF
  5
6F6B
  8
DEFPOINTS
 10
2881.5016329752661477
 20
150.1141368859078966
 30
0.0
 40
0.001
  1
ROBE HOOK
  3

  2
PRODUCT
 70
     0
1001
ACDBATTR
1070
     0
1070
     1
  0
ARC
  5
7139
  8
0
 10
2881.5014869314918542
 20
149.5749134305100938
 30
0.0
 40
1.7500010060085729
 50
90.0000143150649308
 51
136.9759821645249076
  0
ARC
  5
713A
  8
0
 10
2881.5014864942631903
 20
149.5749144365186112
 30
0.0
 40
1.6000000000000001
 50
90.0
 51
136.9207893271918124
  0
ARC
  5
713B
  8
0
 10
2881.5014864943091197
 20
149.5749144364004906
 30
0.0
 40
1.677284983218154
 50
90.0000000015633077
 51
132.5014754818047038
  0
ARC
  5
713C
  8
0
 10
2879.9202653303550505
 20
151.2605800378088077
 30
0.0
 40
0.6343477471611495
 50
301.8895631148558891
 51
314.9336691515106281
  0
ARC
  5
713D
  8
0
 10
2880.227668243700009
 20
150.7665160215063054
 30
0.0
 40
0.0524578921736112
 50
284.4033736433266881
 51
301.8895631148558891
  0
ARC
  5
713E
  8
0
 10
2880.2384538914730001
 20
150.7222611975616076
 30
0.0
 40
0.0069339475606463
 50
240.1462692870684918
 51
289.0491104263551279
  0
ARC
  5
713F
  8
0
 10
2880.2440509399148141
 20
150.7484789823203073
 30
0.0
 40
0.0300006056532723
 50
136.9783098410586888
 51
227.9734404692042062
  0
LINE
  5
7140
  8
0
 10
2880.2239662838392178
 20
150.7261934953407945
 30
0.0
 11
2880.2908324212639855
 21
150.6659308062434945
 31
0.0
  0
ARC
  5
7141
  8
0
 10
2880.3109159449459185
 20
150.6882150367455893
 30
0.0
 40
0.0299989141901017
 50
227.9734404692042062
 51
316.9286178304711257
  0
LINE
  5
7142
  8
0
 10
2880.8361644453912049
 20
151.0300249379187107
 30
0.0
 11
2881.1829594513342272
 21
151.0300249379187107
 31
0.0
  0
LINE
  5
7143
  8
0
 10
2880.7071319546830637
 20
150.9637991925185929
 30
0.0
 11
2881.2420811807419341
 21
150.9637991925185929
 31
0.0
  0
LINE
  5
7144
  8
0
 10
2880.5914862593631369
 20
149.1937991925186111
 30
0.0
 11
2882.4114867291627888
 21
149.1937991925186111
 31
0.0
  0
LINE
  5
7145
  8
0
 10
2880.6564864942629356
 20
149.2737991925187089
 30
0.0
 11
2882.3464864942629902
 21
149.2737991925187089
 31
0.0
  0
LINE
  5
7146
  8
0
 10
2880.5764864942630084
 20
149.2087991925187112
 30
0.0
 11
2880.5764864942630084
 21
150.8804315754333061
 31
0.0
  0
ARC
  5
7147
  8
0
 10
2880.5914864942660643
 20
149.2087991925199901
 30
0.0
 40
0.0150000000031385
 50
180.0000000049651021
 51
269.9991027361122065
  0
LINE
  5
7148
  8
0
 10
2880.6564864942629356
 20
149.2737991925187089
 30
0.0
 11
2880.6564864942629356
 21
150.9335810622955876
 31
0.0
  0
LINE
  5
7149
  8
0
 10
2880.8671541101048206
 20
151.0437991925186907
 30
0.0
 11
2881.1636671490368826
 21
151.0437991925186907
 31
0.0
  0
LINE
  5
714A
  8
0
 10
2880.6564864942629356
 20
149.2737991925187089
 30
0.0
 11
2881.1296763540240136
 21
149.7469890521643947
 31
0.0
  0
LINE
  5
714B
  8
0
 10
2881.3373958085180675
 20
149.7540057621339997
 30
0.0
 11
2881.1296763540240136
 21
149.7469890521643947
 31
0.0
  0
LINE
  5
714C
  8
0
 10
2881.1296763540240136
 20
149.7469890521643947
 30
0.0
 11
2881.1366915669700575
 21
149.9547118346222874
 31
0.0
  0
LINE
  5
714D
  8
0
 10
2880.6752377829789111
 20
150.9450651826415992
 30
0.0
 11
2881.1296763543828092
 21
150.4906093324015046
 31
0.0
  0
LINE
  5
714E
  8
0
 10
2881.1296763543828092
 20
150.4906093324015046
 30
0.0
 11
2881.2814864942629356
 21
150.4856799446644118
 31
0.0
  0
LINE
  5
714F
  8
0
 10
2881.1296763543828092
 20
150.4906093324015046
 30
0.0
 11
2881.136693063968778
 21
150.2828898784649141
 31
0.0
  0
CIRCLE
  5
7150
  8
0
 10
2881.5014864942631903
 20
150.1187991925187077
 30
0.0
 40
0.4000000000000004
  0
LINE
  5
7151
  8
0
 10
2881.2814864942629356
 20
150.4527725548186936
 30
0.0
 11
2881.2814864942629356
 21
150.8349144365186874
 31
0.0
  0
ARC
  5
7152
  8
0
 10
2881.0214134091379492
 20
150.8258657952179078
 30
0.0
 40
0.2602304507848749
 50
1.9926702869312689
 51
108.9636116982581058
  0
LINE
  5
7154
  8
0
 10
2880.5902607232628725
 20
150.8900827125447108
 30
0.0
 11
2880.5902607232628725
 21
149.2214745219185943
 31
0.0
  0
LINE
  5
7155
  8
0
 10
2880.6041618236617978
 20
149.2075738131185858
 30
0.0
 11
2882.3988110207669706
 21
149.2075738131185858
 31
0.0
  0
ARC
  5
7156
  8
0
 10
2880.6068171120177794
 20
149.2241298181625098
 30
0.0
 40
0.0167675607662422
 50
189.1125689763213131
 51
260.8883605376478272
  0
ARC
  5
7157
  8
0
 10
2881.5014860570340716
 20
149.5749134305100938
 30
0.0
 40
1.7500010060085729
 50
43.0240178354750284
 51
89.9999856849350692
  0
ARC
  5
7158
  8
0
 10
2881.5014864942631903
 20
149.5749144365186112
 30
0.0
 40
1.6000000000000001
 50
43.0792106728082018
 51
90.0
  0
ARC
  5
7159
  8
0
 10
2881.501486494216806
 20
149.5749144364004906
 30
0.0
 40
1.677284983218154
 50
47.4985245181953033
 51
89.9999999984366923
  0
ARC
  5
715A
  8
0
 10
2883.0827076581708752
 20
151.2605800378088077
 30
0.0
 40
0.6343477471611495
 50
225.0663308484894003
 51
238.1104368851441109
  0
ARC
  5
715B
  8
0
 10
2882.7753047448268262
 20
150.7665160215063054
 30
0.0
 40
0.0524578921736112
 50
238.1104368851441109
 51
255.5966263566733119
  0
ARC
  5
715C
  8
0
 10
2882.7645190970529256
 20
150.7222611975616076
 30
0.0
 40
0.0069339475606463
 50
250.9508895736449006
 51
299.8537307129315082
  0
ARC
  5
715D
  8
0
 10
2882.7589220486111117
 20
150.7484789823203073
 30
0.0
 40
0.0300006056532723
 50
312.0265595307948274
 51
43.0216901589413112
  0
LINE
  5
715E
  8
0
 10
2882.7790067046857985
 20
150.7261934953407945
 30
0.0
 11
2882.7121405672619403
 21
150.6659308062434945
 31
0.0
  0
ARC
  5
715F
  8
0
 10
2882.6920570435790978
 20
150.6882150367455893
 30
0.0
 40
0.0299989141901017
 50
223.0713821695289028
 51
312.0265595307959074
  0
LINE
  5
7160
  8
0
 10
2882.1668085431351756
 20
151.0300249379187107
 30
0.0
 11
2881.8200135371921533
 21
151.0300249379187107
 31
0.0
  0
LINE
  5
7161
  8
0
 10
2882.2958410338419526
 20
150.9637991925185929
 30
0.0
 11
2881.7608918077830822
 21
150.9637991925185929
 31
0.0
  0
LINE
  5
7162
  8
0
 10
2882.4264864942629174
 20
149.2087991925187112
 30
0.0
 11
2882.4264864942629174
 21
150.8804315754333061
 31
0.0
  0
ARC
  5
7163
  8
0
 10
2882.411486494258952
 20
149.2087991925199901
 30
0.0
 40
0.0150000000031385
 50
270.0008972638879072
 51
359.9999999950348979
  0
LINE
  5
7164
  8
0
 10
2882.3464864942629902
 20
149.2737991925187089
 30
0.0
 11
2882.3464864942629902
 21
150.9335810622955876
 31
0.0
  0
LINE
  5
7165
  8
0
 10
2882.1358188784201957
 20
151.0437991925186907
 30
0.0
 11
2881.8393058394890431
 21
151.0437991925186907
 31
0.0
  0
LINE
  5
7166
  8
0
 10
2882.3464864942629902
 20
149.2737991925187089
 30
0.0
 11
2881.8732966345019122
 21
149.7469890521643947
 31
0.0
  0
LINE
  5
7167
  8
0
 10
2881.6655771800078583
 20
149.7540057621339997
 30
0.0
 11
2881.8732966345019122
 21
149.7469890521643947
 31
0.0
  0
LINE
  5
7168
  8
0
 10
2881.8732966345019122
 20
149.7469890521643947
 30
0.0
 11
2881.8662814215549588
 21
149.9547118346222874
 31
0.0
  0
LINE
  5
7169
  8
0
 10
2882.3277352055470146
 20
150.9450651826415992
 30
0.0
 11
2881.8732966341431165
 21
150.4906093324015046
 31
0.0
  0
LINE
  5
716A
  8
0
 10
2881.8732966341431165
 20
150.4906093324015046
 30
0.0
 11
2881.7214864942629902
 21
150.4856799446644118
 31
0.0
  0
LINE
  5
716B
  8
0
 10
2881.8732966341431165
 20
150.4906093324015046
 30
0.0
 11
2881.8662799245571478
 21
150.2828898784649141
 31
0.0
  0
LINE
  5
716C
  8
0
 10
2881.7214864942629902
 20
150.4527725548186936
 30
0.0
 11
2881.7214864942629902
 21
150.8349144365186874
 31
0.0
  0
ARC
  5
716D
  8
0
 10
2881.9815595793879766
 20
150.8258657952179078
 30
0.0
 40
0.2602304507848749
 50
71.0363883017418658
 51
178.0073297130687138
  0
LINE
  5
716E
  8
0
 10
2882.4127122652630533
 20
150.8900827125447108
 30
0.0
 11
2882.4127122652630533
 21
149.2214745219185943
 31
0.0
  0
ARC
  5
716F
  8
0
 10
2882.3961558765081463
 20
149.2241298181625098
 30
0.0
 40
0.0167675607662422
 50
279.1111407855830748
 51
350.8874310236786869
  0
ENDSEC
  0
EOF
