  0
SECTION
  2
HEADER
  9
$ACADVER
  1
AC1009
  9
$INSBASE
 10
555.7854982490189286
 20
64.3542232751473051
 30
0.0
  9
$EXTMIN
 10
544.5623833943666341
 20
64.3559448902695408
 30
-0.0000000000000058
  9
$EXTMAX
 10
555.8143455106225019
 20
103.240878758824806
 30
0.0000000000000104
  9
$LIMMIN
 10
0.0
 20
0.0
  9
$LIMMAX
 10
11.6929133858000007
 20
8.2677165353999982
  9
$ORTHOMODE
 70
     0
  9
$REGENMODE
 70
     1
  9
$FILLMODE
 70
     1
  9
$QTEXTMODE
 70
     0
  9
$MIRRTEXT
 70
     0
  9
$DRAGMODE
 70
     2
  9
$LTSCALE
 40
0.6431102362
  9
$OSMODE
 70
  4095
  9
$ATTMODE
 70
     1
  9
$TEXTSIZE
 40
0.2
  9
$TRACEWID
 40
0.05
  9
$TEXTSTYLE
  7
STANDARD
  9
$CLAYER
  8
0
  9
$CELTYPE
  6
BYLAYER
  9
$CECOLOR
 62
   256
  9
$DIMSCALE
 40
1.0
  9
$DIMASZ
 40
0.1875
  9
$DIMEXO
 40
0.0625
  9
$DIMDLI
 40
0.4443307087
  9
$DIMRND
 40
0.0
  9
$DIMDLE
 40
0.0
  9
$DIMEXE
 40
0.125
  9
$DIMTP
 40
0.01
  9
$DIMTM
 40
0.01
  9
$DIMTXT
 40
1.0
  9
$DIMCEN
 40
0.1052362205
  9
$DIMTSZ
 40
0.0
  9
$DIMTOL
 70
     1
  9
$DIMLIM
 70
     0
  9
$DIMTIH
 70
     0
  9
$DIMTOH
 70
     1
  9
$DIMSE1
 70
     0
  9
$DIMSE2
 70
     0
  9
$DIMTAD
 70
     0
  9
$DIMZIN
 70
     0
  9
$DIMBLK
  1

  9
$DIMASO
 70
     1
  9
$DIMSHO
 70
     1
  9
$DIMPOST
  1
\X
  9
$DIMAPOST
  1

  9
$DIMALT
 70
     1
  9
$DIMALTD
 70
     2
  9
$DIMALTF
 40
25.3999999999999986
  9
$DIMLFAC
 40
1.0
  9
$DIMTOFL
 70
     0
  9
$DIMTVP
 40
0.0
  9
$DIMTIX
 70
     0
  9
$DIMSOXD
 70
     0
  9
$DIMSAH
 70
     0
  9
$DIMBLK1
  1

  9
$DIMBLK2
  1

  9
$DIMSTYLE
  2
STANDARD
  9
$DIMCLRD
 70
     0
  9
$DIMCLRE
 70
     0
  9
$DIMCLRT
 70
     0
  9
$DIMTFAC
 40
1.0
  9
$DIMGAP
 40
0.09
  9
$LUNITS
 70
     2
  9
$LUPREC
 70
     4
  9
$SKETCHINC
 40
0.1
  9
$FILLETRAD
 40
0.0
  9
$AUNITS
 70
     0
  9
$AUPREC
 70
     0
  9
$MENU
  1
.
  9
$ELEVATION
 40
0.0
  9
$PELEVATION
 40
0.0
  9
$THICKNESS
 40
0.0
  9
$LIMCHECK
 70
     0
  9
$BLIPMODE
 70
     0
  9
$CHAMFERA
 40
0.0
  9
$CHAMFERB
 40
0.0
  9
$SKPOLY
 70
     0
  9
$TDCREATE
 40
2458171.8957638889551163
  9
$TDUPDATE
 40
2459046.132002315018326
  9
$TDINDWG
 40
0.3105446991
  9
$TDUSRTIMER
 40
0.3105446991
  9
$USRTIMER
 70
     1
  9
$ANGBASE
 50
0.0
  9
$ANGDIR
 70
     0
  9
$PDMODE
 70
     0
  9
$PDSIZE
 40
0.3125
  9
$PLINEWID
 40
0.0
  9
$COORDS
 70
     1
  9
$SPLFRAME
 70
     0
  9
$SPLINETYPE
 70
     6
  9
$SPLINESEGS
 70
     8
  9
$ATTDIA
 70
     1
  9
$ATTREQ
 70
     1
  9
$HANDLING
 70
     1
  9
$HANDSEED
  5
8724
  9
$SURFTAB1
 70
     6
  9
$SURFTAB2
 70
     6
  9
$SURFTYPE
 70
     6
  9
$SURFU
 70
     6
  9
$SURFV
 70
     6
  9
$UCSNAME
  2

  9
$UCSORG
 10
0.0
 20
0.0
 30
0.0
  9
$UCSXDIR
 10
1.0
 20
0.0
 30
0.0
  9
$UCSYDIR
 10
0.0
 20
1.0
 30
0.0
  9
$PUCSNAME
  2

  9
$PUCSORG
 10
0.0
 20
0.0
 30
0.0
  9
$PUCSXDIR
 10
1.0
 20
0.0
 30
0.0
  9
$PUCSYDIR
 10
0.0
 20
1.0
 30
0.0
  9
$USERI1
 70
     0
  9
$USERI2
 70
     0
  9
$USERI3
 70
     0
  9
$USERI4
 70
     0
  9
$USERI5
 70
     0
  9
$USERR1
 40
0.0
  9
$USERR2
 40
0.0
  9
$USERR3
 40
0.0
  9
$USERR4
 40
0.0
  9
$USERR5
 40
0.0
  9
$WORLDVIEW
 70
     1
  9
$SHADEDGE
 70
     3
  9
$SHADEDIF
 70
    70
  9
$TILEMODE
 70
     1
  9
$MAXACTVP
 70
    64
  9
$PLIMCHECK
 70
     0
  9
$PEXTMIN
 10
1.0000000000000000E+20
 20
1.0000000000000000E+20
 30
1.0000000000000000E+20
  9
$PEXTMAX
 10
-1.0000000000000000E+20
 20
-1.0000000000000000E+20
 30
-1.0000000000000000E+20
  9
$PLIMMIN
 10
0.0
 20
0.0
  9
$PLIMMAX
 10
12.0
 20
9.0
  9
$UNITMODE
 70
     0
  9
$VISRETAIN
 70
     1
  9
$PLINEGEN
 70
     0
  9
$PSLTSCALE
 70
     1
  0
ENDSEC
  0
SECTION
  2
TABLES
  0
TABLE
  2
VPORT
 70
     1
  0
VPORT
  2
*ACTIVE
 70
     0
 10
0.0
 20
0.0
 11
1.0
 21
1.0
 12
83.446162744664548
 22
-5.3347352953826137
 13
0.0
 23
0.0
 14
1.0
 24
1.0
 15
0.0
 25
0.0
 16
0.0
 26
0.0
 36
24.1179433675886514
 17
466.74220170783002
 27
89.133147119929788
 37
0.0
 40
39.362049621543683
 41
2.7561475409836058
 42
50.0
 43
0.0
 44
0.0
 50
0.0
 51
0.0
 71
     0
 72
   100
 73
     1
 74
     1
 75
     0
 76
     0
 77
     0
 78
     0
  0
ENDTAB
  0
TABLE
  2
LTYPE
 70
     2
  0
LTYPE
  2
CONTINUOUS
 70
     0
  3
Solid line
 72
    65
 73
     0
 40
0.0
  0
LTYPE
  2
PHANTOM2
 70
     0
  3
___ _ _ ___ _ _ ___ _ _ ___ _ _
 72
    65
 73
     6
 40
1.25
 49
0.625
 49
-0.125
 49
0.125
 49
-0.125
 49
0.125
 49
-0.125
  0
ENDTAB
  0
TABLE
  2
LAYER
 70
     2
  0
LAYER
  2
0
 70
     0
 62
   255
  6
CONTINUOUS
  0
LAYER
  2
DEFPOINTS
 70
     0
 62
     7
  6
CONTINUOUS
  0
ENDTAB
  0
TABLE
  2
STYLE
 70
     1
  0
STYLE
  2
STANDARD
 70
     0
 40
0.0
 41
0.8
 50
0.0
 71
     0
 42
0.2
  3
txt
  4

  0
ENDTAB
  0
TABLE
  2
VIEW
 70
     0
  0
ENDTAB
  0
TABLE
  2
UCS
 70
     0
  0
ENDTAB
  0
TABLE
  2
APPID
 70
    10
  0
APPID
  2
ACAD
 70
     0
  0
APPID
  2
ACAD_MLEADERVER
 70
     0
  0
APPID
  2
ACAD_EXEMPT_FROM_CAD_STANDARDS
 70
     0
  0
APPID
  2
ACAD_DSTYLE_DIMJAG
 70
     0
  0
APPID
  2
ACAD_DSTYLE_DIMTALN
 70
     0
  0
APPID
  2
ACAD_NAV_VCDISPLAY
 70
     0
  0
APPID
  2
ACAECLAYERSTANDARD
 70
     0
  0
APPID
  2
ACCMTRANSPARENCY
 70
     0
  0
APPID
  2
DCO15
 70
     0
  0
APPID
  2
ACDBATTR
 70
     0
  0
ENDTAB
  0
TABLE
  2
DIMSTYLE
 70
     1
  0
DIMSTYLE
  2
STANDARD
 70
     0
  3

  4

  5

  6

  7

 40
1.0
 41
0.1875
 42
0.0625
 43
0.38
 44
0.125
 45
0.0
 46
0.0
 47
0.01
 48
0.01
140
0.15625
141
0.09
142
0.0
143
25.3999999999999986
144
1.0
145
0.0
146
1.0
147
0.09
 71
     1
 72
     0
 73
     1
 74
     1
 75
     0
 76
     0
 77
     0
 78
     4
170
     0
171
     2
172
     0
173
     0
174
     0
175
     0
176
     0
177
     0
178
     0
  0
ENDTAB
  0
ENDSEC
  0
SECTION
  2
BLOCKS
  0
BLOCK
  8
0
  2
$MODEL_SPACE
 70
     0
 10
0.0
 20
0.0
 30
0.0
  3
$MODEL_SPACE
  1

  0
ENDBLK
  5
21
  8
0
  0
BLOCK
 67
     1
  8
0
  2
$PAPER_SPACE
 70
     0
 10
0.0
 20
0.0
 30
0.0
  3
$PAPER_SPACE
  1

  0
ENDBLK
  5
1D
 67
     1
  8
0
  0
ENDSEC
  0
SECTION
  2
ENTITIES
  0
ATTDEF
  5
829
  8
DEFPOINTS
 10
555.7793618949923484
 20
64.3602730947497577
 30
0.0
 40
0.001
  1
K-4978T-ER
  3

  2
MODELNUMBER
 70
     0
1001
ACDBATTR
1070
     0
1070
     1
  0
ATTDEF
  5
82A
  8
DEFPOINTS
 10
555.7793618949923484
 20
64.3586064280830925
 30
0.0
 40
0.001
  1
BARDON
  3

  2
TRADENAME
 70
     0
1001
ACDBATTR
1070
     0
1070
     1
  0
ATTDEF
  5
82B
  8
DEFPOINTS
 10
555.7793618949923484
 20
64.3569397614164131
 30
0.0
 40
0.001
  1
URINAL
  3

  2
PRODUCT
 70
     0
1001
ACDBATTR
1070
     0
1070
     1
  0
LINE
  5
861C
  8
0
  6
CONTINUOUS
 10
553.2638872188189225
 20
80.2029719414460942
 30
0.0
 11
550.9896459381187697
 21
80.2029719414460942
 31
0.0
  0
LINE
  5
861D
  8
0
  6
CONTINUOUS
 10
555.7854982490189286
 20
82.9588774532461031
 30
0.0
 11
554.97841163481894
 21
82.9588774532461031
 31
0.0
  0
LINE
  5
861F
  8
0
  6
CONTINUOUS
 10
548.1707650960537421
 20
85.9791440960152755
 30
0.0
 11
550.811238893466907
 21
80.3166297639573372
 31
0.0
  0
LINE
  5
8628
  8
0
  6
CONTINUOUS
 10
554.7421911624187487
 20
87.6978101405527752
 30
0.0
 11
554.7421911624187487
 21
83.1950979257461256
 31
0.0
  0
LINE
  5
8629
  8
0
  6
CONTINUOUS
 10
555.7854982490189286
 20
82.9588774532461031
 30
0.0
 11
555.7854982490189286
 21
103.2344680044461001
 31
0.0
  0
LINE
  5
862A
  8
0
  6
CONTINUOUS
 10
553.4564359591188349
 20
80.3588948369461065
 30
0.0
 11
554.1014624185188495
 21
83.3935057388461018
 31
0.0
  0
LINE
  5
862B
  8
0
  6
CONTINUOUS
 10
551.8884911900300949
 20
103.2344680044461001
 30
0.0
 11
555.7854982490189286
 21
103.2344680044461001
 31
0.0
  0
ARC
  5
8632
  8
0
  6
CONTINUOUS
 10
550.9896459381187697
 20
80.3998223351461263
 30
0.0
 40
0.1968503937
 50
204.9999999996875033
 51
270.0
  0
ARC
  5
8633
  8
0
  6
CONTINUOUS
 10
553.2638872188189225
 20
80.3998223351461263
 30
0.0
 40
0.1968503937
 50
270.0
 51
347.9999999978996925
  0
ARC
  5
8634
  8
0
  6
CONTINUOUS
 10
551.8878024489189329
 20
102.919485486146101
 30
0.0
 40
0.3149832713
 50
89.8747171869265316
 51
138.0610002683407913
  0
LINE
  5
863B
  8
0
  6
CONTINUOUS
 10
549.6948144419505979
 20
102.8370312224010945
 30
0.0
 11
555.7854983006188831
 21
102.8116268383461005
 31
0.0
  0
LINE
  5
863C
  8
0
 10
551.5785114075650881
 20
103.0489695880120991
 30
0.0
 11
549.8085059363546634
 21
102.8691104200350992
 31
0.0
  0
LINE
  5
863D
  8
0
 10
551.6535000013792569
 20
103.1300011014241989
 30
0.0
 11
551.5785114075650881
 21
103.0489695880120991
 31
0.0
  0
ARC
  5
863E
  8
0
 10
549.8372389019951925
 20
102.5497723452634062
 30
0.0
 40
0.3206281168478816
 50
95.1414366393238566
 51
174.9301230957694031
  0
LINE
  5
863F
  8
0
 10
548.3331989285987902
 20
89.4775214834207446
 30
0.0
 11
549.5178651901745752
 21
102.5781064503543973
 31
0.0
  0
LINE
  5
8640
  8
0
 10
544.8344954660187796
 20
88.149319133346097
 30
0.0
 11
545.561469432218928
 21
88.3354211201460942
 31
0.0
  0
LINE
  5
8641
  8
0
 10
545.561469432218928
 20
88.3354211201460942
 30
0.0
 11
548.4810253014950376
 21
89.0236784064016717
 31
0.0
  0
ARC
  5
8642
  8
0
 10
548.2825776486007499
 20
85.2726660594130266
 30
0.0
 40
0.1972363302212811
 50
25.2825035645928011
 51
70.4037858684012008
  0
ARC
  5
8643
  8
0
 10
551.7080975275773653
 20
94.8946553203176677
 30
0.0
 40
10.0163264065629996
 50
240.2420372247287048
 51
250.4037858684012008
  0
ARC
  5
8644
  8
0
 10
550.6955177776209212
 20
93.1235811983063257
 30
0.0
 40
7.9762231504312009
 50
220.1910037327145062
 51
240.2420429944247076
  0
ARC
  5
8645
  8
0
 10
544.9499021964999201
 20
87.8275612436396784
 30
0.0
 40
0.3418286895927007
 50
109.7316757134564966
 51
125.2032412664250955
  0
LINE
  5
8646
  8
0
 10
544.6025019269632139
 20
87.976223275147305
 30
0.0
 11
544.7528452919904112
 21
88.1068736662307828
 31
0.0
  0
ARC
  5
8647
  8
0
 10
548.8657215239180687
 20
89.4185492041235648
 30
0.0
 40
0.5357779803715204
 50
173.6807356206865052
 51
213.5288574775327106
  0
ARC
  5
8648
  8
0
 10
546.7862453286395521
 20
87.3091619491483755
 30
0.0
 40
2.351531315591175
 50
2.0864262998572989
 51
28.2140289987401083
  0
ARC
  5
8649
  8
0
 10
552.6978901800553103
 20
87.5245297516343044
 30
0.0
 40
3.5640352793867209
 50
182.0864262998568108
 51
209.0671414356141042
  0
ARC
  5
864A
  8
0
 10
552.9157435154304494
 20
86.0349428689936531
 30
0.0
 40
3.3417717152768418
 50
184.1518311269126116
 51
188.3081751712510936
  0
LINE
  5
864B
  8
0
 10
548.8583858484147413
 20
88.4208872724687183
 30
0.0
 11
548.4190928585402389
 21
89.1226085352154769
 31
0.0
  0
ARC
  5
864C
  8
0
 10
548.2880554052503612
 20
85.5526142243071206
 30
0.0
 40
0.442362688402621
 50
72.4782805954925635
 51
105.3755761747507051
  0
ARC
  5
864D
  8
0
 10
547.9648082749870355
 20
83.6243220341092979
 30
0.0
 40
2.3940426252039368
 50
67.869717880532761
 51
79.0091863178969476
  0
ARC
  5
864E
  8
0
 10
555.8701270238912002
 20
102.6789975682224991
 30
0.0
 40
18.2354865936323307
 50
247.4148465684052098
 51
249.9191293311965012
  0
LINE
  5
864F
  8
0
 10
549.6090430870189039
 20
85.5520655825461063
 30
0.0
 11
554.5050118394599394
 21
85.5629091934660977
 31
0.0
  0
ARC
  5
8650
  8
0
 10
554.2940111588192167
 20
83.352578240645073
 30
0.0
 40
0.1968503937010387
 50
90.0000000001042082
 51
167.999999997467711
  0
ARC
  5
8651
  8
0
 10
554.5048389217291742
 20
83.3104758318332443
 30
0.0
 40
0.2389554827326381
 50
6.6408213426565821
 51
89.7286281848131466
  0
LINE
  5
8652
  8
0
 10
554.5059706899188541
 20
83.5494286343460999
 30
0.0
 11
554.2940111588188756
 21
83.5494286343460999
 31
0.0
  0
ARC
  5
8653
  8
0
 10
554.97841163481894
 20
83.1950979256461096
 30
0.0
 40
0.2362204724000012
 50
179.9999999757451121
 51
270.0000000011007728
  0
ARC
  5
8654
  8
0
 10
568.1293470591672303
 20
87.6048205164326532
 30
0.0
 40
13.3874788542891299
 50
169.9268587730304887
 51
179.6020194763889037
  0
ARC
  5
8655
  8
0
 10
548.5701085674869546
 20
89.3188968383666122
 30
0.0
 40
0.2439328799365486
 50
229.7882294096646092
 51
294.1751953329347202
  0
ARC
  5
8656
  8
0
 10
540.0191703955771345
 20
100.9343971597564007
 30
0.0
 40
14.6620646233557892
 50
306.1580604873777816
 51
313.8386506760132875
  0
ARC
  5
8657
  8
0
 10
552.1260504186792559
 20
59.9955054688278224
 30
0.0
 40
30.4258930966498689
 50
85.0119626372437551
 51
93.6774358176612765
  0
ARC
  5
8658
  8
0
 10
555.8498430932367
 20
88.1248619383093938
 30
0.0
 40
2.433291617597479
 50
91.5152798682688058
 51
116.3054732190753953
  0
ARC
  5
8659
  8
0
 10
555.9709416611975712
 20
90.6719601177875347
 30
0.0
 40
1.2539654858535421
 50
196.9600718781017861
 51
215.355245743714903
  0
ARC
  5
865A
  8
0
 10
554.4377744739050513
 20
85.0286281599853453
 30
0.0
 40
0.5384952052377646
 50
55.576183607158292
 51
82.8272373604981169
  0
LINE
  5
865B
  8
0
 10
550.344335201028457
 20
90.8512261436961381
 30
0.0
 11
550.2242735148745396
 21
102.8348228362917069
 31
0.0
  0
LINE
  5
865C
  8
0
 10
550.1745547859070484
 20
90.3587502810022443
 30
0.0
 11
550.344335201028457
 21
90.8512261436961666
 31
0.0
  0
ENDSEC
  0
EOF
