  0
SECTION
  2
HEADER
  9
$ACADVER
  1
AC1009
  9
$INSBASE
 10
513.2144921690926367
 20
68.5921768787402755
 30
0.0
  9
$EXTMIN
 10
505.7100344207573812
 20
68.5871220544134843
 30
-0.0000000000112498
  9
$EXTMAX
 10
520.7268758640269652
 20
108.5864725498437053
 30
0.0000000000002956
  9
$LIMMIN
 10
0.0
 20
0.0
  9
$LIMMAX
 10
11.6929133858000007
 20
8.2677165353999982
  9
$ORTHOMODE
 70
     0
  9
$REGENMODE
 70
     1
  9
$FILLMODE
 70
     1
  9
$QTEXTMODE
 70
     0
  9
$MIRRTEXT
 70
     0
  9
$DRAGMODE
 70
     2
  9
$LTSCALE
 40
0.6431102362
  9
$OSMODE
 70
  4095
  9
$ATTMODE
 70
     1
  9
$TEXTSIZE
 40
0.2
  9
$TRACEWID
 40
0.05
  9
$TEXTSTYLE
  7
STANDARD
  9
$CLAYER
  8
0
  9
$CELTYPE
  6
BYLAYER
  9
$CECOLOR
 62
   256
  9
$DIMSCALE
 40
1.0
  9
$DIMASZ
 40
0.1875
  9
$DIMEXO
 40
0.0625
  9
$DIMDLI
 40
0.4443307087
  9
$DIMRND
 40
0.0
  9
$DIMDLE
 40
0.0
  9
$DIMEXE
 40
0.125
  9
$DIMTP
 40
0.01
  9
$DIMTM
 40
0.01
  9
$DIMTXT
 40
1.0
  9
$DIMCEN
 40
0.1052362205
  9
$DIMTSZ
 40
0.0
  9
$DIMTOL
 70
     1
  9
$DIMLIM
 70
     0
  9
$DIMTIH
 70
     0
  9
$DIMTOH
 70
     1
  9
$DIMSE1
 70
     0
  9
$DIMSE2
 70
     0
  9
$DIMTAD
 70
     0
  9
$DIMZIN
 70
     0
  9
$DIMBLK
  1

  9
$DIMASO
 70
     1
  9
$DIMSHO
 70
     1
  9
$DIMPOST
  1
\X
  9
$DIMAPOST
  1

  9
$DIMALT
 70
     1
  9
$DIMALTD
 70
     2
  9
$DIMALTF
 40
25.3999999999999986
  9
$DIMLFAC
 40
1.0
  9
$DIMTOFL
 70
     0
  9
$DIMTVP
 40
0.0
  9
$DIMTIX
 70
     0
  9
$DIMSOXD
 70
     0
  9
$DIMSAH
 70
     0
  9
$DIMBLK1
  1

  9
$DIMBLK2
  1

  9
$DIMSTYLE
  2
STANDARD
  9
$DIMCLRD
 70
     0
  9
$DIMCLRE
 70
     0
  9
$DIMCLRT
 70
     0
  9
$DIMTFAC
 40
1.0
  9
$DIMGAP
 40
0.09
  9
$LUNITS
 70
     2
  9
$LUPREC
 70
     4
  9
$SKETCHINC
 40
0.1
  9
$FILLETRAD
 40
0.0
  9
$AUNITS
 70
     0
  9
$AUPREC
 70
     0
  9
$MENU
  1
.
  9
$ELEVATION
 40
0.0
  9
$PELEVATION
 40
0.0
  9
$THICKNESS
 40
0.0
  9
$LIMCHECK
 70
     0
  9
$BLIPMODE
 70
     0
  9
$CHAMFERA
 40
0.0
  9
$CHAMFERB
 40
0.0
  9
$SKPOLY
 70
     0
  9
$TDCREATE
 40
2458171.8957638889551163
  9
$TDUPDATE
 40
2459046.19613425899297
  9
$TDINDWG
 40
0.3071766435
  9
$TDUSRTIMER
 40
0.3071766435
  9
$USRTIMER
 70
     1
  9
$ANGBASE
 50
0.0
  9
$ANGDIR
 70
     0
  9
$PDMODE
 70
     0
  9
$PDSIZE
 40
0.3125
  9
$PLINEWID
 40
0.0
  9
$COORDS
 70
     1
  9
$SPLFRAME
 70
     0
  9
$SPLINETYPE
 70
     6
  9
$SPLINESEGS
 70
     8
  9
$ATTDIA
 70
     1
  9
$ATTREQ
 70
     1
  9
$HANDLING
 70
     1
  9
$HANDSEED
  5
861B
  9
$SURFTAB1
 70
     6
  9
$SURFTAB2
 70
     6
  9
$SURFTYPE
 70
     6
  9
$SURFU
 70
     6
  9
$SURFV
 70
     6
  9
$UCSNAME
  2

  9
$UCSORG
 10
0.0
 20
0.0
 30
0.0
  9
$UCSXDIR
 10
1.0
 20
0.0
 30
0.0
  9
$UCSYDIR
 10
0.0
 20
1.0
 30
0.0
  9
$PUCSNAME
  2

  9
$PUCSORG
 10
0.0
 20
0.0
 30
0.0
  9
$PUCSXDIR
 10
1.0
 20
0.0
 30
0.0
  9
$PUCSYDIR
 10
0.0
 20
1.0
 30
0.0
  9
$USERI1
 70
     0
  9
$USERI2
 70
     0
  9
$USERI3
 70
     0
  9
$USERI4
 70
     0
  9
$USERI5
 70
     0
  9
$USERR1
 40
0.0
  9
$USERR2
 40
0.0
  9
$USERR3
 40
0.0
  9
$USERR4
 40
0.0
  9
$USERR5
 40
0.0
  9
$WORLDVIEW
 70
     1
  9
$SHADEDGE
 70
     3
  9
$SHADEDIF
 70
    70
  9
$TILEMODE
 70
     1
  9
$MAXACTVP
 70
    64
  9
$PLIMCHECK
 70
     0
  9
$PEXTMIN
 10
1.0000000000000000E+20
 20
1.0000000000000000E+20
 30
1.0000000000000000E+20
  9
$PEXTMAX
 10
-1.0000000000000000E+20
 20
-1.0000000000000000E+20
 30
-1.0000000000000000E+20
  9
$PLIMMIN
 10
0.0
 20
0.0
  9
$PLIMMAX
 10
12.0
 20
9.0
  9
$UNITMODE
 70
     0
  9
$VISRETAIN
 70
     1
  9
$PLINEGEN
 70
     0
  9
$PSLTSCALE
 70
     1
  0
ENDSEC
  0
SECTION
  2
TABLES
  0
TABLE
  2
VPORT
 70
     1
  0
VPORT
  2
*ACTIVE
 70
     0
 10
0.0
 20
0.0
 11
1.0
 21
1.0
 12
46.4762534345621816
 22
-0.5463498178012003
 13
0.0
 23
0.0
 14
1.0
 24
1.0
 15
0.0
 25
0.0
 16
0.0
 26
0.0
 36
24.1179433675886514
 17
466.74220170783002
 27
89.133147119929788
 37
0.0
 40
40.490140072061223
 41
2.7561475409836058
 42
50.0
 43
0.0
 44
0.0
 50
0.0
 51
0.0
 71
     0
 72
   100
 73
     1
 74
     1
 75
     0
 76
     0
 77
     0
 78
     0
  0
ENDTAB
  0
TABLE
  2
LTYPE
 70
     2
  0
LTYPE
  2
CONTINUOUS
 70
     0
  3
Solid line
 72
    65
 73
     0
 40
0.0
  0
LTYPE
  2
PHANTOM2
 70
     0
  3
___ _ _ ___ _ _ ___ _ _ ___ _ _
 72
    65
 73
     6
 40
1.25
 49
0.625
 49
-0.125
 49
0.125
 49
-0.125
 49
0.125
 49
-0.125
  0
ENDTAB
  0
TABLE
  2
LAYER
 70
     2
  0
LAYER
  2
0
 70
     0
 62
   255
  6
CONTINUOUS
  0
LAYER
  2
DEFPOINTS
 70
     0
 62
     7
  6
CONTINUOUS
  0
ENDTAB
  0
TABLE
  2
STYLE
 70
     1
  0
STYLE
  2
STANDARD
 70
     0
 40
0.0
 41
0.8
 50
0.0
 71
     0
 42
0.2
  3
txt
  4

  0
ENDTAB
  0
TABLE
  2
VIEW
 70
     0
  0
ENDTAB
  0
TABLE
  2
UCS
 70
     0
  0
ENDTAB
  0
TABLE
  2
APPID
 70
    10
  0
APPID
  2
ACAD
 70
     0
  0
APPID
  2
ACAD_MLEADERVER
 70
     0
  0
APPID
  2
ACAD_EXEMPT_FROM_CAD_STANDARDS
 70
     0
  0
APPID
  2
ACAD_DSTYLE_DIMJAG
 70
     0
  0
APPID
  2
ACAD_DSTYLE_DIMTALN
 70
     0
  0
APPID
  2
ACAD_NAV_VCDISPLAY
 70
     0
  0
APPID
  2
ACAECLAYERSTANDARD
 70
     0
  0
APPID
  2
ACCMTRANSPARENCY
 70
     0
  0
APPID
  2
DCO15
 70
     0
  0
APPID
  2
ACDBATTR
 70
     0
  0
ENDTAB
  0
TABLE
  2
DIMSTYLE
 70
     1
  0
DIMSTYLE
  2
STANDARD
 70
     0
  3

  4

  5

  6

  7

 40
1.0
 41
0.1875
 42
0.0625
 43
0.38
 44
0.125
 45
0.0
 46
0.0
 47
0.01
 48
0.01
140
0.15625
141
0.09
142
0.0
143
25.3999999999999986
144
1.0
145
0.0
146
1.0
147
0.09
 71
     1
 72
     0
 73
     1
 74
     1
 75
     0
 76
     0
 77
     0
 78
     4
170
     0
171
     2
172
     0
173
     0
174
     0
175
     0
176
     0
177
     0
178
     0
  0
ENDTAB
  0
ENDSEC
  0
SECTION
  2
BLOCKS
  0
BLOCK
  8
0
  2
$MODEL_SPACE
 70
     0
 10
0.0
 20
0.0
 30
0.0
  3
$MODEL_SPACE
  1

  0
ENDBLK
  5
21
  8
0
  0
BLOCK
 67
     1
  8
0
  2
$PAPER_SPACE
 70
     0
 10
0.0
 20
0.0
 30
0.0
  3
$PAPER_SPACE
  1

  0
ENDBLK
  5
1D
 67
     1
  8
0
  0
ENDSEC
  0
SECTION
  2
ENTITIES
  0
ATTDEF
  5
829
  8
DEFPOINTS
 10
513.2124308449592718
 20
68.5970572814541129
 30
0.0
 40
0.001
  1
K-4978T-ET
  3

  2
MODELNUMBER
 70
     0
1001
ACDBATTR
1070
     0
1070
     1
  0
ATTDEF
  5
82A
  8
DEFPOINTS
 10
513.2124308449592718
 20
68.5953906147874477
 30
0.0
 40
0.001
  1
BARDON
  3

  2
TRADENAME
 70
     0
1001
ACDBATTR
1070
     0
1070
     1
  0
ATTDEF
  5
82B
  8
DEFPOINTS
 10
513.2124308449592718
 20
68.5937239481207826
 30
0.0
 40
0.001
  1
URINAL
  3

  2
PRODUCT
 70
     0
1001
ACDBATTR
1070
     0
1070
     1
  0
LINE
  5
84C2
  8
0
  6
CONTINUOUS
 10
514.2513986481925485
 20
84.4409255450390788
 30
0.0
 11
512.1775856899926112
 21
84.4409255450390788
 31
0.0
  0
LINE
  5
84C3
  8
0
  6
CONTINUOUS
 10
512.7524921690926476
 20
108.5855239702390946
 30
0.0
 11
512.6999921690926385
 21
108.5330239702390003
 31
0.0
  0
LINE
  5
84C4
  8
0
  6
CONTINUOUS
 10
511.8013080417077845
 20
87.1968310568390734
 30
0.0
 11
510.7211565160926057
 21
87.1968310568390734
 31
0.0
  0
LINE
  5
84C5
  8
0
  6
CONTINUOUS
 10
505.8825656009926206
 20
106.7407237863390037
 30
0.0
 11
505.7341772057766889
 21
94.7952562579924489
 31
0.0
  0
LINE
  5
84C6
  8
0
  6
CONTINUOUS
 10
505.7341772057766889
 20
94.7952562579924489
 30
0.0
 11
510.3199379272180067
 21
87.41982443137708
 31
0.0
  0
LINE
  5
84C7
  8
0
  6
CONTINUOUS
 10
511.630757946565609
 20
89.6358110478442427
 30
0.0
 11
511.9812148139442911
 21
84.6240443494203021
 31
0.0
  0
LINE
  5
84C8
  8
0
  6
CONTINUOUS
 10
512.2444921690926094
 20
107.6255239702391009
 30
0.0
 11
512.2444921690926094
 21
107.4644547839906039
 31
0.0
  0
LINE
  5
84C9
  8
0
  6
CONTINUOUS
 10
512.2769921690926367
 20
107.6555239702390026
 30
0.0
 11
512.2769921690926367
 21
107.6255239702391009
 31
0.0
  0
LINE
  5
84CA
  8
0
  6
CONTINUOUS
 10
512.4523103592925963
 20
107.9480897961391008
 30
0.0
 11
512.4449162591927234
 21
107.764718164239099
 31
0.0
  0
LINE
  5
84CB
  8
0
  6
CONTINUOUS
 10
512.6999921690926385
 20
108.5330239702390003
 30
0.0
 11
512.6999921690926385
 21
107.9672839702390945
 31
0.0
  0
LINE
  5
84CC
  8
0
  6
CONTINUOUS
 10
514.1844921690925503
 20
107.6255239702391009
 30
0.0
 11
512.2444921690926094
 21
107.6255239702391009
 31
0.0
  0
LINE
  5
84CD
  8
0
  6
CONTINUOUS
 10
512.2444921690926094
 20
107.6555239702390026
 30
0.0
 11
514.1844921690925503
 21
107.6555239702390026
 31
0.0
  0
LINE
  5
84CE
  8
0
  6
CONTINUOUS
 10
514.0944921690926321
 20
107.7455239702391054
 30
0.0
 11
512.3344921690926412
 21
107.7455239702391054
 31
0.0
  0
LINE
  5
84CF
  8
0
  6
CONTINUOUS
 10
512.4723140833646085
 20
107.9672839702386966
 30
0.0
 11
513.9566702543100973
 21
107.9672839763189955
 31
0.0
  0
LINE
  5
84D0
  8
0
  6
CONTINUOUS
 10
513.7289921690926349
 20
108.5330239702390003
 30
0.0
 11
512.6999921690926385
 21
108.5330239702390003
 31
0.0
  0
LINE
  5
84D1
  8
0
  6
CONTINUOUS
 10
513.6764921690926258
 20
108.5855239702390946
 30
0.0
 11
512.7524921690926476
 21
108.5855239702390946
 31
0.0
  0
ARC
  5
84D2
  8
0
  6
CONTINUOUS
 10
506.1976344047782845
 20
106.7367180125940962
 30
0.0
 40
0.3150942673903204
 50
96.8462447739745045
 51
179.271582711059807
  0
ARC
  5
84D3
  8
0
  6
CONTINUOUS
 10
513.2144921690926367
 20
48.4173034978390788
 30
0.0
 40
59.0551181102000129
 50
90.0
 51
96.8606399340002184
  0
ARC
  5
84D4
  8
0
  6
CONTINUOUS
 10
511.064918268592578
 20
89.2581472581390756
 30
0.0
 40
0.5908020287
 50
3.9958152121998771
 51
64.1923284324988401
  0
ARC
  5
84D5
  8
0
  6
CONTINUOUS
 10
510.7211565160926057
 20
87.6692720017390741
 30
0.0
 40
0.4724409449000001
 50
211.870243923758693
 51
270.0
  0
ARC
  5
84D6
  8
0
  6
CONTINUOUS
 10
512.1775856899926112
 20
84.6377759387390824
 30
0.0
 40
0.1968503937
 50
183.999999999468514
 51
270.0
  0
ARC
  5
84D7
  8
0
  6
CONTINUOUS
 10
514.3019496965562212
 20
95.9504443891727306
 30
0.0
 40
6.8432556381666156
 50
240.64764640640621
 51
244.18672763795891
  0
ARC
  5
84D8
  8
0
  6
CONTINUOUS
 10
512.3344921690926412
 20
107.6555239702390026
 30
0.0
 40
0.09
 50
90.0
 51
180.0
  0
ARC
  5
84D9
  8
0
  6
CONTINUOUS
 10
512.472294411949747
 20
107.9472836751267977
 30
0.0
 40
0.0200003047898611
 50
89.9436463974453062
 51
177.6900428843451039
  0
ARC
  5
84DA
  8
0
 10
512.4230970609198721
 20
107.7657746167477057
 30
0.0
 40
0.0218447592151955
 50
292.0242238116642284
 51
357.2279900345769761
  0
ARC
  5
84DB
  8
0
 10
513.7091770542982658
 20
89.8361410534603806
 30
0.0
 40
2.0880512681777539
 50
174.2647960944489967
 51
185.5054902326187118
  0
ARC
  5
84DC
  8
0
 10
511.7052546238688819
 20
90.0374027042327327
 30
0.0
 40
0.0740474550607866
 50
112.8393343610626971
 51
174.2647960944485988
  0
ARC
  5
84DD
  8
0
 10
511.6390881671244983
 20
89.9195224981337731
 30
0.0
 40
0.1898475051265657
 50
34.8735130546125802
 51
78.6306917264158187
  0
ARC
  5
84DE
  8
0
 10
513.6795036656242246
 20
93.1447672598975345
 30
0.0
 40
3.6422170120687101
 50
238.8387101758833069
 51
249.1160980020100055
  0
ARC
  5
84DF
  8
0
 10
513.2004720140439531
 20
91.9402149635654666
 30
0.0
 40
2.346105475213184
 50
249.5597979059909903
 51
270.3423974335984781
  0
ARC
  5
84E0
  8
0
 10
517.4855201769842097
 20
100.9411559358611044
 30
0.0
 40
12.7580185929026104
 50
220.7961217394440041
 51
239.172081978083412
  0
ARC
  5
84E1
  8
0
 10
485.2370820247811025
 20
73.1088598334426649
 30
0.0
 40
29.8400854680666008
 50
40.7961217394440183
 51
46.6149420796802474
  0
LINE
  5
84E2
  8
0
 10
506.8967102333116941
 20
106.7345257650454045
 30
0.0
 11
507.5277283793939773
 21
93.735416338798899
 31
0.0
  0
ARC
  5
84E3
  8
0
 10
506.5301312329507937
 20
106.7611745158188938
 30
0.0
 40
0.3675463500341369
 50
355.8421519312499868
 51
70.1871689438047213
  0
ARC
  5
84E4
  8
0
 10
519.0051984363426527
 20
99.8737333861595147
 30
0.0
 40
12.8348858988137504
 50
213.104139882967587
 51
228.392158374061097
  0
ARC
  5
84E5
  8
0
 10
513.5303817576846086
 20
100.2121075096332987
 30
0.0
 40
8.0041664530891357
 50
255.0788223743194862
 51
267.7381977289322208
  0
ARC
  5
84E6
  8
0
 10
586.6245282518152635
 20
319.4783564125881981
 30
0.0
 40
239.1182389655762961
 50
251.0525419084277132
 51
251.6813695863388887
  0
ARC
  5
84E7
  8
0
 10
508.5492368492106152
 20
91.4484280486679637
 30
0.0
 40
1.917511244037132
 50
76.9378622720965524
 51
93.9785860748473141
  0
ARC
  5
84E8
  8
0
 10
513.5115071806974356
 20
105.0191174568615935
 30
0.0
 40
12.6295330119588503
 50
264.6560094113874015
 51
268.6524224084230923
  0
ARC
  5
84E9
  8
0
 10
512.8036357197335064
 20
96.2987461266301068
 30
0.0
 40
3.8826223611263551
 50
253.7785605138674896
 51
263.0712382023551754
  0
ARC
  5
84EA
  8
0
 10
226.1401788473704926
 20
-831.8492833975135454
 30
0.0
 40
967.5265221728642473
 50
72.8326377392641291
 51
72.9887069101416159
  0
ARC
  5
84EB
  8
0
 10
509.4684385232004047
 20
94.29943829137531
 30
0.0
 40
0.9913392170124679
 50
239.6607997101257013
 51
254.284306718812104
  0
ARC
  5
84EC
  8
0
 10
508.8925947884468997
 20
93.3571242052992574
 30
0.0
 40
0.1147328734582818
 50
49.1132517543292835
 51
103.1464117351763008
  0
ARC
  5
84ED
  8
0
 10
502.4908929918676108
 20
119.1710703095494068
 30
0.0
 40
26.4811722561021909
 50
282.9296901596400744
 51
283.9314002786276774
  0
ARC
  5
84EE
  8
0
 10
507.7785348778845105
 20
93.740002664937677
 30
0.0
 40
0.2508484284831956
 50
181.0476117992577088
 51
219.1800145552529102
  0
ARC
  5
84EF
  8
0
 10
524.6137115053519437
 20
108.7979081120491998
 30
0.0
 40
22.8373904369339584
 50
221.7815564011866911
 51
224.2443779431939959
  0
LINE
  5
84F0
  8
0
 10
508.7908103253411127
 20
104.9135923541486051
 30
0.0
 11
517.6271394178780838
 21
104.9135923541486051
 31
0.0
  0
ARC
  5
84F1
  8
0
 10
508.7963276228235827
 20
104.7834774097344024
 30
0.0
 40
0.1302318675724942
 50
92.4280731304864247
 51
155.8808556846337865
  0
ARC
  5
84F2
  8
0
 10
508.8611395073406811
 20
104.8014888349367055
 30
0.0
 40
0.1870178408080884
 50
169.1493813331605054
 51
179.314090743771402
  0
LINE
  5
84F3
  8
0
 10
508.6741350674927844
 20
104.8037276421439969
 30
0.0
 11
508.9065891596574147
 21
93.6435851533701538
 31
0.0
  0
ARC
  5
84F4
  8
0
 10
509.8678674944872
 20
93.8284832235170114
 30
0.0
 40
0.9788990414528121
 50
190.8876452161804878
 51
203.1357650347711115
  0
ARC
  5
84F5
  8
0
 10
508.9883091271207718
 20
105.2629052380163017
 30
0.0
 40
0.4585215627635246
 50
234.4097350732789096
 51
268.694740699638885
  0
ARC
  5
84F6
  8
0
 10
512.9243329740611443
 20
139.6625759047680901
 30
0.0
 40
35.0807623208903578
 50
263.5407428706348014
 51
268.6901693466122083
  0
ARC
  5
84F7
  8
0
 10
513.2118362437322503
 20
145.6276047510816056
 30
0.0
 40
41.0510825052249473
 50
268.4793115184643284
 51
270.0037069257303983
  0
ARC
  5
84F8
  8
0
 10
509.2746503740925732
 20
104.4559307987631058
 30
0.0
 40
0.3787192397173733
 50
77.9999999961113701
 51
102.0000000038886014
  0
ARC
  5
84F9
  8
0
 10
509.2746503740925732
 20
105.196248088833002
 30
0.0
 40
0.3781623584349894
 50
257.9820652213438166
 51
282.0179347786561266
  0
ARC
  5
84FA
  8
0
 10
509.9111700067447259
 20
104.4006837402912993
 30
0.0
 40
0.3787192397173733
 50
77.9999999961113701
 51
102.0000000038886014
  0
ARC
  5
84FB
  8
0
 10
509.9111700067447259
 20
105.1410010303611955
 30
0.0
 40
0.3781623584349894
 50
257.9820652213438166
 51
282.0179347786561266
  0
ARC
  5
84FC
  8
0
 10
510.5855823274259819
 20
104.3498802734067965
 30
0.0
 40
0.3787192397173733
 50
77.9999999961113701
 51
102.0000000038886014
  0
ARC
  5
84FD
  8
0
 10
510.5855823274259819
 20
105.0901975634767069
 30
0.0
 40
0.3781623584349894
 50
257.9820652213438166
 51
282.0179347786561266
  0
ARC
  5
84FE
  8
0
 10
511.2944679448481793
 20
104.306010208954703
 30
0.0
 40
0.3787192397173733
 50
77.9999999961113701
 51
102.0000000038886014
  0
ARC
  5
84FF
  8
0
 10
511.2944679448481793
 20
105.0463274990245992
 30
0.0
 40
0.3781623584349894
 50
257.9820652213438166
 51
282.0179347786561266
  0
ARC
  5
8500
  8
0
 10
512.0348838672905458
 20
104.2666745995981046
 30
0.0
 40
0.3787192397173733
 50
77.9999999961113701
 51
102.0000000038886014
  0
ARC
  5
8501
  8
0
 10
512.0348838672905458
 20
105.0069918896680008
 30
0.0
 40
0.3781623584349894
 50
257.9820652213438166
 51
282.0179347786561266
  0
ARC
  5
8502
  8
0
 10
512.8016150221512817
 20
104.2340544925074965
 30
0.0
 40
0.3787192397173733
 50
77.9999999961113701
 51
102.0000000038886014
  0
ARC
  5
8503
  8
0
 10
512.8016150221512817
 20
104.974371782577407
 30
0.0
 40
0.3781623584349894
 50
257.9820652213438166
 51
282.0179347786561266
  0
LINE
  5
8504
  8
0
  6
CONTINUOUS
 10
513.6764921690926258
 20
108.5855239702390946
 30
0.0
 11
513.7289921690926349
 21
108.5330239702390003
 31
0.0
  0
LINE
  5
8505
  8
0
  6
CONTINUOUS
 10
514.6276762964772615
 20
87.1968310568390734
 30
0.0
 11
515.707827822092554
 21
87.1968310568390734
 31
0.0
  0
LINE
  5
8506
  8
0
  6
CONTINUOUS
 10
520.5464187371926528
 20
106.7407237863390037
 30
0.0
 11
520.694807132408414
 21
94.7952562579924489
 31
0.0
  0
LINE
  5
8507
  8
0
  6
CONTINUOUS
 10
520.694807132408414
 20
94.7952562579924489
 30
0.0
 11
516.1090464109672666
 21
87.41982443137708
 31
0.0
  0
LINE
  5
8508
  8
0
  6
CONTINUOUS
 10
514.7982263916196644
 20
89.6358110478442427
 30
0.0
 11
514.4477695242410391
 21
84.6240443494203021
 31
0.0
  0
LINE
  5
8509
  8
0
  6
CONTINUOUS
 10
514.1844921690925503
 20
107.6255239702391009
 30
0.0
 11
514.1844921690925503
 21
107.4644547839906039
 31
0.0
  0
LINE
  5
850A
  8
0
  6
CONTINUOUS
 10
514.1519921690926367
 20
107.6555239702390026
 30
0.0
 11
514.1519921690926367
 21
107.6255239702391009
 31
0.0
  0
LINE
  5
850B
  8
0
  6
CONTINUOUS
 10
513.9766739788925634
 20
107.9480897961391008
 30
0.0
 11
513.9840680789926637
 21
107.764718164239099
 31
0.0
  0
LINE
  5
850C
  8
0
  6
CONTINUOUS
 10
513.7289921690926349
 20
108.5330239702390003
 30
0.0
 11
513.7289921690926349
 21
107.9672839702390945
 31
0.0
  0
ARC
  5
850D
  8
0
  6
CONTINUOUS
 10
520.231349933406932
 20
106.7367180125940962
 30
0.0
 40
0.3150942673903204
 50
0.7284172889402287
 51
83.1537552260254955
  0
ARC
  5
850E
  8
0
  6
CONTINUOUS
 10
513.2144921690926367
 20
48.4173034978390788
 30
0.0
 40
59.0551181102000129
 50
83.1393600659997674
 51
90.0
  0
ARC
  5
850F
  8
0
  6
CONTINUOUS
 10
515.364066069592468
 20
89.2581472581390756
 30
0.0
 40
0.5908020287
 50
115.807671567501103
 51
176.0041847878001136
  0
ARC
  5
8510
  8
0
  6
CONTINUOUS
 10
515.707827822092554
 20
87.6692720017390741
 30
0.0
 40
0.4724409449000001
 50
270.0
 51
328.1297560762412786
  0
ARC
  5
8511
  8
0
  6
CONTINUOUS
 10
514.2513986481925485
 20
84.6377759387390824
 30
0.0
 40
0.1968503937
 50
270.0
 51
356.000000000531486
  0
ARC
  5
8512
  8
0
  6
CONTINUOUS
 10
512.1270346416290522
 20
95.9504443891727306
 30
0.0
 40
6.8432556381666156
 50
295.8132723620411753
 51
299.3523535935938185
  0
ARC
  5
8513
  8
0
  6
CONTINUOUS
 10
514.0944921690926321
 20
107.6555239702390026
 30
0.0
 40
0.09
 50
0.0
 51
90.0
  0
ARC
  5
8514
  8
0
  6
CONTINUOUS
 10
513.9566899155364581
 20
107.9472836703080958
 30
0.0
 40
0.0200003156744228
 50
2.309969673679614
 51
90.0563243846694803
  0
ARC
  5
8515
  8
0
 10
514.0058872772652876
 20
107.7657746167477057
 30
0.0
 40
0.0218447592151955
 50
182.7720099654229102
 51
247.9757761883358
  0
ARC
  5
8516
  8
0
 10
512.7198072838868939
 20
89.8361410534603806
 30
0.0
 40
2.0880512681777539
 50
354.4945097673813166
 51
5.7352039055510238
  0
ARC
  5
8517
  8
0
 10
514.7237297143162778
 20
90.0374027042327327
 30
0.0
 40
0.0740474550607866
 50
5.7352039055514306
 51
67.1606656389372745
  0
ARC
  5
8518
  8
0
 10
514.7898961710607182
 20
89.9195224981337731
 30
0.0
 40
0.1898475051265657
 50
101.3693082735841955
 51
145.1264869453873985
  0
ARC
  5
8519
  8
0
 10
512.7494806725610488
 20
93.1447672598975345
 30
0.0
 40
3.6422170120687101
 50
290.8839019979899945
 51
301.1612898241166931
  0
ARC
  5
851A
  8
0
 10
513.2285123241413203
 20
91.9402149635654666
 30
0.0
 40
2.346105475213184
 50
269.6576025664015219
 51
290.4402020940087823
  0
ARC
  5
851B
  8
0
 10
508.9434641612010068
 20
100.9411559358611044
 30
0.0
 40
12.7580185929026104
 50
300.8279180219166165
 51
319.2038782605559959
  0
ARC
  5
851C
  8
0
 10
541.1919023134040572
 20
73.1088598334426649
 30
0.0
 40
29.8400854680666008
 50
133.3850579203196958
 51
139.2038782605559959
  0
LINE
  5
851D
  8
0
 10
519.5322741048735224
 20
106.7345257650454045
 30
0.0
 11
518.9012559587912392
 21
93.735416338798899
 31
0.0
  0
ARC
  5
851E
  8
0
 10
519.8988531052344797
 20
106.7611745158188938
 30
0.0
 40
0.3675463500341369
 50
109.8128310561952929
 51
184.1578480687498995
  0
ARC
  5
851F
  8
0
 10
507.4237859018426207
 20
99.8737333861595147
 30
0.0
 40
12.8348858988137504
 50
311.6078416259393862
 51
326.8958601170323846
  0
ARC
  5
8520
  8
0
 10
513.1950489257388881
 20
98.2499763614272439
 30
0.0
 40
6.0358307990629019
 50
270.1845674187970872
 51
286.9984124779546164
  0
ARC
  5
8521
  8
0
 10
439.8044560863698962
 20
319.4783564125881981
 30
0.0
 40
239.1182389655762961
 50
288.3186304136610261
 51
288.9474580915722868
  0
ARC
  5
8522
  8
0
 10
517.8797474889745445
 20
91.4484280486679637
 30
0.0
 40
1.917511244037132
 50
86.0214139251494174
 51
103.062137727903405
  0
ARC
  5
8523
  8
0
 10
510.8197063871822934
 20
140.9021148593159865
 30
0.0
 40
48.5681141186651573
 50
272.8262735911674213
 51
273.8652945890207207
  0
ARC
  5
8524
  8
0
 10
513.6253486184518806
 20
96.2987461266301068
 30
0.0
 40
3.8826223611263551
 50
276.9287617976448246
 51
286.2214394861325104
  0
ARC
  5
8525
  8
0
 10
800.2888054908147524
 20
-831.8492833975135454
 30
0.0
 40
967.5265221728642473
 50
107.0112930898583983
 51
107.1673622607358993
  0
ARC
  5
8526
  8
0
 10
516.9605458149849255
 20
94.29943829137531
 30
0.0
 40
0.9913392170124679
 50
285.715693281187896
 51
300.339200289874384
  0
ARC
  5
8527
  8
0
 10
517.5363895497383737
 20
93.3571242052992574
 30
0.0
 40
0.1147328734582818
 50
76.853588264823685
 51
130.8867482456707023
  0
ARC
  5
8528
  8
0
 10
523.9380913463177194
 20
119.1710703095494068
 30
0.0
 40
26.4811722561021909
 50
256.0685997213723226
 51
257.0703098403599256
  0
ARC
  5
8529
  8
0
 10
518.6504494603008197
 20
93.740002664937677
 30
0.0
 40
0.2508484284831956
 50
320.8199854447470898
 51
358.9523882007422912
  0
ARC
  5
852A
  8
0
 10
501.8152728328331023
 20
108.7979081120491998
 30
0.0
 40
22.8373904369339584
 50
315.7556220568059757
 51
318.2184435988132805
  0
ARC
  5
852B
  8
0
 10
517.632656715361577
 20
104.7834774097344024
 30
0.0
 40
0.1302318675724942
 50
24.1191443153662313
 51
92.428073131027574
  0
ARC
  5
852C
  8
0
 10
517.5678448308444786
 20
104.8014888349367055
 30
0.0
 40
0.1870178408080884
 50
0.685909256228571
 51
10.8506186668395301
  0
LINE
  5
852D
  8
0
 10
517.7548492706923753
 20
104.8037276421439969
 30
0.0
 11
517.522395178527745
 21
93.6435851533701538
 31
0.0
  0
ARC
  5
852E
  8
0
 10
516.5611168436979597
 20
93.8284832235170114
 30
0.0
 40
0.9788990414528121
 50
336.8642349652287749
 51
349.1123547838191143
  0
ARC
  5
852F
  8
0
 10
517.4406752110644447
 20
105.2629052380163017
 30
0.0
 40
0.4585215627635246
 50
271.3052593003610014
 51
305.5902649267210904
  0
ARC
  5
8530
  8
0
 10
513.504651364124129
 20
139.6625759047680901
 30
0.0
 40
35.0807623208903578
 50
271.3098306533879054
 51
276.4592571293653123
  0
ARC
  5
8531
  8
0
 10
513.2171480944531368
 20
145.6276047510816056
 30
0.0
 40
41.0510825052249473
 50
269.9962930742696017
 51
271.5206884815356716
  0
ARC
  5
8532
  8
0
 10
517.1543339640926433
 20
104.4559307987631058
 30
0.0
 40
0.3787192397173733
 50
77.9999999961113701
 51
102.0000000038886014
  0
ARC
  5
8533
  8
0
 10
517.1543339640926433
 20
105.196248088833002
 30
0.0
 40
0.3781623584349894
 50
257.9820652213438166
 51
282.0179347786561266
  0
ARC
  5
8534
  8
0
 10
516.5178143314404906
 20
104.4006837402912993
 30
0.0
 40
0.3787192397173733
 50
77.9999999961113701
 51
102.0000000038886014
  0
ARC
  5
8535
  8
0
 10
516.5178143314404906
 20
105.1410010303611955
 30
0.0
 40
0.3781623584349894
 50
257.9820652213438166
 51
282.0179347786561266
  0
ARC
  5
8536
  8
0
 10
515.8434020107591778
 20
104.3498802734067965
 30
0.0
 40
0.3787192397173733
 50
77.9999999961113701
 51
102.0000000038886014
  0
ARC
  5
8537
  8
0
 10
515.8434020107591778
 20
105.0901975634767069
 30
0.0
 40
0.3781623584349894
 50
257.9820652213438166
 51
282.0179347786561266
  0
ARC
  5
8538
  8
0
 10
515.1345163933369804
 20
104.306010208954703
 30
0.0
 40
0.3787192397173733
 50
77.9999999961113701
 51
102.0000000038886014
  0
ARC
  5
8539
  8
0
 10
515.1345163933369804
 20
105.0463274990245992
 30
0.0
 40
0.3781623584349894
 50
257.9820652213438166
 51
282.0179347786561266
  0
ARC
  5
853A
  8
0
 10
514.3941004708947276
 20
104.2666745995981046
 30
0.0
 40
0.3787192397173733
 50
77.9999999961113701
 51
102.0000000038886014
  0
ARC
  5
853B
  8
0
 10
514.3941004708947276
 20
105.0069918896680008
 30
0.0
 40
0.3781623584349894
 50
257.9820652213438166
 51
282.0179347786561266
  0
ARC
  5
853C
  8
0
 10
513.627369316033878
 20
104.2340544925074965
 30
0.0
 40
0.3787192397173733
 50
77.9999999961113701
 51
102.0000000038886014
  0
ARC
  5
853D
  8
0
 10
513.627369316033878
 20
104.974371782577407
 30
0.0
 40
0.3781623584349894
 50
257.9820652213438166
 51
282.0179347786561266
  0
ARC
  5
8541
  8
0
 10
509.1074460925227072
 20
102.2023658071646963
 30
0.0
 40
13.7728851243040893
 50
298.031055546607206
 51
312.870517154932088
  0
ARC
  5
8542
  8
0
 10
508.4430842492686793
 20
102.9180424634294013
 30
0.0
 40
14.74939407720424
 50
312.870517154932088
 51
323.1407162568402782
  0
ARC
  5
8543
  8
0
 10
517.3196308317797047
 20
102.2000238042324014
 30
0.0
 40
13.7698709906047601
 50
227.1286696420820874
 51
241.9677450127342979
  0
ARC
  5
8544
  8
0
 10
517.985900089016468
 20
102.9180424634294013
 30
0.0
 40
14.74939407720424
 50
216.859283741827312
 51
227.1294828450679972
  0
ARC
  5
8545
  8
0
 10
513.0843364538650349
 20
93.7008038054828205
 30
0.0
 40
4.4330786511140436
 50
305.771184243819107
 51
337.6113113600433735
  0
ARC
  5
8546
  8
0
 10
513.9292820398986805
 20
93.3474277581724436
 30
0.0
 40
3.5172307954182038
 50
337.6912872393853036
 51
359.4933238937643978
  0
ARC
  5
8547
  8
0
 10
513.3446478843202385
 20
93.7008038054828205
 30
0.0
 40
4.4330786511140436
 50
202.3886886399567118
 51
234.2288157561881974
  0
ARC
  5
8548
  8
0
 10
512.4997022982865928
 20
93.3474277581724436
 30
0.0
 40
3.5172307954182038
 50
180.5066761062354885
 51
202.3087127606146964
  0
LINE
  5
8549
  8
0
 10
515.0333193063069075
 20
89.6185586177952018
 30
0.0
 11
515.8051138508783424
 21
89.6185586177952018
 31
0.0
  0
LINE
  5
854A
  8
0
 10
515.0333193063069075
 20
89.0839580970829559
 30
0.0
 11
515.8051138508783424
 21
89.0839580970829559
 31
0.0
  0
ARC
  5
854B
  8
0
 10
515.8051138508783424
 20
89.3512583574390788
 30
0.0
 40
0.2673002603561225
 50
270.0
 51
90.0
  0
ARC
  5
854C
  8
0
 10
515.0333193063069075
 20
89.3512583574390788
 30
0.0
 40
0.2673002603561225
 50
193.8942800856154918
 51
270.0
  0
ARC
  5
854D
  8
0
 10
515.0333193063069075
 20
89.3512583574390788
 30
0.0
 40
0.2673002603561225
 50
90.0
 51
134.561558832395491
  0
LINE
  5
854E
  8
0
 10
511.395665031878309
 20
89.6185586177952018
 30
0.0
 11
510.6238704873069878
 21
89.6185586177952018
 31
0.0
  0
LINE
  5
854F
  8
0
 10
511.395665031878309
 20
89.0839580970829559
 30
0.0
 11
510.6238704873069878
 21
89.0839580970829559
 31
0.0
  0
ARC
  5
8550
  8
0
 10
510.6238704873069878
 20
89.3512583574390788
 30
0.0
 40
0.2673002603561225
 50
90.0
 51
270.0
  0
ARC
  5
8551
  8
0
 10
511.395665031878309
 20
89.3512583574390788
 30
0.0
 40
0.2673002603561225
 50
270.0
 51
346.1057199143845082
  0
ARC
  5
8552
  8
0
 10
511.395665031878309
 20
89.3512583574390788
 30
0.0
 40
0.2673002603561225
 50
45.4384411676045232
 51
90.0
  0
ENDSEC
  0
EOF
