  0
SECTION
  2
HEADER
  9
$ACADVER
  1
AC1009
  9
$INSBASE
 10
4638.5046563128398702
 20
153.9210396068928048
 30
0.0
  9
$EXTMIN
 10
4624.294423306405406
 20
153.922122752586688
 30
0.0
  9
$EXTMAX
 10
4638.5118132846891967
 20
198.2672095320455981
 30
0.0
  9
$LIMMIN
 10
0.0
 20
0.0
  9
$LIMMAX
 10
11.6929133858000007
 20
8.2677165353999982
  9
$ORTHOMODE
 70
     0
  9
$REGENMODE
 70
     1
  9
$FILLMODE
 70
     1
  9
$QTEXTMODE
 70
     0
  9
$MIRRTEXT
 70
     0
  9
$DRAGMODE
 70
     2
  9
$LTSCALE
 40
0.6431102362
  9
$OSMODE
 70
  4095
  9
$ATTMODE
 70
     1
  9
$TEXTSIZE
 40
0.2
  9
$TRACEWID
 40
0.05
  9
$TEXTSTYLE
  7
STANDARD
  9
$CLAYER
  8
0
  9
$CELTYPE
  6
BYLAYER
  9
$CECOLOR
 62
   256
  9
$DIMSCALE
 40
1.0
  9
$DIMASZ
 40
0.1875
  9
$DIMEXO
 40
0.0625
  9
$DIMDLI
 40
0.4443307087
  9
$DIMRND
 40
0.0
  9
$DIMDLE
 40
0.0
  9
$DIMEXE
 40
0.125
  9
$DIMTP
 40
0.01
  9
$DIMTM
 40
0.01
  9
$DIMTXT
 40
2.0
  9
$DIMCEN
 40
0.1052362205
  9
$DIMTSZ
 40
0.0
  9
$DIMTOL
 70
     1
  9
$DIMLIM
 70
     0
  9
$DIMTIH
 70
     1
  9
$DIMTOH
 70
     1
  9
$DIMSE1
 70
     0
  9
$DIMSE2
 70
     0
  9
$DIMTAD
 70
     0
  9
$DIMZIN
 70
     0
  9
$DIMBLK
  1

  9
$DIMASO
 70
     1
  9
$DIMSHO
 70
     1
  9
$DIMPOST
  1
\X
  9
$DIMAPOST
  1

  9
$DIMALT
 70
     1
  9
$DIMALTD
 70
     2
  9
$DIMALTF
 40
25.3999999999999986
  9
$DIMLFAC
 40
1.0
  9
$DIMTOFL
 70
     0
  9
$DIMTVP
 40
0.0
  9
$DIMTIX
 70
     0
  9
$DIMSOXD
 70
     0
  9
$DIMSAH
 70
     0
  9
$DIMBLK1
  1

  9
$DIMBLK2
  1

  9
$DIMSTYLE
  2
STANDARD
  9
$DIMCLRD
 70
     0
  9
$DIMCLRE
 70
     0
  9
$DIMCLRT
 70
     0
  9
$DIMTFAC
 40
1.0
  9
$DIMGAP
 40
0.09
  9
$LUNITS
 70
     2
  9
$LUPREC
 70
     4
  9
$SKETCHINC
 40
0.1
  9
$FILLETRAD
 40
0.0
  9
$AUNITS
 70
     0
  9
$AUPREC
 70
     0
  9
$MENU
  1
.
  9
$ELEVATION
 40
0.0
  9
$PELEVATION
 40
0.0
  9
$THICKNESS
 40
0.0
  9
$LIMCHECK
 70
     0
  9
$BLIPMODE
 70
     0
  9
$CHAMFERA
 40
0.0
  9
$CHAMFERB
 40
0.0
  9
$SKPOLY
 70
     0
  9
$TDCREATE
 40
2458060.468368056230247
  9
$TDUPDATE
 40
2459864.8457638891413808
  9
$TDINDWG
 40
0.4895440972
  9
$TDUSRTIMER
 40
0.4895440972
  9
$USRTIMER
 70
     1
  9
$ANGBASE
 50
0.0
  9
$ANGDIR
 70
     0
  9
$PDMODE
 70
     0
  9
$PDSIZE
 40
0.3125
  9
$PLINEWID
 40
0.0
  9
$COORDS
 70
     1
  9
$SPLFRAME
 70
     0
  9
$SPLINETYPE
 70
     6
  9
$SPLINESEGS
 70
     8
  9
$ATTDIA
 70
     1
  9
$ATTREQ
 70
     1
  9
$HANDLING
 70
     1
  9
$HANDSEED
  5
BC87
  9
$SURFTAB1
 70
     6
  9
$SURFTAB2
 70
     6
  9
$SURFTYPE
 70
     6
  9
$SURFU
 70
     6
  9
$SURFV
 70
     6
  9
$UCSNAME
  2

  9
$UCSORG
 10
0.0
 20
0.0
 30
0.0
  9
$UCSXDIR
 10
1.0
 20
0.0
 30
0.0
  9
$UCSYDIR
 10
0.0
 20
1.0
 30
0.0
  9
$PUCSNAME
  2

  9
$PUCSORG
 10
0.0
 20
0.0
 30
0.0
  9
$PUCSXDIR
 10
1.0
 20
0.0
 30
0.0
  9
$PUCSYDIR
 10
0.0
 20
1.0
 30
0.0
  9
$USERI1
 70
     0
  9
$USERI2
 70
     0
  9
$USERI3
 70
     0
  9
$USERI4
 70
     0
  9
$USERI5
 70
     0
  9
$USERR1
 40
0.0
  9
$USERR2
 40
0.0
  9
$USERR3
 40
0.0
  9
$USERR4
 40
0.0
  9
$USERR5
 40
0.0
  9
$WORLDVIEW
 70
     1
  9
$SHADEDGE
 70
     3
  9
$SHADEDIF
 70
    70
  9
$TILEMODE
 70
     1
  9
$MAXACTVP
 70
    64
  9
$PLIMCHECK
 70
     0
  9
$PEXTMIN
 10
1.0000000000000000E+20
 20
1.0000000000000000E+20
 30
1.0000000000000000E+20
  9
$PEXTMAX
 10
-1.0000000000000000E+20
 20
-1.0000000000000000E+20
 30
-1.0000000000000000E+20
  9
$PLIMMIN
 10
0.0
 20
0.0
  9
$PLIMMAX
 10
12.0
 20
9.0
  9
$UNITMODE
 70
     0
  9
$VISRETAIN
 70
     1
  9
$PLINEGEN
 70
     0
  9
$PSLTSCALE
 70
     1
  0
ENDSEC
  0
SECTION
  2
TABLES
  0
TABLE
  2
VPORT
 70
     1
  0
VPORT
  2
*ACTIVE
 70
     0
 10
0.0
 20
0.0
 11
1.0
 21
1.0
 12
827.9039531339849418
 22
50.1004005051429004
 13
0.0
 23
0.0
 14
1.0
 24
1.0
 15
0.0
 25
0.0
 16
0.0
 26
0.0
 36
17.1152628219792007
 17
3803.5440673828129547
 27
125.9952621967499056
 37
0.0
 40
44.7319662578651602
 41
2.1471354166666661
 42
50.0
 43
0.0
 44
0.0
 50
0.0
 51
0.0
 71
     0
 72
   100
 73
     1
 74
     1
 75
     0
 76
     0
 77
     0
 78
     0
  0
ENDTAB
  0
TABLE
  2
LTYPE
 70
     2
  0
LTYPE
  2
CONTINUOUS
 70
     0
  3
Solid line
 72
    65
 73
     0
 40
0.0
  0
LTYPE
  2
PHANTOM2
 70
     0
  3
___ _ _ ___ _ _ ___ _ _ ___ _ _
 72
    65
 73
     6
 40
1.25
 49
0.625
 49
-0.125
 49
0.125
 49
-0.125
 49
0.125
 49
-0.125
  0
ENDTAB
  0
TABLE
  2
LAYER
 70
     2
  0
LAYER
  2
0
 70
     0
 62
   255
  6
CONTINUOUS
  0
LAYER
  2
DEFPOINTS
 70
     0
 62
     7
  6
CONTINUOUS
  0
ENDTAB
  0
TABLE
  2
STYLE
 70
     1
  0
STYLE
  2
STANDARD
 70
     0
 40
0.0
 41
0.8
 50
0.0
 71
     0
 42
0.2
  3
txt
  4

  0
ENDTAB
  0
TABLE
  2
VIEW
 70
     0
  0
ENDTAB
  0
TABLE
  2
UCS
 70
     0
  0
ENDTAB
  0
TABLE
  2
APPID
 70
     9
  0
APPID
  2
ACAD
 70
     0
  0
APPID
  2
ACAD_MLEADERVER
 70
     0
  0
APPID
  2
ACAD_EXEMPT_FROM_CAD_STANDARDS
 70
     0
  0
APPID
  2
ACAD_NAV_VCDISPLAY
 70
     0
  0
APPID
  2
ACAECLAYERSTANDARD
 70
     0
  0
APPID
  2
ACCMTRANSPARENCY
 70
     0
  0
APPID
  2
ACAD_DSTYLE_DIMJAG
 70
     0
  0
APPID
  2
ACAD_DSTYLE_DIMTALN
 70
     0
  0
APPID
  2
ACDBATTR
 70
     0
  0
ENDTAB
  0
TABLE
  2
DIMSTYLE
 70
     1
  0
DIMSTYLE
  2
STANDARD
 70
     0
  3

  4

  5

  6

  7

 40
1.0
 41
0.1875
 42
0.0625
 43
0.38
 44
0.125
 45
0.0
 46
0.0
 47
0.01
 48
0.01
140
0.15625
141
0.09
142
0.0
143
25.3999999999999986
144
1.0
145
0.0
146
1.0
147
0.09
 71
     1
 72
     0
 73
     1
 74
     1
 75
     0
 76
     0
 77
     0
 78
     4
170
     0
171
     2
172
     0
173
     0
174
     0
175
     0
176
     0
177
     0
178
     0
  0
ENDTAB
  0
ENDSEC
  0
SECTION
  2
BLOCKS
  0
BLOCK
  8
0
  2
$MODEL_SPACE
 70
     0
 10
0.0
 20
0.0
 30
0.0
  3
$MODEL_SPACE
  1

  0
ENDBLK
  5
21
  8
0
  0
BLOCK
 67
     1
  8
0
  2
$PAPER_SPACE
 70
     0
 10
0.0
 20
0.0
 30
0.0
  3
$PAPER_SPACE
  1

  0
ENDBLK
  5
1D
 67
     1
  8
0
  0
ENDSEC
  0
SECTION
  2
ENTITIES
  0
ATTDEF
  5
3930
  8
DEFPOINTS
 10
4638.501146618020357
 20
153.9254560859199898
 30
0.0
 40
0.001
  1
K-4991LM-ET
  3

  2
MODELNUMBER
 70
     0
1001
ACDBATTR
1070
     0
1070
     1
  0
ATTDEF
  5
3931
  8
DEFPOINTS
 10
4638.501146618020357
 20
153.92378941925341
 30
0.0
 40
0.001
  1
BARDON
  3

  2
TRADENAME
 70
     0
1001
ACDBATTR
1070
     0
1070
     1
  0
ATTDEF
  5
3932
  8
DEFPOINTS
 10
4638.501146618020357
 20
153.922122752586688
 30
0.0
 40
0.001
  1
URINAL
  3

  2
PRODUCT
 70
     0
1001
ACDBATTR
1070
     0
1070
     1
  0
LINE
  5
BB6E
  8
0
 10
4638.5046563128398702
 20
197.0010728855455966
 30
0.0
 11
4638.5046563128398702
 21
172.6491517196456016
 31
0.0
  0
LINE
  5
BB6F
  8
0
 10
4635.9666563128412236
 20
198.2672095320455981
 30
0.0
 11
4636.0191563128410053
 21
198.214709532045589
 31
0.0
  0
LINE
  5
BB70
  8
0
 10
4638.4346563128410708
 20
172.5791517196456084
 30
0.0
 11
4637.5046563128407797
 21
172.5791517196456084
 31
0.0
  0
LINE
  5
BB71
  8
0
 10
4637.2546563128398702
 20
172.829153684645604
 30
0.0
 11
4637.2546563128398702
 21
178.587213076545595
 31
0.0
  0
LINE
  5
BB72
  8
0
 10
4636.1700133614867809
 20
197.6296675191094891
 30
0.0
 11
4636.1764062181482586
 21
197.4466021825622875
 31
0.0
  0
LINE
  5
BB73
  8
0
 10
4636.4746563128410344
 20
197.1473031436956092
 30
0.0
 11
4636.4746563128410344
 21
197.3073031436956057
 31
0.0
  0
LINE
  5
BB74
  8
0
 10
4636.0191563128410053
 20
197.6489695320456121
 30
0.0
 11
4636.0191563128410053
 21
198.214709532045589
 31
0.0
  0
LINE
  5
BB75
  8
0
 10
4634.9901563128405542
 20
197.6489695320456121
 30
0.0
 11
4634.9901563128405542
 21
198.214709532045589
 31
0.0
  0
LINE
  5
BB76
  8
0
 10
4634.5346563128414346
 20
197.1688155402455891
 30
0.0
 11
4634.5346563128414346
 21
197.3073031436956057
 31
0.0
  0
LINE
  5
BB77
  8
0
 10
4632.2910129710398905
 20
180.4104115409456028
 30
0.0
 11
4632.2222995183410603
 21
180.4104184992455941
 31
0.0
  0
LINE
  5
BB78
  8
0
 10
4624.3951748909412345
 20
178.2065953991456126
 30
0.0
 11
4629.6844211954412458
 21
179.7804969956455921
 31
0.0
  0
LINE
  5
BB79
  8
0
 10
4634.8215953726012231
 20
197.4272095320455946
 30
0.0
 11
4634.8286654323856055
 21
197.6296675194923012
 31
0.0
  0
LINE
  5
BB7A
  8
0
 10
4632.9280241649412346
 20
196.9112695402455984
 30
0.0
 11
4632.9119979688512103
 21
196.7981956719285108
 31
0.0
  0
LINE
  5
BB7B
  8
0
 10
4635.0426563128412454
 20
198.2672095320455981
 30
0.0
 11
4634.9901563128405542
 21
198.214709532045589
 31
0.0
  0
LINE
  5
BB7C
  8
0
 10
4633.0595596901412137
 20
197.0722756312455886
 30
0.0
 11
4633.3910521959423932
 21
197.185397552145588
 31
0.0
  0
LINE
  5
BB7D
  8
0
 10
4631.8506803855070757
 20
196.7122992495154961
 30
0.0
 11
4632.9122579051545472
 21
196.8000296694119982
 31
0.0
  0
LINE
  5
BB7E
  8
0
 10
4633.4596590120409019
 20
197.1957182108455982
 30
0.0
 11
4633.3910521959423932
 21
197.185397552145588
 31
0.0
  0
LINE
  5
BB7F
  8
0
 10
4633.4596590120409019
 20
197.1957182108455982
 30
0.0
 11
4638.4364189134421395
 21
197.0711444911455885
 31
0.0
  0
LINE
  5
BB80
  8
0
 10
4636.3846563128408889
 20
197.4272095320455946
 30
0.0
 11
4634.6246563128406706
 21
197.4272095320455946
 31
0.0
  0
LINE
  5
BB81
  8
0
 10
4634.8486531779399229
 20
197.6489695320456121
 30
0.0
 11
4636.1500256269409874
 21
197.6489695320456121
 31
0.0
  0
LINE
  5
BB82
  8
0
 10
4635.0426567933400293
 20
198.2672095320455981
 30
0.0
 11
4635.9666558323424397
 21
198.2672095320455981
 31
0.0
  0
ARC
  5
BB83
  8
0
 10
4637.5046563128407797
 20
172.8291517196456084
 30
0.0
 40
0.25
 50
180.0
 51
270.0
  0
ARC
  5
BB84
  8
0
 10
4634.6246563128406706
 20
197.3372095320455912
 30
0.0
 40
0.09
 50
90.0
 51
180.0
  0
ARC
  5
BB85
  8
0
 10
4636.3846562783537593
 20
197.3372094487887125
 30
0.0
 40
0.0900000832568595
 50
0.0596479858767657
 51
89.9999780454483158
  0
ARC
  5
BB86
  8
0
 10
4638.4346563128410708
 20
172.6491517196456016
 30
0.0
 40
0.07
 50
270.0
 51
0.0
  0
ARC
  5
BB87
  8
0
 10
4634.8486532456408895
 20
197.6289695357455969
 30
0.0
 40
0.0199999965
 50
90.0001940077109879
 51
178.0000173860001951
  0
ARC
  5
BB88
  8
0
 10
4636.1500255327418927
 20
197.6289695195119123
 30
0.0
 40
0.0200000125339812
 50
2.0000264471705669
 51
89.9997301423900069
  0
ARC
  5
BB89
  8
0
 10
4633.1463296761139645
 20
196.8671561396996879
 30
0.0
 40
0.2227173776497291
 50
112.9293580964691017
 51
168.575858434167003
  0
ARC
  5
BB8A
  8
0
 10
4631.8713484745212554
 20
196.4623029839478079
 30
0.0
 40
0.2508491632459771
 50
94.7260998882324685
 51
173.295536964569294
  0
LINE
  5
BB8B
  8
0
 10
4631.6222147286025574
 20
196.4915891470024008
 30
0.0
 11
4629.558457400041334
 21
178.6742946156456071
 31
0.0
  0
ARC
  5
BB8C
  8
0
 10
4638.4341578131916322
 20
197.0006811721931967
 30
0.0
 40
0.0704995878862591
 50
0.3183513269943888
 51
88.1620641202175648
  0
ARC
  5
BB8D
  8
0
 10
4631.7334869911455826
 20
196.8292873909641116
 30
0.0
 40
0.3555581814359939
 50
251.7628426313015098
 51
263.8727155205888266
  0
ARC
  5
BB8E
  8
0
 10
4693.0562939084084064
 20
899.7571124330563634
 30
0.0
 40
705.9531165276368938
 50
265.0136144522572863
 51
265.0553516955450277
  0
ARC
  5
BB8F
  8
0
 10
4632.3970826575177853
 20
170.2041235634694942
 30
0.0
 40
26.2278076809910701
 50
87.9688843151341189
 51
90.4133714110492122
  0
ARC
  5
BB90
  8
0
 10
4639.3703824789999999
 20
537.9527710379086329
 30
0.0
 40
341.5907877100186738
 50
268.9862192545978132
 51
269.3263812583633126
  0
ARC
  5
BB91
  8
0
 10
4650.1837218114333155
 20
1457.6067037040090781
 30
0.0
 40
1261.3082900854199124
 50
269.3263542749789963
 51
269.4693310843604763
  0
ARC
  5
BB92
  8
0
 10
4624.4508843288185744
 20
178.0603883197472896
 30
0.0
 40
0.1564610224143106
 50
110.858394412841605
 51
201.0895427187211908
  0
ARC
  5
BB93
  8
0
 10
4628.1972048071238532
 20
179.6408164694113907
 30
0.0
 40
4.2224266830568764
 50
202.8069304761999945
 51
215.2791872878673018
  0
ARC
  5
BB94
  8
0
 10
4628.9309505827495741
 20
180.3478396719314105
 30
0.0
 40
5.2320163848904162
 50
216.9592398475527091
 51
236.7624977844579917
  0
ARC
  5
BB95
  8
0
 10
4631.6974362570017547
 20
183.9386259138753985
 30
0.0
 40
9.7578388778866252
 50
234.7318746123268909
 51
244.7379157164409946
  0
ARC
  5
BB96
  8
0
 10
4633.0829911941937098
 20
188.4516434337357111
 30
0.0
 40
14.4462348022035805
 50
247.4077978860154872
 51
257.0561032136354811
  0
ARC
  5
BB97
  8
0
 10
4629.8041483762262942
 20
174.2002991306231934
 30
0.0
 40
0.1774615685403576
 50
19.2464936794454218
 51
76.0000721866360749
  0
LINE
  5
BB98
  8
0
 10
4629.9716914747814371
 20
174.2587962966661905
 30
0.0
 11
4630.5162985633423887
 21
172.338076125645614
 31
0.0
  0
ARC
  5
BB99
  8
0
 10
4633.0946566906941371
 20
173.0691788198288918
 30
0.0
 40
2.6800077951991832
 50
195.830875059138009
 51
324.9282287022829223
  0
LINE
  5
BB9A
  8
0
 10
4635.2880632797596263
 20
171.529240731018092
 30
0.0
 11
4636.6866309354400073
 21
173.5226315046456023
 31
0.0
  0
LINE
  5
BB9B
  8
0
 10
4636.6866309354400073
 20
173.5226315046456023
 30
0.0
 11
4636.8077019466909405
 21
173.6730144489455938
 31
0.0
  0
LINE
  5
BB9C
  8
0
 10
4636.8077019466909405
 20
173.6730144489455938
 30
0.0
 11
4636.9326203496411836
 21
173.7876783312455871
 31
0.0
  0
ARC
  5
BB9D
  8
0
 10
4637.1165135195551557
 20
173.5439205719385996
 30
0.0
 40
0.3053433201551372
 50
88.4718742081660849
 51
127.0312490710462043
  0
ARC
  5
BB9E
  8
0
 10
4637.1246570195407912
 20
173.7191552598459054
 30
0.0
 40
0.1300000382997139
 50
359.9984396938745022
 51
90.0003114859016478
  0
ARC
  5
BB9F
  8
0
 10
4614.2208660995811442
 20
178.3283882596284968
 30
0.0
 40
23.0469461381157004
 50
0.5335697454538437
 51
5.3442363576653671
  0
ARC
  5
BBA0
  8
0
 10
4591.3600115392882799
 20
174.8251413439022883
 30
0.0
 40
46.1547225318428502
 50
7.0312411678966527
 51
7.9209374283811247
  0
ARC
  5
BBA1
  8
0
 10
4637.1271362980205595
 20
173.7045512309300932
 30
0.0
 40
2.2199511279922799
 50
86.7069623163474148
 51
110.5745441902851951
  0
ARC
  5
BBA2
  8
0
 10
4637.3890134231023694
 20
173.3253972146650028
 30
0.0
 40
2.6692991924110969
 50
112.9777755240414052
 51
150.1372424514975989
  0
ARC
  5
BBA3
  8
0
 10
-47497.0562843134175637
 20
36675.7155413768196013
 30
0.0
 40
63640.2897505652581458
 50
324.9994675501961865
 51
325.0016591062371276
  0
ARC
  5
BBA4
  8
0
 10
4633.094667210564694
 20
173.0690706467528059
 30
0.0
 40
0.7121467330193818
 50
261.9389009812508107
 51
324.988726167209677
  0
ARC
  5
BBA5
  8
0
 10
4633.0137853116038968
 20
172.7722905691472874
 30
0.0
 40
0.4087709176409476
 50
163.7525141014924941
 51
267.3384491476247717
  0
ARC
  5
BBA6
  8
0
 10
4637.553361742119705
 20
171.7273114940389007
 30
0.0
 40
5.0664511718037932
 50
148.7116659009311945
 51
166.7718965566693896
  0
ARC
  5
BBA7
  8
0
 10
4631.5736448693332932
 20
179.2254080094886035
 30
0.0
 40
5.1389859130208384
 50
288.7292087876655273
 51
308.2235621683461204
  0
ARC
  5
BBA8
  8
0
 10
4629.8938320638462756
 20
181.841775572237708
 30
0.0
 40
8.2391970609251892
 50
306.1427043109532065
 51
321.556933780856923
  0
ARC
  5
BBA9
  8
0
 10
4628.8815397417356508
 20
182.2100277839734872
 30
0.0
 40
9.2671473197267407
 50
323.6665154125665254
 51
324.5219158134395911
  0
ARC
  5
BBAA
  8
0
 10
4636.526579594584291
 20
176.7538115042949869
 30
0.0
 40
0.1253853190576434
 50
92.552650169919275
 51
141.7399022198272007
  0
ARC
  5
BBAB
  8
0
 10
4639.1473064927549785
 20
376.8924691817632038
 30
0.0
 40
200.0306386535368119
 50
269.247710881923922
 51
269.457870623014287
  0
ARC
  5
BBAC
  8
0
 10
4633.0308563112821503
 20
174.1417843613982086
 30
0.0
 40
0.2901642276817177
 50
48.3345202496475608
 51
92.7027582918209987
  0
ARC
  5
BBAD
  8
0
 10
4632.2664175364070616
 20
160.7027341888438912
 30
0.0
 40
13.7494036270005004
 50
86.8699321687214763
 51
95.6648984684040045
  0
ARC
  5
BBAE
  8
0
 10
4632.1315622417441773
 20
161.7581518847073028
 30
0.0
 40
12.6858642765960798
 50
95.5293296308154964
 51
99.8028241207201745
  0
ARC
  5
BBAF
  8
0
 10
4645.9299251935653956
 20
114.3075321882012929
 30
0.0
 40
67.4952634289045363
 50
98.8337033194351875
 51
101.6581582738890006
  0
ARC
  5
BBB0
  8
0
 10
4646.8855261959888594
 20
94.1199432510700404
 30
0.0
 40
87.6166682131457435
 50
95.4889528907518752
 51
97.423748741612286
  0
LINE
  5
BBB1
  8
0
 10
4632.2078587407404484
 20
196.4312486453455904
 30
0.0
 11
4632.2222995183410603
 21
180.4104184992455941
 31
0.0
  0
ARC
  5
BBB2
  8
0
 10
4631.6460075478289582
 20
180.4971689622950919
 30
0.0
 40
0.5827847613956437
 50
320.3312089805406799
 51
351.4394183117296961
  0
ARC
  5
BBB3
  8
0
 10
4630.3291913370812836
 20
181.7819378502335042
 30
0.0
 40
2.421080934144328
 50
298.8868644540380046
 51
316.8180215834170781
  0
ARC
  5
BBB4
  8
0
 10
4589.5973659059527563
 20
252.7126446873785994
 30
0.0
 40
84.2146567658887335
 50
298.4275761187357148
 51
299.8383246644223732
  0
LINE
  5
BBB5
  8
0
 10
4629.6875447105967396
 20
178.6526286354753097
 30
0.0
 11
4629.558457400041334
 21
178.6742946156456071
 31
0.0
  0
LINE
  5
BBB7
  8
0
 10
4635.5046563128407797
 20
197.1473031436956092
 30
0.0
 11
4636.4746563128410344
 21
197.1473031436956092
 31
0.0
  0
LINE
  5
BBB8
  8
0
 10
4636.3596563128412527
 20
197.1473031436956092
 30
0.0
 11
4636.3658771150539906
 21
197.1229724070446139
 31
0.0
  0
LINE
  5
BBB9
  8
0
 10
4636.4421563128407797
 20
197.3373031436956069
 30
0.0
 11
4636.4421563128407797
 21
197.3073031436956057
 31
0.0
  0
ARC
  5
BBBA
  8
0
 10
4636.1965649547928479
 20
197.4473826748927081
 30
0.0
 40
0.0201738402732439
 50
182.2172317781852087
 51
269.5235759289226962
  0
LINE
  5
BBBB
  8
0
 10
4634.5671563128398702
 20
197.3373031436956069
 30
0.0
 11
4634.5671563128398702
 21
197.3073031436956057
 31
0.0
  0
LINE
  5
BBBC
  8
0
 10
4636.4746563128410344
 20
197.3073031436956057
 30
0.0
 11
4634.5346563128414346
 21
197.3073031436956057
 31
0.0
  0
LINE
  5
BBBD
  8
0
 10
4636.4746563128410344
 20
197.3373031436956069
 30
0.0
 11
4634.5346563128414346
 21
197.3373031436956069
 31
0.0
  0
LINE
  5
BBBE
  8
0
 10
4634.990249924490854
 20
198.2148031436956046
 30
0.0
 11
4636.0191563128410053
 21
198.214709532045589
 31
0.0
  0
ENDSEC
  0
EOF
