  0
SECTION
  2
HEADER
  9
$ACADVER
  1
AC1009
  9
$INSBASE
 10
440.7568156221819891
 20
68.3634846691169997
 30
0.0
  9
$EXTMIN
 10
433.9360445782677971
 20
68.3588639693513329
 30
0.0
  9
$EXTMAX
 10
447.577586666096181
 20
103.2952698309600947
 30
0.0
  9
$LIMMIN
 10
0.0
 20
0.0
  9
$LIMMAX
 10
11.6929133858000007
 20
8.2677165353999982
  9
$ORTHOMODE
 70
     0
  9
$REGENMODE
 70
     1
  9
$FILLMODE
 70
     1
  9
$QTEXTMODE
 70
     0
  9
$MIRRTEXT
 70
     0
  9
$DRAGMODE
 70
     2
  9
$LTSCALE
 40
0.6431102362
  9
$OSMODE
 70
  2047
  9
$ATTMODE
 70
     1
  9
$TEXTSIZE
 40
0.2
  9
$TRACEWID
 40
0.05
  9
$TEXTSTYLE
  7
STANDARD
  9
$CLAYER
  8
0
  9
$CELTYPE
  6
BYLAYER
  9
$CECOLOR
 62
   256
  9
$DIMSCALE
 40
1.0
  9
$DIMASZ
 40
0.1875
  9
$DIMEXO
 40
0.0625
  9
$DIMDLI
 40
0.4443307087
  9
$DIMRND
 40
0.0
  9
$DIMDLE
 40
0.0
  9
$DIMEXE
 40
0.125
  9
$DIMTP
 40
0.01
  9
$DIMTM
 40
0.01
  9
$DIMTXT
 40
1.0
  9
$DIMCEN
 40
0.1052362205
  9
$DIMTSZ
 40
0.0
  9
$DIMTOL
 70
     1
  9
$DIMLIM
 70
     0
  9
$DIMTIH
 70
     0
  9
$DIMTOH
 70
     1
  9
$DIMSE1
 70
     0
  9
$DIMSE2
 70
     0
  9
$DIMTAD
 70
     0
  9
$DIMZIN
 70
     0
  9
$DIMBLK
  1

  9
$DIMASO
 70
     1
  9
$DIMSHO
 70
     1
  9
$DIMPOST
  1
\X
  9
$DIMAPOST
  1

  9
$DIMALT
 70
     1
  9
$DIMALTD
 70
     2
  9
$DIMALTF
 40
25.3999999999999986
  9
$DIMLFAC
 40
1.0
  9
$DIMTOFL
 70
     0
  9
$DIMTVP
 40
0.0
  9
$DIMTIX
 70
     0
  9
$DIMSOXD
 70
     0
  9
$DIMSAH
 70
     0
  9
$DIMBLK1
  1

  9
$DIMBLK2
  1

  9
$DIMSTYLE
  2
STANDARD
  9
$DIMCLRD
 70
     0
  9
$DIMCLRE
 70
     0
  9
$DIMCLRT
 70
     0
  9
$DIMTFAC
 40
1.0
  9
$DIMGAP
 40
0.09
  9
$LUNITS
 70
     2
  9
$LUPREC
 70
     4
  9
$SKETCHINC
 40
0.1
  9
$FILLETRAD
 40
0.0
  9
$AUNITS
 70
     0
  9
$AUPREC
 70
     0
  9
$MENU
  1
.
  9
$ELEVATION
 40
0.0
  9
$PELEVATION
 40
0.0
  9
$THICKNESS
 40
0.0
  9
$LIMCHECK
 70
     0
  9
$BLIPMODE
 70
     0
  9
$CHAMFERA
 40
0.0
  9
$CHAMFERB
 40
0.0
  9
$SKPOLY
 70
     0
  9
$TDCREATE
 40
2458172.5207638889551163
  9
$TDUPDATE
 40
2459029.6462152781896293
  9
$TDINDWG
 40
0.0706746875
  9
$TDUSRTIMER
 40
0.0706746875
  9
$USRTIMER
 70
     1
  9
$ANGBASE
 50
0.0
  9
$ANGDIR
 70
     0
  9
$PDMODE
 70
     0
  9
$PDSIZE
 40
0.3125
  9
$PLINEWID
 40
0.0
  9
$COORDS
 70
     1
  9
$SPLFRAME
 70
     0
  9
$SPLINETYPE
 70
     6
  9
$SPLINESEGS
 70
     8
  9
$ATTDIA
 70
     1
  9
$ATTREQ
 70
     1
  9
$HANDLING
 70
     1
  9
$HANDSEED
  5
1AC4
  9
$SURFTAB1
 70
     6
  9
$SURFTAB2
 70
     6
  9
$SURFTYPE
 70
     6
  9
$SURFU
 70
     6
  9
$SURFV
 70
     6
  9
$UCSNAME
  2

  9
$UCSORG
 10
0.0
 20
0.0
 30
0.0
  9
$UCSXDIR
 10
1.0
 20
0.0
 30
0.0
  9
$UCSYDIR
 10
0.0
 20
1.0
 30
0.0
  9
$PUCSNAME
  2

  9
$PUCSORG
 10
0.0
 20
0.0
 30
0.0
  9
$PUCSXDIR
 10
1.0
 20
0.0
 30
0.0
  9
$PUCSYDIR
 10
0.0
 20
1.0
 30
0.0
  9
$USERI1
 70
     0
  9
$USERI2
 70
     0
  9
$USERI3
 70
     0
  9
$USERI4
 70
     0
  9
$USERI5
 70
     0
  9
$USERR1
 40
0.0
  9
$USERR2
 40
0.0
  9
$USERR3
 40
0.0
  9
$USERR4
 40
0.0
  9
$USERR5
 40
0.0
  9
$WORLDVIEW
 70
     1
  9
$SHADEDGE
 70
     3
  9
$SHADEDIF
 70
    70
  9
$TILEMODE
 70
     1
  9
$MAXACTVP
 70
    64
  9
$PLIMCHECK
 70
     0
  9
$PEXTMIN
 10
1.0000000000000000E+20
 20
1.0000000000000000E+20
 30
1.0000000000000000E+20
  9
$PEXTMAX
 10
-1.0000000000000000E+20
 20
-1.0000000000000000E+20
 30
-1.0000000000000000E+20
  9
$PLIMMIN
 10
0.0
 20
0.0
  9
$PLIMMAX
 10
12.0
 20
9.0
  9
$UNITMODE
 70
     0
  9
$VISRETAIN
 70
     1
  9
$PLINEGEN
 70
     0
  9
$PSLTSCALE
 70
     1
  0
ENDSEC
  0
SECTION
  2
TABLES
  0
TABLE
  2
VPORT
 70
     1
  0
VPORT
  2
*ACTIVE
 70
     0
 10
0.0
 20
0.0
 11
1.0
 21
1.0
 12
0.0000000000000071
 22
1.3954737558348389
 13
0.0
 23
0.0
 14
1.0
 24
1.0
 15
0.0
 25
0.0
 16
-0.0000000000000568
 26
0.0
 36
129.1629434655941964
 17
440.7568054199218182
 27
85.8270683982499065
 37
0.0
 40
37.9902499984613513
 41
2.6486111111111108
 42
50.0
 43
0.0
 44
0.0
 50
0.0
 51
0.0
 71
     0
 72
   100
 73
     1
 74
     1
 75
     0
 76
     0
 77
     0
 78
     0
  0
ENDTAB
  0
TABLE
  2
LTYPE
 70
     2
  0
LTYPE
  2
CONTINUOUS
 70
     0
  3
Solid line
 72
    65
 73
     0
 40
0.0
  0
LTYPE
  2
PHANTOM2
 70
     0
  3
___ _ _ ___ _ _ ___ _ _ ___ _ _
 72
    65
 73
     6
 40
1.25
 49
0.625
 49
-0.125
 49
0.125
 49
-0.125
 49
0.125
 49
-0.125
  0
ENDTAB
  0
TABLE
  2
LAYER
 70
     2
  0
LAYER
  2
0
 70
     0
 62
   255
  6
CONTINUOUS
  0
LAYER
  2
DEFPOINTS
 70
     0
 62
     7
  6
CONTINUOUS
  0
ENDTAB
  0
TABLE
  2
STYLE
 70
     1
  0
STYLE
  2
STANDARD
 70
     0
 40
0.0
 41
0.8
 50
0.0
 71
     0
 42
0.2
  3
txt
  4

  0
ENDTAB
  0
TABLE
  2
VIEW
 70
     0
  0
ENDTAB
  0
TABLE
  2
UCS
 70
     0
  0
ENDTAB
  0
TABLE
  2
APPID
 70
    10
  0
APPID
  2
ACAD
 70
     0
  0
APPID
  2
ACAD_MLEADERVER
 70
     0
  0
APPID
  2
ACAD_EXEMPT_FROM_CAD_STANDARDS
 70
     0
  0
APPID
  2
ACAD_DSTYLE_DIMJAG
 70
     0
  0
APPID
  2
ACAD_DSTYLE_DIMTALN
 70
     0
  0
APPID
  2
ACAD_NAV_VCDISPLAY
 70
     0
  0
APPID
  2
ACAECLAYERSTANDARD
 70
     0
  0
APPID
  2
ACCMTRANSPARENCY
 70
     0
  0
APPID
  2
DCO15
 70
     0
  0
APPID
  2
ACDBATTR
 70
     0
  0
ENDTAB
  0
TABLE
  2
DIMSTYLE
 70
     1
  0
DIMSTYLE
  2
STANDARD
 70
     0
  3

  4

  5

  6

  7

 40
1.0
 41
0.1875
 42
0.0625
 43
0.38
 44
0.125
 45
0.0
 46
0.0
 47
0.01
 48
0.01
140
0.15625
141
0.09
142
0.0
143
25.3999999999999986
144
1.0
145
0.0
146
1.0
147
0.09
 71
     1
 72
     0
 73
     1
 74
     1
 75
     0
 76
     0
 77
     0
 78
     4
170
     0
171
     2
172
     0
173
     0
174
     0
175
     0
176
     0
177
     0
178
     0
  0
ENDTAB
  0
ENDSEC
  0
SECTION
  2
BLOCKS
  0
BLOCK
  8
0
  2
$MODEL_SPACE
 70
     0
 10
0.0
 20
0.0
 30
0.0
  3
$MODEL_SPACE
  1

  0
ENDBLK
  5
21
  8
0
  0
BLOCK
 67
     1
  8
0
  2
$PAPER_SPACE
 70
     0
 10
0.0
 20
0.0
 30
0.0
  3
$PAPER_SPACE
  1

  0
ENDBLK
  5
1D
 67
     1
  8
0
  0
BLOCK
  8
0
  2
_FILLED
 70
     0
 10
0.0
 20
0.0
 30
0.0
  3
_FILLED
  1

  0
SOLID
  5
1831
  8
0
  6
BYBLOCK
 62
     0
 10
0.0
 20
0.0
 30
0.0
 11
-1.0
 21
0.1666666667
 31
0.0
 12
-1.0
 22
-0.1666666667
 32
0.0
 13
-1.0
 23
-0.1666666667
 33
0.0
  0
ENDBLK
  5
1832
  8
0
  6
BYBLOCK
 62
     0
  0
ENDSEC
  0
SECTION
  2
ENTITIES
  0
ATTDEF
  5
829
  8
DEFPOINTS
 10
440.7569562163868113
 20
68.3621973026846916
 30
0.0
 40
0.001
  1
K-5016T-YET
  3

  2
MODELNUMBER
 70
     0
1001
ACDBATTR
1070
     0
1070
     1
  0
ATTDEF
  5
82A
  8
DEFPOINTS
 10
440.7569562163868113
 20
68.3605306360180265
 30
0.0
 40
0.001
  1
DEXTER
  3

  2
TRADENAME
 70
     0
1001
ACDBATTR
1070
     0
1070
     1
  0
ATTDEF
  5
82B
  8
DEFPOINTS
 10
440.7569562163868113
 20
68.3588639693513613
 30
0.0
 40
0.001
  1
URINAL
  3

  2
PRODUCT
 70
     0
1001
ACDBATTR
1070
     0
1070
     1
  0
LINE
  5
18B5
  8
0
 10
436.7189319383820134
 20
82.9359310394601437
 30
0.0
 11
444.7946993059820215
 21
82.9359310394601437
 31
0.0
  0
LINE
  5
18B6
  8
0
 10
435.3047113614820205
 20
102.1509844049600986
 30
0.0
 11
434.7812058977820016
 21
99.7237330469601346
 31
0.0
  0
LINE
  5
18B7
  8
0
 10
440.7568156221819891
 20
99.7507620618790725
 30
0.0
 11
436.0931677288820083
 21
99.7507609883601134
 31
0.0
  0
LINE
  5
18B8
  8
0
 10
438.3705096618820107
 20
103.2132996197600932
 30
0.0
 11
436.1561036869820214
 21
102.9280120951600992
 31
0.0
  0
LINE
  5
18B9
  8
0
 10
440.7568156221819891
 20
103.2952698309600947
 30
0.0
 11
439.6482753294819759
 21
103.2952698309600947
 31
0.0
  0
ARC
  5
18BA
  8
0
 10
436.2839113579158266
 20
101.9330219016922001
 30
0.0
 40
1.0031651338871721
 50
97.3196292288578348
 51
167.4509809030932956
  0
ARC
  5
18BB
  8
0
 10
436.9058675827951106
 20
102.0147719888173015
 30
0.0
 40
1.0015567837152031
 50
97.3868343446671787
 51
115.3674031124780015
  0
ARC
  5
18BC
  8
0
 10
435.0059256767819988
 20
99.6747328337601601
 30
0.0
 40
0.2299999999
 50
167.6991778989996078
 51
194.2388814990003141
  0
ARC
  5
18BD
  8
0
 10
440.7483118051563906
 20
84.3797495223201537
 30
0.0
 40
1.430423759323824
 50
185.9516487216677945
 51
270.3406233238226832
  0
ARC
  5
18BE
  8
0
 10
440.7283939108256163
 20
84.4196475346332136
 30
0.0
 40
1.470571172662072
 50
271.1074237915399863
 51
354.2863717754727872
  0
ARC
  5
18BF
  8
0
 10
437.5911951730781766
 20
87.4815312499443536
 30
0.0
 40
0.2472500000000002
 50
90.0
 51
270.0
  0
ARC
  5
18C0
  8
0
 10
440.0357289598263151
 20
87.2555764445732649
 30
0.0
 40
16.0443723543481092
 50
91.3837634481614884
 51
95.9573640248994337
  0
ARC
  5
18C1
  8
0
 10
468.8518741945513852
 20
96.7556801917161948
 30
0.0
 40
35.2977172245060018
 50
189.5601281487209064
 51
202.388873084363297
  0
ARC
  5
18C2
  8
0
 10
448.4979700391610891
 20
92.6725667406683158
 30
0.0
 40
14.5626915267268799
 50
180.5876946749748129
 51
187.0177431154586998
  0
ARC
  5
18C3
  8
0
 10
455.3707508085989843
 20
92.2249087415066526
 30
0.0
 40
21.4367816371019799
 50
174.6267697240280938
 51
179.202716168836389
  0
ARC
  5
18C4
  8
0
 10
659.3588666946112653
 20
64.4234406669356616
 30
0.0
 40
227.2938487968320942
 50
171.1260166153500109
 51
172.464129656307307
  0
ARC
  5
18C5
  8
0
 10
432.2029653423002742
 20
99.4987665529913556
 30
0.0
 40
2.582787333495637
 50
359.7210099869462852
 51
2.649551199312945
  0
ARC
  5
18C6
  8
0
 10
436.7333100373120942
 20
83.4814114346312266
 30
0.0
 40
0.5456698555398041
 50
198.1862936665729933
 51
268.4901131434440913
  0
ARC
  5
18C7
  8
0
 10
440.1269006489878279
 20
97.3536780978472223
 30
0.0
 40
5.3873018443882037
 50
246.2063680641913095
 51
269.9260220671494039
  0
LINE
  5
18C8
  8
0
 10
440.1199447903409236
 20
91.9663807440176555
 30
0.0
 11
440.7568156221819891
 21
91.963484669116994
 31
0.0
  0
ARC
  5
18C9
  8
0
 10
439.3570042826156055
 20
95.1624998785421354
 30
0.0
 40
3.076997646469199
 50
198.0083861362699906
 51
242.8609726097866996
  0
ARC
  5
18CA
  8
0
 10
447.89982276917641
 20
97.9097008091689958
 30
0.0
 40
12.0506621170858903
 50
174.5650743979091999
 51
197.8731365197839978
  0
ARC
  5
18CB
  8
0
 10
463.6006237749155048
 20
97.2130459584720938
 30
0.0
 40
27.7582087816577499
 50
174.9614748360619956
 51
176.2033296014323867
  0
ARC
  5
18CC
  8
0
 10
436.0744108711700164
 20
99.6246833577852726
 30
0.0
 40
0.1274652448418692
 50
81.5380415169813517
 51
168.1189098722088033
  0
ARC
  5
18CD
  8
0
 10
436.8932058304404222
 20
102.0337158962032049
 30
0.0
 40
0.979020547163023
 50
115.1728162235809947
 51
167.8326348737180922
  0
ARC
  5
18CE
  8
0
 10
460.7120757062385792
 20
96.6277302589135729
 30
0.0
 40
25.4036096104899798
 50
167.2365403324091915
 51
174.0830743525523019
  0
ARC
  5
18CF
  8
0
 10
448.3359424777781896
 20
97.3862164259842444
 30
0.0
 40
13.0256600580962605
 50
171.7891389818973096
 51
189.0830253047932956
  0
ARC
  5
18D0
  8
0
 10
439.5252684421595859
 20
95.7758569505069062
 30
0.0
 40
4.0761197060884351
 50
186.2809512433395014
 51
237.2195737917737972
  0
ARC
  5
18D1
  8
0
 10
439.6514599119583977
 20
96.9469268381864566
 30
0.0
 40
5.1561213012458511
 50
243.0965096555817127
 51
266.7929347498841253
  0
ARC
  5
18D2
  8
0
 10
440.4603585395407777
 20
107.6007354969494969
 30
0.0
 40
15.8399117962340199
 50
266.0274864974251727
 51
271.0724006327072857
  0
ARC
  5
18D3
  8
0
 10
438.0512254491827093
 20
108.2192993436070054
 30
0.0
 40
8.6919578870538121
 50
256.9811065653794913
 51
268.9293169448199023
  0
ARC
  5
18D4
  8
0
 10
440.3205572035810178
 20
164.3871581815797072
 30
0.0
 40
64.9038702116691155
 50
267.8528007646031028
 51
270.3851227099921175
  0
ARC
  5
18D5
  8
0
 10
506.1212349281889828
 20
94.4599963397795079
 30
0.0
 40
71.5123627203472125
 50
175.969685335446286
 51
178.7746193927829097
  0
ARC
  5
18D6
  8
0
 10
454.0688685950955232
 20
95.1840082744345466
 30
0.0
 40
19.4603116217065413
 50
177.6283250762872115
 51
187.788512925207101
  0
ARC
  5
18D7
  8
0
 10
440.4247497994194873
 20
105.9637129188606934
 30
0.0
 40
16.8123771289853785
 50
265.4538429311805885
 51
271.13173808091409
  0
ARC
  5
18D8
  8
0
 10
439.4111172911364065
 20
94.922562192288126
 30
0.0
 40
5.727219638276825
 50
237.1089867106217923
 51
266.8075034747391214
  0
ARC
  5
18D9
  8
0
 10
438.4047351991770824
 20
93.1083507680779547
 30
0.0
 40
3.6599922134811802
 50
188.8256215644356075
 51
234.9147650808795902
  0
LINE
  5
18DA
  8
0
 10
446.2089198828819008
 20
102.1509844049600986
 30
0.0
 11
446.7324253465819766
 21
99.7237330469601346
 31
0.0
  0
LINE
  5
18DB
  8
0
 10
440.7568156221819891
 20
99.7507620618790725
 30
0.0
 11
445.4204635154820267
 21
99.7507609883601134
 31
0.0
  0
LINE
  5
18DC
  8
0
 10
443.1431215824820242
 20
103.2132996197600932
 30
0.0
 11
445.3575275573820136
 21
102.9280120951600992
 31
0.0
  0
LINE
  5
18DD
  8
0
 10
440.7568156221819891
 20
103.2952698309600947
 30
0.0
 11
441.8653559148820023
 21
103.2952698309600947
 31
0.0
  0
ARC
  5
18DE
  8
0
 10
445.2297198864480947
 20
101.9330219016922001
 30
0.0
 40
1.0031651338871721
 50
12.5490190969066706
 51
82.6803707711421652
  0
ARC
  5
18DF
  8
0
 10
444.6077636615689244
 20
102.0147719888173015
 30
0.0
 40
1.0015567837152031
 50
64.6325968875220269
 51
82.6131656553328355
  0
ARC
  5
18E0
  8
0
 10
446.5077055675819793
 20
99.6747328337601601
 30
0.0
 40
0.2299999999
 50
345.7611185009997143
 51
12.30082210100041
  0
ARC
  5
18E1
  8
0
 10
441.8562220256870887
 20
93.1528892528469754
 30
0.0
 40
10.1423846909500899
 50
82.7104711783500761
 51
89.948401348589357
  0
ARC
  5
18E2
  8
0
 10
412.6617570498125929
 20
96.7556801917161948
 30
0.0
 40
35.2977172245060018
 50
337.6111269156364187
 51
350.4398718512790083
  0
ARC
  5
18E3
  8
0
 10
433.0156612052028891
 20
92.6725667406683158
 30
0.0
 40
14.5626915267268799
 50
352.9822568845411865
 51
359.4123053250243061
  0
ARC
  5
18E4
  8
0
 10
426.1428804357649938
 20
92.2249087415066526
 30
0.0
 40
21.4367816371019799
 50
0.797283831163627
 51
5.3732302759718866
  0
ARC
  5
18E5
  8
0
 10
222.1547645497527981
 20
64.4234406669356616
 30
0.0
 40
227.2938487968320942
 50
7.5358703436927126
 51
8.8739833846500016
  0
ARC
  5
18E6
  8
0
 10
449.3106659020638176
 20
99.4987665529913556
 30
0.0
 40
2.582787333495637
 50
177.3504488006869906
 51
180.2789900130536012
  0
ARC
  5
18E7
  8
0
 10
444.7803212070518271
 20
83.4814114346312266
 30
0.0
 40
0.5456698555398041
 50
271.5098868565559087
 51
341.8137063334269783
  0
ARC
  5
18E8
  8
0
 10
441.386730595376207
 20
97.3536780978472223
 30
0.0
 40
5.3873018443882037
 50
270.0739779328507097
 51
293.7936319358087189
  0
LINE
  5
18E9
  8
0
 10
441.3936864540231113
 20
91.9663807440176555
 30
0.0
 11
440.7568156221819891
 21
91.963484669116994
 31
0.0
  0
ARC
  5
18EA
  8
0
 10
442.1566269617483727
 20
95.1624998785421354
 30
0.0
 40
3.076997646469199
 50
297.139027390213414
 51
341.9916138637299241
  0
ARC
  5
18EB
  8
0
 10
433.6138084751876249
 20
97.9097008091689958
 30
0.0
 40
12.0506621170858903
 50
342.1268634802160022
 51
5.4349256020908054
  0
ARC
  5
18EC
  8
0
 10
417.9130074694484733
 20
97.2130459584720938
 30
0.0
 40
27.7582087816577499
 50
3.7966703985675938
 51
5.0385251639379973
  0
ARC
  5
18ED
  8
0
 10
445.4392203731940754
 20
99.6246833577852726
 30
0.0
 40
0.1274652448418692
 50
11.8810901277912304
 51
98.4619584830186483
  0
ARC
  5
18EE
  8
0
 10
444.6204254139237264
 20
102.0337158962032049
 30
0.0
 40
0.979020547163023
 50
12.1673651262818705
 51
64.8271837764152963
  0
ARC
  5
18EF
  8
0
 10
420.8015555381253989
 20
96.6277302589135729
 30
0.0
 40
25.4036096104899798
 50
5.9169256474476439
 51
12.7634596675908103
  0
ARC
  5
18F0
  8
0
 10
433.1776887665856748
 20
97.3862164259842444
 30
0.0
 40
13.0256600580962605
 50
350.9169746952065907
 51
8.2108610181027242
  0
ARC
  5
18F1
  8
0
 10
441.9883628022045059
 20
95.7758569505069062
 30
0.0
 40
4.0761197060884351
 50
302.7804262082261175
 51
353.719048756660527
  0
ARC
  5
18F2
  8
0
 10
441.8621713324055236
 20
96.9469268381864566
 30
0.0
 40
5.1561213012458511
 50
273.2070652501126915
 51
296.9034903444182873
  0
ARC
  5
18F3
  8
0
 10
441.0532727048232005
 20
107.6007354969494969
 30
0.0
 40
15.8399117962340199
 50
268.9275993672927143
 51
273.9725135025714735
  0
ARC
  5
18F4
  8
0
 10
443.4624057951813256
 20
108.2192993436070054
 30
0.0
 40
8.6919578870538121
 50
271.0706830551800977
 51
283.0188934346205087
  0
ARC
  5
18F5
  8
0
 10
441.1930740407830172
 20
164.3871581815797072
 30
0.0
 40
64.9038702116691155
 50
269.6148772900078825
 51
272.1471992353968972
  0
ARC
  5
18F6
  8
0
 10
375.3923963161749953
 20
94.4599963397795079
 30
0.0
 40
71.5123627203472125
 50
1.225380607217081
 51
4.030314664553722
  0
ARC
  5
18F7
  8
0
 10
427.444762649268398
 20
95.1840082744345466
 30
0.0
 40
19.4603116217065413
 50
352.211487074792899
 51
2.3716749237127268
  0
ARC
  5
18F8
  8
0
 10
441.0888814449444908
 20
105.9637129188606934
 30
0.0
 40
16.8123771289853785
 50
268.86826191908591
 51
274.5461570688194115
  0
ARC
  5
18F9
  8
0
 10
442.1025139532275148
 20
94.922562192288126
 30
0.0
 40
5.727219638276825
 50
273.1924965252608786
 51
302.8910132893781793
  0
ARC
  5
18FA
  8
0
 10
443.1088960451868957
 20
93.1083507680779547
 30
0.0
 40
3.6599922134811802
 50
305.0852349191204098
 51
351.1743784355643925
  0
ARC
  5
18FB
  8
0
 10
439.6134986252898216
 20
93.0300446276650064
 30
0.0
 40
4.6672263407382317
 50
205.6514799751676037
 51
262.0078875397753109
  0
ARC
  5
18FC
  8
0
 10
440.7568156218343915
 20
96.8448289573600363
 30
0.0
 40
8.6249435179170284
 50
258.0067471515736202
 51
281.993252870804497
  0
ARC
  5
18FD
  8
0
 10
441.8648613805283958
 20
93.0997647138301261
 30
0.0
 40
4.7412404063567779
 50
278.2970676814013018
 51
334.7141904896361098
  0
ARC
  5
18FE
  8
0
 10
442.5010347509469284
 20
86.7018810322402658
 30
0.0
 40
0.3991461544086071
 50
118.9700269351023962
 51
180.3094157667846105
  0
ARC
  5
18FF
  8
0
 10
441.5997897078503911
 20
88.1962266268226358
 30
0.0
 40
1.346291510473119
 50
301.7240018697212918
 51
325.6423285544295254
  0
ARC
  5
1900
  8
0
 10
435.3488401851356002
 20
92.9210327134167073
 30
0.0
 40
9.1806890057430071
 50
323.3156837740878018
 51
332.1928796814116254
  0
ARC
  5
1901
  8
0
 10
439.0110637315449935
 20
86.7011751657629759
 30
0.0
 40
0.4010678991852361
 50
359.8656441101408063
 51
62.9854957101515467
  0
ARC
  5
1902
  8
0
 10
439.7401137142222751
 20
87.9846990142735734
 30
0.0
 40
1.0756169779885061
 50
220.1484085050497868
 51
239.4405317704523952
  0
ARC
  5
1903
  8
0
 10
445.1397658395761141
 20
92.2774835601613859
 30
0.0
 40
7.9733581368171604
 50
207.1972461274428099
 51
218.7094488457470902
  0
ARC
  5
1904
  8
0
 10
436.9462177578686806
 20
99.0739924094505682
 30
0.0
 40
0.5596527426680631
 50
76.5217361945801002
 51
102.3445534100334982
  0
ARC
  5
1905
  8
0
 10
436.957221447867596
 20
100.1861713719693938
 30
0.0
 40
0.5803630437239868
 50
256.9900081594215067
 51
281.8762814451924896
  0
ARC
  5
1906
  8
0
 10
436.5506077063656107
 20
99.1481667757597052
 30
0.0
 40
0.5596527426680631
 50
79.0365892629122868
 51
104.8594064783686974
  0
ARC
  5
1907
  8
0
 10
436.5128001939008868
 20
100.2597574008840979
 30
0.0
 40
0.5803630437239868
 50
259.5048612277552138
 51
284.39113451352722
  0
ARC
  5
1908
  8
0
 10
437.5223041044480965
 20
99.0215226630967749
 30
0.0
 40
0.5596527426680631
 50
76.2902480915808354
 51
102.1130653070377008
  0
ARC
  5
1909
  8
0
 10
437.5378011507519886
 20
100.1336480910134981
 30
0.0
 40
0.5803630437239868
 50
256.758520056422185
 51
281.6447933421951006
  0
ARC
  5
190A
  8
0
 10
438.1564478869307777
 20
98.990531858328481
 30
0.0
 40
0.5596527426680631
 50
77.4234769323921483
 51
103.2462941478465979
  0
ARC
  5
190B
  8
0
 10
438.1499470806971885
 20
100.1027462555476006
 30
0.0
 40
0.5803630437239868
 50
257.8917488972327874
 51
282.778022183003884
  0
ARC
  5
190C
  8
0
 10
438.8595491173338132
 20
98.9716341700506916
 30
0.0
 40
0.559652742668063
 50
77.7449498960216516
 51
103.5677671114732021
  0
ARC
  5
190D
  8
0
 10
438.8468080762560817
 20
100.0837945864185059
 30
0.0
 40
0.5803630437239866
 50
258.2132218608621201
 51
283.0994951466327052
  0
ARC
  5
190E
  8
0
 10
439.5922977172872947
 20
98.9621224766756029
 30
0.0
 40
0.5596527426680631
 50
77.3714126181337747
 51
103.1942298335893042
  0
ARC
  5
190F
  8
0
 10
439.5868075758218083
 20
100.0743423219443997
 30
0.0
 40
0.5803630437239868
 50
257.8396845829752806
 51
282.7259578687485941
  0
ARC
  5
1910
  8
0
 10
440.3394615311369193
 20
98.9588347186181636
 30
0.0
 40
0.5596527426680631
 50
77.3612751691105132
 51
103.1840923845647069
  0
ARC
  5
1911
  8
0
 10
440.3341681768857256
 20
100.0710555178589942
 30
0.0
 40
0.5803630437239868
 50
257.8295471339509959
 51
282.7158204197214104
  0
ARC
  5
1912
  8
0
 10
444.5674134932963852
 20
99.0739924094505682
 30
0.0
 40
0.5596527426680631
 50
77.6554465899665018
 51
103.4782638054198998
  0
ARC
  5
1913
  8
0
 10
444.5564098032975267
 20
100.1861713719693938
 30
0.0
 40
0.5803630437239868
 50
258.1237185548042135
 51
283.0099918405751964
  0
ARC
  5
1914
  8
0
 10
444.9630235447995119
 20
99.1481667757597052
 30
0.0
 40
0.5596527426680631
 50
75.1405935216313026
 51
100.963410737087699
  0
ARC
  5
1915
  8
0
 10
445.000831057264179
 20
100.2597574008840979
 30
0.0
 40
0.5803630437239868
 50
255.6088654864726948
 51
280.4951387722447862
  0
ARC
  5
1916
  8
0
 10
443.9913271467169125
 20
99.0215226630967749
 30
0.0
 40
0.5596527426680631
 50
77.8869346929622708
 51
103.7097519084190935
  0
ARC
  5
1917
  8
0
 10
443.9758301004130203
 20
100.1336480910134981
 30
0.0
 40
0.5803630437239868
 50
258.3552066578048994
 51
283.2414799435744044
  0
ARC
  5
1918
  8
0
 10
443.3571833642342881
 20
98.990531858328481
 30
0.0
 40
0.5596527426680631
 50
76.7537058521534163
 51
102.5765230676077948
  0
ARC
  5
1919
  8
0
 10
443.3636841704678773
 20
100.1027462555476006
 30
0.0
 40
0.5803630437239868
 50
257.221977816996116
 51
282.1082511027670989
  0
ARC
  5
191A
  8
0
 10
442.6540821338313094
 20
98.9716341700506916
 30
0.0
 40
0.559652742668063
 50
76.4322328885267694
 51
102.2550501039817021
  0
ARC
  5
191B
  8
0
 10
442.6668231749089841
 20
100.0837945864185059
 30
0.0
 40
0.5803630437239866
 50
256.9005048533672948
 51
281.7867781391378799
  0
ARC
  5
191C
  8
0
 10
441.9213335338777142
 20
98.9621224766756029
 30
0.0
 40
0.5596527426680631
 50
76.8057701664107242
 51
102.6285873818661969
  0
ARC
  5
191D
  8
0
 10
441.9268236753433143
 20
100.0743423219443997
 30
0.0
 40
0.5803630437239868
 50
257.2740421312514059
 51
282.1603154170247194
  0
ARC
  5
191E
  8
0
 10
441.1741697200282033
 20
98.9588347186181636
 30
0.0
 40
0.5596527426680631
 50
76.8159076154352931
 51
102.638724830889501
  0
ARC
  5
191F
  8
0
 10
441.179463074279397
 20
100.0710555178589942
 30
0.0
 40
0.5803630437239868
 50
257.2841795802787033
 51
282.1704528660490041
  0
LINE
  5
1921
  8
0
 10
439.4121305280340266
 20
86.7002346813928852
 30
0.0
 11
439.4041493174340758
 21
84.3237877978928765
 31
0.0
  0
LINE
  5
1922
  8
0
 10
442.1018944167731775
 20
86.6997255242048652
 30
0.0
 11
442.1100068351340155
 21
84.3234960707928849
 31
0.0
  0
ARC
  5
1923
  8
0
 10
437.9091303354791762
 20
87.4815312499443536
 30
0.0
 40
0.2472500000000002
 50
270.0
 51
90.0
  0
LINE
  5
1924
  8
0
 10
437.5911951730781766
 20
87.7287812499443334
 30
0.0
 11
437.9091303354791762
 21
87.7287812499443334
 31
0.0
  0
LINE
  5
1925
  8
0
 10
437.5911951730781766
 20
87.2342812499443596
 30
0.0
 11
437.9091303354791762
 21
87.2342812499443596
 31
0.0
  0
LINE
  5
1926
  8
0
 10
439.3255983851340147
 20
84.2314300841928656
 30
0.0
 11
439.3786347723371932
 21
86.8616338511861983
 31
0.0
  0
ARC
  5
1927
  8
0
 10
443.9224360712858015
 20
87.4815312499443536
 30
0.0
 40
0.2472500000000002
 50
270.0
 51
90.0
  0
ARC
  5
1928
  8
0
 10
443.6045009088848019
 20
87.4815312499443536
 30
0.0
 40
0.2472500000000002
 50
90.0
 51
270.0
  0
LINE
  5
1929
  8
0
 10
443.9224360712858015
 20
87.7287812499443334
 30
0.0
 11
443.6045009088848019
 21
87.7287812499443334
 31
0.0
  0
LINE
  5
192A
  8
0
 10
443.9224360712858015
 20
87.2342812499443596
 30
0.0
 11
443.6045009088848019
 21
87.2342812499443596
 31
0.0
  0
LINE
  5
192B
  8
0
 10
442.1916591651340127
 20
84.2732427211928723
 30
0.0
 11
442.1335969678233937
 21
86.8577884666764248
 31
0.0
  0
ARC
  5
192C
  8
0
 10
440.7570635167454043
 20
87.4789437980987827
 30
0.0
 40
1.6193659634128359
 50
195.0490114551886052
 51
211.3485070719399914
  0
ARC
  5
192D
  8
0
 10
440.7575766842959979
 20
87.4786781824881245
 30
0.0
 40
1.618789592713233
 50
328.5541611579990899
 51
344.9927142655038779
  0
LINE
  5
192E
  8
0
 10
439.488292433173001
 20
82.9359310394601437
 30
0.0
 11
439.4893958549340027
 21
82.9169044948928757
 31
0.0
  0
LINE
  5
192F
  8
0
 10
439.4893958549355943
 20
82.9169044948657046
 30
0.0
 11
442.0247311784340809
 21
82.9169044948928757
 31
0.0
  0
LINE
  5
1930
  8
0
 10
442.0247311784340809
 20
82.9169044948928757
 30
0.0
 11
442.0258342444059849
 21
82.9359310394601437
 31
0.0
  0
ENDSEC
  0
EOF
