  0
SECTION
  2
HEADER
  9
$ACADVER
  1
AC1009
  9
$INSBASE
 10
474.6258530931764881
 20
89.4788506009466857
 30
0.0
  9
$EXTMIN
 10
467.8050820492646835
 20
74.978850602399234
 30
0.0
  9
$EXTMAX
 10
481.4466241370881789
 20
89.4857661053667357
 30
0.0
  9
$LIMMIN
 10
0.0
 20
0.0
  9
$LIMMAX
 10
11.6929133858000007
 20
8.2677165353999982
  9
$ORTHOMODE
 70
     1
  9
$REGENMODE
 70
     1
  9
$FILLMODE
 70
     1
  9
$QTEXTMODE
 70
     0
  9
$MIRRTEXT
 70
     0
  9
$DRAGMODE
 70
     2
  9
$LTSCALE
 40
0.6431102362
  9
$OSMODE
 70
  2047
  9
$ATTMODE
 70
     1
  9
$TEXTSIZE
 40
0.2
  9
$TRACEWID
 40
0.05
  9
$TEXTSTYLE
  7
STANDARD
  9
$CLAYER
  8
0
  9
$CELTYPE
  6
BYLAYER
  9
$CECOLOR
 62
   256
  9
$DIMSCALE
 40
1.0
  9
$DIMASZ
 40
0.1875
  9
$DIMEXO
 40
0.0625
  9
$DIMDLI
 40
0.4443307087
  9
$DIMRND
 40
0.0
  9
$DIMDLE
 40
0.0
  9
$DIMEXE
 40
0.125
  9
$DIMTP
 40
0.01
  9
$DIMTM
 40
0.01
  9
$DIMTXT
 40
1.0
  9
$DIMCEN
 40
0.1052362205
  9
$DIMTSZ
 40
0.0
  9
$DIMTOL
 70
     1
  9
$DIMLIM
 70
     0
  9
$DIMTIH
 70
     0
  9
$DIMTOH
 70
     1
  9
$DIMSE1
 70
     0
  9
$DIMSE2
 70
     0
  9
$DIMTAD
 70
     0
  9
$DIMZIN
 70
     0
  9
$DIMBLK
  1

  9
$DIMASO
 70
     1
  9
$DIMSHO
 70
     1
  9
$DIMPOST
  1
\X
  9
$DIMAPOST
  1

  9
$DIMALT
 70
     1
  9
$DIMALTD
 70
     2
  9
$DIMALTF
 40
25.3999999999999986
  9
$DIMLFAC
 40
1.0
  9
$DIMTOFL
 70
     0
  9
$DIMTVP
 40
0.0
  9
$DIMTIX
 70
     0
  9
$DIMSOXD
 70
     0
  9
$DIMSAH
 70
     0
  9
$DIMBLK1
  1

  9
$DIMBLK2
  1

  9
$DIMSTYLE
  2
STANDARD
  9
$DIMCLRD
 70
     0
  9
$DIMCLRE
 70
     0
  9
$DIMCLRT
 70
     0
  9
$DIMTFAC
 40
1.0
  9
$DIMGAP
 40
0.09
  9
$LUNITS
 70
     2
  9
$LUPREC
 70
     4
  9
$SKETCHINC
 40
0.1
  9
$FILLETRAD
 40
0.0
  9
$AUNITS
 70
     0
  9
$AUPREC
 70
     0
  9
$MENU
  1
.
  9
$ELEVATION
 40
0.0
  9
$PELEVATION
 40
0.0
  9
$THICKNESS
 40
0.0
  9
$LIMCHECK
 70
     0
  9
$BLIPMODE
 70
     0
  9
$CHAMFERA
 40
0.0
  9
$CHAMFERB
 40
0.0
  9
$SKPOLY
 70
     0
  9
$TDCREATE
 40
2458172.5207638889551163
  9
$TDUPDATE
 40
2459029.6461342591792345
  9
$TDINDWG
 40
0.0727391898
  9
$TDUSRTIMER
 40
0.0727391898
  9
$USRTIMER
 70
     1
  9
$ANGBASE
 50
0.0
  9
$ANGDIR
 70
     0
  9
$PDMODE
 70
     0
  9
$PDSIZE
 40
0.3125
  9
$PLINEWID
 40
0.0
  9
$COORDS
 70
     1
  9
$SPLFRAME
 70
     0
  9
$SPLINETYPE
 70
     6
  9
$SPLINESEGS
 70
     8
  9
$ATTDIA
 70
     1
  9
$ATTREQ
 70
     1
  9
$HANDLING
 70
     1
  9
$HANDSEED
  5
1AD6
  9
$SURFTAB1
 70
     6
  9
$SURFTAB2
 70
     6
  9
$SURFTYPE
 70
     6
  9
$SURFU
 70
     6
  9
$SURFV
 70
     6
  9
$UCSNAME
  2

  9
$UCSORG
 10
0.0
 20
0.0
 30
0.0
  9
$UCSXDIR
 10
1.0
 20
0.0
 30
0.0
  9
$UCSYDIR
 10
0.0
 20
1.0
 30
0.0
  9
$PUCSNAME
  2

  9
$PUCSORG
 10
0.0
 20
0.0
 30
0.0
  9
$PUCSXDIR
 10
1.0
 20
0.0
 30
0.0
  9
$PUCSYDIR
 10
0.0
 20
1.0
 30
0.0
  9
$USERI1
 70
     0
  9
$USERI2
 70
     0
  9
$USERI3
 70
     0
  9
$USERI4
 70
     0
  9
$USERI5
 70
     0
  9
$USERR1
 40
0.0
  9
$USERR2
 40
0.0
  9
$USERR3
 40
0.0
  9
$USERR4
 40
0.0
  9
$USERR5
 40
0.0
  9
$WORLDVIEW
 70
     1
  9
$SHADEDGE
 70
     3
  9
$SHADEDIF
 70
    70
  9
$TILEMODE
 70
     1
  9
$MAXACTVP
 70
    64
  9
$PLIMCHECK
 70
     0
  9
$PEXTMIN
 10
1.0000000000000000E+20
 20
1.0000000000000000E+20
 30
1.0000000000000000E+20
  9
$PEXTMAX
 10
-1.0000000000000000E+20
 20
-1.0000000000000000E+20
 30
-1.0000000000000000E+20
  9
$PLIMMIN
 10
0.0
 20
0.0
  9
$PLIMMAX
 10
12.0
 20
9.0
  9
$UNITMODE
 70
     0
  9
$VISRETAIN
 70
     1
  9
$PLINEGEN
 70
     0
  9
$PSLTSCALE
 70
     1
  0
ENDSEC
  0
SECTION
  2
TABLES
  0
TABLE
  2
VPORT
 70
     1
  0
VPORT
  2
*ACTIVE
 70
     0
 10
0.0
 20
0.0
 11
1.0
 21
1.0
 12
0.0
 22
0.1248323318058198
 13
0.0
 23
0.0
 14
1.0
 24
1.0
 15
0.0
 25
0.0
 16
0.0
 26
0.0
 36
68.5788973145690193
 17
474.6258544921873863
 27
82.2323087118630411
 37
0.0
 40
20.1689398837429792
 41
2.6486111111111108
 42
50.0
 43
0.0
 44
0.0
 50
0.0
 51
0.0
 71
     0
 72
   100
 73
     1
 74
     1
 75
     0
 76
     0
 77
     0
 78
     0
  0
ENDTAB
  0
TABLE
  2
LTYPE
 70
     2
  0
LTYPE
  2
CONTINUOUS
 70
     0
  3
Solid line
 72
    65
 73
     0
 40
0.0
  0
LTYPE
  2
PHANTOM2
 70
     0
  3
___ _ _ ___ _ _ ___ _ _ ___ _ _
 72
    65
 73
     6
 40
1.25
 49
0.625
 49
-0.125
 49
0.125
 49
-0.125
 49
0.125
 49
-0.125
  0
ENDTAB
  0
TABLE
  2
LAYER
 70
     2
  0
LAYER
  2
0
 70
     0
 62
   255
  6
CONTINUOUS
  0
LAYER
  2
DEFPOINTS
 70
     0
 62
     7
  6
CONTINUOUS
  0
ENDTAB
  0
TABLE
  2
STYLE
 70
     1
  0
STYLE
  2
STANDARD
 70
     0
 40
0.0
 41
0.8
 50
0.0
 71
     0
 42
0.2
  3
txt
  4

  0
ENDTAB
  0
TABLE
  2
VIEW
 70
     0
  0
ENDTAB
  0
TABLE
  2
UCS
 70
     0
  0
ENDTAB
  0
TABLE
  2
APPID
 70
    10
  0
APPID
  2
ACAD
 70
     0
  0
APPID
  2
ACAD_MLEADERVER
 70
     0
  0
APPID
  2
ACAD_EXEMPT_FROM_CAD_STANDARDS
 70
     0
  0
APPID
  2
ACAD_DSTYLE_DIMJAG
 70
     0
  0
APPID
  2
ACAD_DSTYLE_DIMTALN
 70
     0
  0
APPID
  2
ACAD_NAV_VCDISPLAY
 70
     0
  0
APPID
  2
ACAECLAYERSTANDARD
 70
     0
  0
APPID
  2
ACCMTRANSPARENCY
 70
     0
  0
APPID
  2
DCO15
 70
     0
  0
APPID
  2
ACDBATTR
 70
     0
  0
ENDTAB
  0
TABLE
  2
DIMSTYLE
 70
     1
  0
DIMSTYLE
  2
STANDARD
 70
     0
  3

  4

  5

  6

  7

 40
1.0
 41
0.1875
 42
0.0625
 43
0.38
 44
0.125
 45
0.0
 46
0.0
 47
0.01
 48
0.01
140
0.15625
141
0.09
142
0.0
143
25.3999999999999986
144
1.0
145
0.0
146
1.0
147
0.09
 71
     1
 72
     0
 73
     1
 74
     1
 75
     0
 76
     0
 77
     0
 78
     4
170
     0
171
     2
172
     0
173
     0
174
     0
175
     0
176
     0
177
     0
178
     0
  0
ENDTAB
  0
ENDSEC
  0
SECTION
  2
BLOCKS
  0
BLOCK
  8
0
  2
$MODEL_SPACE
 70
     0
 10
0.0
 20
0.0
 30
0.0
  3
$MODEL_SPACE
  1

  0
ENDBLK
  5
21
  8
0
  0
BLOCK
 67
     1
  8
0
  2
$PAPER_SPACE
 70
     0
 10
0.0
 20
0.0
 30
0.0
  3
$PAPER_SPACE
  1

  0
ENDBLK
  5
1D
 67
     1
  8
0
  0
ENDSEC
  0
SECTION
  2
ENTITIES
  0
ATTDEF
  5
829
  8
DEFPOINTS
 10
474.6227706912991948
 20
89.4847661053667167
 30
0.0
 40
0.001
  1
K-5016T-YET
  3

  2
MODELNUMBER
 70
     0
1001
ACDBATTR
1070
     0
1070
     1
  0
ATTDEF
  5
82A
  8
DEFPOINTS
 10
474.6227706912991948
 20
89.4830994387000374
 30
0.0
 40
0.001
  1
DEXTER
  3

  2
TRADENAME
 70
     0
1001
ACDBATTR
1070
     0
1070
     1
  0
ATTDEF
  5
82B
  8
DEFPOINTS
 10
474.6227706912991948
 20
89.4814327720333722
 30
0.0
 40
0.001
  1
URINAL
  3

  2
PRODUCT
 70
     0
1001
ACDBATTR
1070
     0
1070
     1
  0
LINE
  5
1659
  8
0
 10
469.0959234855765771
 20
89.3409610951466959
 30
0.0
 11
469.1992580480765014
 21
87.602250932746685
 31
0.0
  0
LINE
  5
165A
  8
0
 10
469.3064669621763869
 20
86.8227175585466853
 30
0.0
 11
469.6872670150254976
 21
85.0707651336423964
 31
0.0
  0
LINE
  5
165B
  8
0
 10
474.6258530931764881
 20
89.4788506009466857
 30
0.0
 11
467.9403014225766242
 21
89.4788516869466974
 31
0.0
  0
ARC
  5
165C
  8
0
 10
474.6070014693921735
 20
69.0925928992820531
 30
0.0
 40
16.5063654665943282
 50
89.9345635041966034
 51
93.7390078698377351
  0
CIRCLE
  5
165D
  8
0
 10
474.6258530930766142
 20
81.1655335766466948
 30
0.0
 40
1.0
  0
ARC
  5
165E
  8
0
 10
467.9442132382226873
 20
89.3393150625704919
 30
0.0
 40
0.1395914461704466
 50
91.6058281397316136
 51
175.3459833864955044
  0
ARC
  5
165F
  8
0
 10
468.7944584579540788
 20
89.3488531896955749
 30
0.0
 40
0.1299983585023647
 50
90.0001289071610557
 51
178.7465391239321946
  0
ARC
  5
1661
  8
0
 10
474.7021905672144158
 20
76.7976112092561323
 30
0.0
 40
1.820361929671372
 50
231.4714786615803916
 51
267.5965779277913157
  0
ARC
  5
1662
  8
0
 10
483.074711145489573
 20
86.3174205719777206
 30
0.0
 40
14.4962286426188101
 50
214.1640312970523041
 51
229.0206838624658872
  0
ARC
  5
1663
  8
0
 10
482.9131742623894752
 20
86.8656310360156141
 30
0.0
 40
14.6805175122212095
 50
195.5122874579033123
 51
216.2889182156442871
  0
ARC
  5
1664
  8
0
 10
478.8449533475214821
 20
85.3741410075496248
 30
0.0
 40
10.3674779759775593
 50
169.4302060286198071
 51
193.5824351003830941
  0
ARC
  5
1665
  8
0
 10
476.6483050951352993
 20
89.1926680456281957
 30
0.0
 40
8.8847404661795402
 50
191.9432330705703862
 51
203.2052136576558041
  0
ARC
  5
1666
  8
0
 10
483.7346728783496133
 20
89.5498546844820282
 30
0.0
 40
15.9308364484331904
 50
180.7164961206221108
 51
187.9225497764603858
  0
ARC
  5
1667
  8
0
 10
506.1330964217946189
 20
88.1133589980389758
 30
0.0
 40
37.4890631730579429
 50
178.1070626827898877
 51
181.2800535687136119
  0
ARC
  5
1668
  8
0
 10
474.3704258350545047
 20
72.496755735933931
 30
0.0
 40
13.0940286267330794
 50
93.6773939803824334
 51
99.1098605430805009
  0
ARC
  5
1669
  8
0
 10
473.7604381453717224
 20
76.2335495503579637
 30
0.0
 40
9.307796555739376
 50
99.0442744365788172
 51
106.0917066245423968
  0
ARC
  5
166A
  8
0
 10
470.3153909582292158
 20
88.1053811514315441
 30
0.0
 40
3.0538333123204819
 50
277.1331771424701742
 51
286.4573030436346244
  0
ARC
  5
166B
  8
0
 10
469.2243262151150134
 20
89.3501328540802433
 30
0.0
 40
0.1287298804274222
 50
90.7576881191421734
 51
184.0856768892020057
  0
ARC
  5
166C
  8
0
 10
474.6531517157803819
 20
87.9551838673201303
 30
0.0
 40
5.465301253812771
 50
183.7025678444927905
 51
191.9589142725482986
  0
ARC
  5
166D
  8
0
 10
470.9112143305871996
 20
80.6466261382443577
 30
0.0
 40
4.4338520365582923
 50
92.8002291751486865
 51
101.8820912199709028
  0
ARC
  5
166E
  8
0
 10
472.1732097816259284
 20
80.8967864201047746
 30
0.0
 40
4.6311607070736622
 50
118.0100877476887007
 51
119.7418202935999005
  0
ARC
  5
166F
  8
0
 10
469.8837743409605991
 20
85.1204023036287936
 30
0.0
 40
0.2026794952391846
 50
194.1762044934403093
 51
267.7240472960036755
  0
ARC
  5
1670
  8
0
 10
470.0434244860063018
 20
84.394750715200388
 30
0.0
 40
0.7640966156690415
 50
117.7824557287621019
 51
163.0094633133730042
  0
ARC
  5
1671
  8
0
 10
475.2849984047887233
 20
83.57363371819973
 30
0.0
 40
6.0629506610655728
 50
170.0808241619077137
 51
205.3467127765183875
  0
ARC
  5
1672
  8
0
 10
483.3661956187556825
 20
85.8329298697667866
 30
0.0
 40
14.4033374307803399
 50
199.6979597375851085
 51
219.3807068218474114
  0
ARC
  5
1673
  8
0
 10
474.6791513736623074
 20
76.9738819951713253
 30
0.0
 40
1.5882262274000369
 50
212.0564034797970976
 51
268.0768860639579998
  0
ARC
  5
1674
  8
0
 10
484.0427174403824893
 20
85.8455005381964042
 30
0.0
 40
14.4592232629822792
 50
205.2371886488265034
 51
222.2107939219536092
  0
ARC
  5
1675
  8
0
 10
483.9213200340934122
 20
85.7485240980002033
 30
0.0
 40
14.3081108625190101
 50
187.561055482274412
 51
205.0931881100310079
  0
ARC
  5
1676
  8
0
 10
471.9015634839896052
 20
84.1168441620299774
 30
0.0
 40
2.17845873907121
 50
158.4256154384748925
 51
186.6167585226642984
  0
LINE
  5
1677
  8
0
 10
480.1557827007765127
 20
89.3409610951466959
 30
0.0
 11
480.0524481382764179
 21
87.602250932746685
 31
0.0
  0
LINE
  5
1678
  8
0
 10
479.9452392241764755
 20
86.8227175585466853
 30
0.0
 11
479.5644391713274786
 21
85.0707651336423964
 31
0.0
  0
LINE
  5
1679
  8
0
 10
474.6258530931764881
 20
89.4788506009466857
 30
0.0
 11
481.3114047637765225
 21
89.4788516869466974
 31
0.0
  0
ARC
  5
167A
  8
0
 10
474.6447047169608027
 20
69.0925928992820531
 30
0.0
 40
16.5063654665943282
 50
86.2609921301622649
 51
90.0654364958066509
  0
ARC
  5
167B
  8
0
 10
481.3074929481301751
 20
89.3393150625704919
 30
0.0
 40
0.1395914461704466
 50
4.6540166135044796
 51
88.3941718602683864
  0
ARC
  5
167C
  8
0
 10
480.4572477283990111
 20
89.3488531896955749
 30
0.0
 40
0.1299983585023647
 50
1.253460876067735
 51
89.9998710928356758
  0
ARC
  5
167D
  8
0
 10
474.6009401657166791
 20
76.6598205936022623
 30
0.0
 40
1.681154592915149
 50
270.8490937437941284
 51
310.0828496668303274
  0
ARC
  5
167E
  8
0
 10
466.1769950408634031
 20
86.3174205719777206
 30
0.0
 40
14.4962286426188101
 50
310.9793161375339992
 51
325.8359687029475822
  0
ARC
  5
167F
  8
0
 10
466.3385319239636146
 20
86.8656310360156141
 30
0.0
 40
14.6805175122212095
 50
323.7110817843557129
 51
344.487712542096574
  0
ARC
  5
1680
  8
0
 10
470.4067528388316077
 20
85.3741410075496248
 30
0.0
 40
10.3674779759775593
 50
346.4175648996168775
 51
10.5697939713801805
  0
ARC
  5
1681
  8
0
 10
472.6034010912176768
 20
89.1926680456281957
 30
0.0
 40
8.8847404661795402
 50
336.7947863423441959
 51
348.0567669294287043
  0
ARC
  5
1682
  8
0
 10
465.5170333080034197
 20
89.5498546844820282
 30
0.0
 40
15.9308364484331904
 50
352.0774502235389036
 51
359.2835038793779177
  0
ARC
  5
1683
  8
0
 10
443.1186097645585278
 20
88.1133589980389758
 30
0.0
 40
37.4890631730579429
 50
358.7199464312864166
 51
1.8929373172101309
  0
ARC
  5
1684
  8
0
 10
474.8812803512985283
 20
72.496755735933931
 30
0.0
 40
13.0940286267330794
 50
80.8901394569194991
 51
86.3226060196175666
  0
ARC
  5
1685
  8
0
 10
475.4912680409811969
 20
76.2335495503579637
 30
0.0
 40
9.307796555739376
 50
73.908293375457589
 51
80.9557255634211685
  0
ARC
  5
1686
  8
0
 10
478.9363152281238172
 20
88.1053811514315441
 30
0.0
 40
3.0538333123204819
 50
253.542696956365404
 51
262.8668228575298258
  0
ARC
  5
1687
  8
0
 10
480.0273799712380196
 20
89.3501328540802433
 30
0.0
 40
0.1287298804274222
 50
355.9143231107980228
 51
89.2423118808578408
  0
ARC
  5
1688
  8
0
 10
474.5985544705724806
 20
87.9551838673201303
 30
0.0
 40
5.465301253812771
 50
348.0410857274516729
 51
356.2974321555063284
  0
ARC
  5
1689
  8
0
 10
478.3404918557658903
 20
80.6466261382443577
 30
0.0
 40
4.4338520365582923
 50
78.1179087800290688
 51
87.1997708248480734
  0
ARC
  5
168A
  8
0
 10
477.0784964047272183
 20
80.8967864201047746
 30
0.0
 40
4.6311607070736622
 50
60.2581797064000497
 51
61.9899122523113135
  0
ARC
  5
168B
  8
0
 10
479.367931845392377
 20
85.1204023036287936
 30
0.0
 40
0.2026794952391846
 50
272.2759527039963245
 51
345.823795506559577
  0
ARC
  5
168C
  8
0
 10
479.2082817003467881
 20
84.394750715200388
 30
0.0
 40
0.7640966156690415
 50
16.9905366866261893
 51
62.2175442712378697
  0
ARC
  5
168D
  8
0
 10
473.9667077815644234
 20
83.57363371819973
 30
0.0
 40
6.0629506610655728
 50
334.6532872234816978
 51
9.9191758380922632
  0
ARC
  5
168E
  8
0
 10
465.8855105675971799
 20
85.8329298697667866
 30
0.0
 40
14.4033374307803399
 50
320.6192931781525886
 51
340.3020402624147778
  0
ARC
  5
168F
  8
0
 10
474.5725548126906119
 20
76.9738819951713253
 30
0.0
 40
1.5882262274000369
 50
271.9231139360421139
 51
327.9435965202027887
  0
ARC
  5
1690
  8
0
 10
465.2089887459703732
 20
85.8455005381964042
 30
0.0
 40
14.4592232629822792
 50
317.7892060780463908
 51
334.762811351172104
  0
ARC
  5
1691
  8
0
 10
465.3303861522596208
 20
85.7485240980002033
 30
0.0
 40
14.3081108625190101
 50
334.9068118899689921
 51
352.4389445177254743
  0
ARC
  5
1692
  8
0
 10
477.3501427023633141
 20
84.1168441620299774
 30
0.0
 40
2.17845873907121
 50
353.3832414773356732
 51
21.5743845615250791
  0
CIRCLE
  5
19C9
  8
0
 10
474.6258530930766142
 20
87.0988506009467045
 30
0.0
 40
0.8275
  0
ENDSEC
  0
EOF
