  0
SECTION
  2
HEADER
  9
$ACADVER
  1
AC1009
  9
$INSBASE
 10
4353.3499136511536562
 20
222.6590737496293002
 30
0.0
  9
$EXTMIN
 10
4344.5585651426172262
 20
222.6536009619935896
 30
-0.0000000000000058
  9
$EXTMAX
 10
4361.7967670233883837
 20
247.8228670067005055
 30
0.0000000000000104
  9
$LIMMIN
 10
0.0
 20
0.0
  9
$LIMMAX
 10
11.6929133858000007
 20
8.2677165353999982
  9
$ORTHOMODE
 70
     0
  9
$REGENMODE
 70
     1
  9
$FILLMODE
 70
     1
  9
$QTEXTMODE
 70
     0
  9
$MIRRTEXT
 70
     0
  9
$DRAGMODE
 70
     2
  9
$LTSCALE
 40
0.6431102362
  9
$OSMODE
 70
  4095
  9
$ATTMODE
 70
     1
  9
$TEXTSIZE
 40
0.2
  9
$TRACEWID
 40
0.05
  9
$TEXTSTYLE
  7
STANDARD
  9
$CLAYER
  8
0
  9
$CELTYPE
  6
BYLAYER
  9
$CECOLOR
 62
   256
  9
$DIMSCALE
 40
1.0
  9
$DIMASZ
 40
0.1875
  9
$DIMEXO
 40
0.0625
  9
$DIMDLI
 40
0.4443307087
  9
$DIMRND
 40
0.0
  9
$DIMDLE
 40
0.0
  9
$DIMEXE
 40
0.125
  9
$DIMTP
 40
0.01
  9
$DIMTM
 40
0.01
  9
$DIMTXT
 40
2.0
  9
$DIMCEN
 40
0.1052362205
  9
$DIMTSZ
 40
0.0
  9
$DIMTOL
 70
     1
  9
$DIMLIM
 70
     0
  9
$DIMTIH
 70
     1
  9
$DIMTOH
 70
     1
  9
$DIMSE1
 70
     0
  9
$DIMSE2
 70
     0
  9
$DIMTAD
 70
     0
  9
$DIMZIN
 70
     0
  9
$DIMBLK
  1

  9
$DIMASO
 70
     1
  9
$DIMSHO
 70
     1
  9
$DIMPOST
  1
\X
  9
$DIMAPOST
  1

  9
$DIMALT
 70
     1
  9
$DIMALTD
 70
     2
  9
$DIMALTF
 40
25.3999999999999986
  9
$DIMLFAC
 40
1.0
  9
$DIMTOFL
 70
     0
  9
$DIMTVP
 40
0.0
  9
$DIMTIX
 70
     0
  9
$DIMSOXD
 70
     0
  9
$DIMSAH
 70
     0
  9
$DIMBLK1
  1

  9
$DIMBLK2
  1

  9
$DIMSTYLE
  2
STANDARD
  9
$DIMCLRD
 70
     0
  9
$DIMCLRE
 70
     0
  9
$DIMCLRT
 70
     0
  9
$DIMTFAC
 40
1.0
  9
$DIMGAP
 40
0.09
  9
$LUNITS
 70
     2
  9
$LUPREC
 70
     4
  9
$SKETCHINC
 40
0.1
  9
$FILLETRAD
 40
0.0
  9
$AUNITS
 70
     0
  9
$AUPREC
 70
     0
  9
$MENU
  1
.
  9
$ELEVATION
 40
0.0
  9
$PELEVATION
 40
0.0
  9
$THICKNESS
 40
0.0
  9
$LIMCHECK
 70
     0
  9
$BLIPMODE
 70
     0
  9
$CHAMFERA
 40
0.0
  9
$CHAMFERB
 40
0.0
  9
$SKPOLY
 70
     0
  9
$TDCREATE
 40
2458060.468368056230247
  9
$TDUPDATE
 40
2459229.9072453710250556
  9
$TDINDWG
 40
0.6436760417
  9
$TDUSRTIMER
 40
0.6436760417
  9
$USRTIMER
 70
     1
  9
$ANGBASE
 50
0.0
  9
$ANGDIR
 70
     0
  9
$PDMODE
 70
     0
  9
$PDSIZE
 40
0.3125
  9
$PLINEWID
 40
0.0
  9
$COORDS
 70
     1
  9
$SPLFRAME
 70
     0
  9
$SPLINETYPE
 70
     6
  9
$SPLINESEGS
 70
     8
  9
$ATTDIA
 70
     1
  9
$ATTREQ
 70
     1
  9
$HANDLING
 70
     1
  9
$HANDSEED
  5
139FE
  9
$SURFTAB1
 70
     6
  9
$SURFTAB2
 70
     6
  9
$SURFTYPE
 70
     6
  9
$SURFU
 70
     6
  9
$SURFV
 70
     6
  9
$UCSNAME
  2

  9
$UCSORG
 10
0.0
 20
0.0
 30
0.0
  9
$UCSXDIR
 10
1.0
 20
0.0
 30
0.0
  9
$UCSYDIR
 10
0.0
 20
1.0
 30
0.0
  9
$PUCSNAME
  2

  9
$PUCSORG
 10
0.0
 20
0.0
 30
0.0
  9
$PUCSXDIR
 10
1.0
 20
0.0
 30
0.0
  9
$PUCSYDIR
 10
0.0
 20
1.0
 30
0.0
  9
$USERI1
 70
     0
  9
$USERI2
 70
     0
  9
$USERI3
 70
     0
  9
$USERI4
 70
     0
  9
$USERI5
 70
     0
  9
$USERR1
 40
0.0
  9
$USERR2
 40
0.0
  9
$USERR3
 40
0.0
  9
$USERR4
 40
0.0
  9
$USERR5
 40
0.0
  9
$WORLDVIEW
 70
     1
  9
$SHADEDGE
 70
     3
  9
$SHADEDIF
 70
    70
  9
$TILEMODE
 70
     1
  9
$MAXACTVP
 70
    64
  9
$PLIMCHECK
 70
     0
  9
$PEXTMIN
 10
1.0000000000000000E+20
 20
1.0000000000000000E+20
 30
1.0000000000000000E+20
  9
$PEXTMAX
 10
-1.0000000000000000E+20
 20
-1.0000000000000000E+20
 30
-1.0000000000000000E+20
  9
$PLIMMIN
 10
0.0
 20
0.0
  9
$PLIMMAX
 10
12.0
 20
9.0
  9
$UNITMODE
 70
     0
  9
$VISRETAIN
 70
     1
  9
$PLINEGEN
 70
     0
  9
$PSLTSCALE
 70
     1
  0
ENDSEC
  0
SECTION
  2
TABLES
  0
TABLE
  2
VPORT
 70
     1
  0
VPORT
  2
*ACTIVE
 70
     0
 10
0.0
 20
0.0
 11
1.0
 21
1.0
 12
191.621269598627805
 22
9.127401769991593
 13
0.0
 23
0.0
 14
1.0
 24
1.0
 15
0.0
 25
0.0
 16
0.0
 26
0.0
 36
202.37134017897489
 17
4161.556396484375
 27
226.1108322143554972
 37
0.0
 40
25.4987407054451403
 41
2.9182795698924728
 42
50.0
 43
0.0
 44
0.0
 50
0.0
 51
0.0
 71
     0
 72
   100
 73
     1
 74
     1
 75
     0
 76
     0
 77
     0
 78
     0
  0
ENDTAB
  0
TABLE
  2
LTYPE
 70
     2
  0
LTYPE
  2
CONTINUOUS
 70
     0
  3
Solid line
 72
    65
 73
     0
 40
0.0
  0
LTYPE
  2
PHANTOM2
 70
     0
  3
___ _ _ ___ _ _ ___ _ _ ___ _ _
 72
    65
 73
     6
 40
1.25
 49
0.625
 49
-0.125
 49
0.125
 49
-0.125
 49
0.125
 49
-0.125
  0
ENDTAB
  0
TABLE
  2
LAYER
 70
     2
  0
LAYER
  2
0
 70
     0
 62
   255
  6
CONTINUOUS
  0
LAYER
  2
DEFPOINTS
 70
     0
 62
     7
  6
CONTINUOUS
  0
ENDTAB
  0
TABLE
  2
STYLE
 70
     1
  0
STYLE
  2
STANDARD
 70
     0
 40
0.0
 41
0.8
 50
0.0
 71
     0
 42
0.2
  3
txt
  4

  0
ENDTAB
  0
TABLE
  2
VIEW
 70
     0
  0
ENDTAB
  0
TABLE
  2
UCS
 70
     0
  0
ENDTAB
  0
TABLE
  2
APPID
 70
     9
  0
APPID
  2
ACAD
 70
     0
  0
APPID
  2
ACAD_MLEADERVER
 70
     0
  0
APPID
  2
ACAD_EXEMPT_FROM_CAD_STANDARDS
 70
     0
  0
APPID
  2
ACAD_NAV_VCDISPLAY
 70
     0
  0
APPID
  2
ACAECLAYERSTANDARD
 70
     0
  0
APPID
  2
ACCMTRANSPARENCY
 70
     0
  0
APPID
  2
ACAD_DSTYLE_DIMJAG
 70
     0
  0
APPID
  2
ACAD_DSTYLE_DIMTALN
 70
     0
  0
APPID
  2
ACDBATTR
 70
     0
  0
ENDTAB
  0
TABLE
  2
DIMSTYLE
 70
     1
  0
DIMSTYLE
  2
STANDARD
 70
     0
  3

  4

  5

  6

  7

 40
1.0
 41
0.1875
 42
0.0625
 43
0.38
 44
0.125
 45
0.0
 46
0.0
 47
0.01
 48
0.01
140
0.15625
141
0.09
142
0.0
143
25.3999999999999986
144
1.0
145
0.0
146
1.0
147
0.09
 71
     1
 72
     0
 73
     1
 74
     1
 75
     0
 76
     0
 77
     0
 78
     4
170
     0
171
     2
172
     0
173
     0
174
     0
175
     0
176
     0
177
     0
178
     0
  0
ENDTAB
  0
ENDSEC
  0
SECTION
  2
BLOCKS
  0
BLOCK
  8
0
  2
$MODEL_SPACE
 70
     0
 10
0.0
 20
0.0
 30
0.0
  3
$MODEL_SPACE
  1

  0
ENDBLK
  5
21
  8
0
  0
BLOCK
 67
     1
  8
0
  2
$PAPER_SPACE
 70
     0
 10
0.0
 20
0.0
 30
0.0
  3
$PAPER_SPACE
  1

  0
ENDBLK
  5
1D
 67
     1
  8
0
  0
ENDSEC
  0
SECTION
  2
ENTITIES
  0
ATTDEF
  5
3930
  8
DEFPOINTS
 10
4353.3465294556826848
 20
222.6638902406911029
 30
0.0
 40
0.001
  1
K-5172M
  3

  2
MODELNUMBER
 70
     0
1001
ACDBATTR
1070
     0
1070
     1
  0
ATTDEF
  5
3931
  8
DEFPOINTS
 10
4353.3465294556826848
 20
222.6622235740244093
 30
0.0
 40
0.001
  1
SAN SOUCI
  3

  2
TRADENAME
 70
     0
1001
ACDBATTR
1070
     0
1070
     1
  0
ATTDEF
  5
3932
  8
DEFPOINTS
 10
4353.3465294556826848
 20
222.660556907357801
 30
0.0
 40
0.001
  1
TOILET
  3

  2
PRODUCT
 70
     0
1001
ACDBATTR
1070
     0
1070
     1
  0
LINE
  5
138D0
  8
0
 10
4344.8691546651389217
 20
245.529046344829311
 30
0.0
 11
4344.7497416349815467
 21
245.3399379691036017
 31
0.0
  0
LINE
  5
138D1
  8
0
 10
4345.3429166425394214
 20
245.3148042808292928
 30
0.0
 11
4345.4235760790379572
 21
245.4426446808292894
 31
0.0
  0
LINE
  5
138D2
  8
0
 10
4344.7834629203389341
 20
245.7796483878167066
 30
0.0
 11
4344.8738792191388711
 21
245.590284496529307
 31
0.0
  0
LINE
  5
138D3
  8
0
 10
4345.4349762790388922
 20
245.5904104107293051
 30
0.0
 11
4345.3741083595377859
 21
245.717889485229307
 31
0.0
  0
LINE
  5
138D4
  8
0
 10
4345.2925436266386896
 20
244.8957669101293106
 30
0.0
 11
4345.5040761236377875
 21
244.8756753128292871
 31
0.0
  0
LINE
  5
138D5
  8
0
 10
4345.4235760790379572
 20
245.4426446808292894
 30
0.0
 11
4344.8867715084388692
 21
245.5077441860292993
 31
0.0
  0
LINE
  5
138D6
  8
0
 10
4344.8945556519392994
 20
245.6086397819292984
 30
0.0
 11
4345.4349762790388922
 21
245.5904104107293051
 31
0.0
  0
LINE
  5
138D7
  8
0
 10
4360.8424268071794359
 20
246.3990737496293946
 30
0.0
 11
4361.1777688787378793
 21
246.3990725737293133
 31
0.0
  0
LINE
  5
138D8
  8
0
 10
4345.388398226337813
 20
246.134636297729287
 30
0.0
 11
4345.6005036838387241
 21
246.121949906529295
 31
0.0
  0
LINE
  5
138D9
  8
0
 10
4347.395675779170233
 20
222.6590737496293002
 30
0.0
 11
4359.3041515231388985
 21
222.6590737496293002
 31
0.0
  0
ARC
  5
138DA
  8
0
 10
4468.7562494380226781
 20
228.1020374960421861
 30
0.0
 40
109.5873514248533951
 50
178.6164807867533
 51
182.8469272185089096
  0
ARC
  5
138DB
  8
0
 10
4376.6176686249327759
 20
230.0066157351882055
 30
0.0
 40
17.4325946996477512
 50
157.139159041860097
 51
177.5626122775186104
  0
ARC
  5
138DC
  8
0
 10
4360.8284831337496144
 20
236.6580194569455102
 30
0.0
 40
0.2996423103052014
 50
113.1621410756388002
 51
156.1706952918434013
  0
ARC
  5
138DD
  8
0
 10
4360.5750940934922255
 20
237.9023662001357025
 30
0.0
 40
0.9782903662823264
 50
277.9631959006316038
 51
3.4183625625242859
  0
ARC
  5
138DE
  8
0
 10
4080.0310551813267921
 20
228.4252380060246992
 30
0.0
 40
281.6820314566488719
 50
1.9399392022778781
 51
3.6584692469690432
  0
ARC
  5
138DF
  8
0
 10
4360.9542971914879672
 20
247.5573291381392096
 30
0.0
 40
0.253892650244951
 50
4.1181249510947238
 51
89.1200081183969246
  0
ARC
  5
138E0
  8
0
 10
-1406.6195458815650454
 20
-130.4220592436251991
 30
0.0
 40
5780.1999471227172762
 50
3.738918935287125
 51
3.7495475905442701
  0
ARC
  5
138E1
  8
0
 10
4360.5884419776893992
 20
245.1865623164455883
 30
0.0
 40
1.238826973072626
 50
78.1693054321798826
 51
94.6883442476690931
  0
ARC
  5
138E2
  8
0
 10
4356.878581791367651
 20
-1836.2523614376559635
 30
0.0
 40
2082.6767319281898381
 50
89.9007249356192943
 51
90.0970759815619147
  0
ARC
  5
138E3
  8
0
 10
4361.1770390300953295
 20
246.499755865692606
 30
0.0
 40
0.1006859372485156
 50
270.4153272481851786
 51
3.3243627268306248
  0
LINE
  5
138E4
  8
0
 10
4345.7416307889352538
 20
247.8111918434292988
 30
0.0
 11
4360.9581965133747872
 21
247.8111918434292988
 31
0.0
  0
LINE
  5
138E5
  8
0
 10
4345.9171326264686286
 20
239.1590737496293002
 30
0.0
 11
4360.7826946758386839
 21
239.1590737496293002
 31
0.0
  0
ARC
  5
138E6
  8
0
 10
4300.4014941238528991
 20
240.4827682918798075
 30
0.0
 40
60.378438255212167
 50
0.167304310630203
 51
5.644408661507331
  0
ARC
  5
138E7
  8
0
 10
4562.7617848084637444
 20
240.3156881532956959
 30
0.0
 40
201.9824017276808945
 50
179.9025927272637091
 51
180.3280953462314926
  0
LINE
  5
138E8
  8
0
 10
4346.4192111057418515
 20
239.2915087981216971
 30
0.0
 11
4360.28061619656728
 21
239.2915087981216971
 31
0.0
  0
ARC
  5
138E9
  8
0
 10
4360.2812107602230753
 20
239.3515836575116964
 30
0.0
 40
0.0600778015299118
 50
269.4329595404431075
 51
2.487151622416961
  0
ARC
  5
138EA
  8
0
 10
4356.4672973399510738
 20
238.9678166842651876
 30
0.0
 40
3.8931548155969229
 50
5.6956651411439632
 51
20.8244990642772585
  0
ARC
  5
138EB
  8
0
 10
4359.7744241195214272
 20
240.1996185946613025
 30
0.0
 40
0.36497115945269
 50
24.6535421168079694
 51
87.4977602880630769
  0
ARC
  5
138EC
  8
0
 10
4355.9598721393476808
 20
217.8446193464897078
 30
0.0
 40
23.0402661876735984
 50
80.4300373860403681
 51
86.2479626522322178
  0
LINE
  5
138ED
  8
0
 10
4357.4675951668386915
 20
240.8355009579292982
 30
0.0
 11
4349.232232135468621
 21
240.8355009579292982
 31
0.0
  0
ARC
  5
138EE
  8
0
 10
4359.3825617204338414
 20
239.0371504393301905
 30
0.0
 40
1.5732805013767259
 50
74.2761351913322443
 51
79.9894159437652235
  0
ARC
  5
138EF
  8
0
 10
4359.7808720892744532
 20
240.4204925715569061
 30
0.0
 40
0.1340327218986213
 50
48.6755739476843985
 51
77.9196260932120168
  0
ARC
  5
138F0
  8
0
 10
4359.8480033386313153
 20
240.5200981682615122
 30
0.0
 40
0.0213992980664032
 50
274.945024767722316
 51
2.8142273037531722
  0
ARC
  5
138F1
  8
0
 10
4358.2482610899287465
 20
254.5212769152520025
 30
0.0
 40
14.1136650695642896
 50
269.3957175225672245
 51
276.5158314113725737
  0
ARC
  5
138F2
  8
0
 10
4354.3360056552583046
 20
749.1506561427569295
 30
0.0
 40
508.7561789973614168
 50
269.8889469119577029
 51
270.423836049277611
  0
ARC
  5
138F3
  8
0
 10
4359.7778856772765721
 20
239.1634498127494055
 30
0.0
 40
0.1956363862910702
 50
139.1124525714255071
 51
167.3283703976412085
  0
ARC
  5
138F4
  8
0
 10
4359.5283455219878306
 20
239.2191111556271039
 30
0.0
 40
0.0600374074535301
 50
270.0126174971638875
 51
347.7428372084580133
  0
LINE
  5
138F5
  8
0
 10
4346.1454429156137849
 20
236.7790789092292982
 30
0.0
 11
4360.5543843866944371
 21
236.7790789092292982
 31
0.0
  0
LINE
  5
138F6
  8
0
 10
4345.8574004951296956
 20
246.3990737496293946
 30
0.0
 11
4345.5220584235703427
 21
246.3990725737293133
 31
0.0
  0
ARC
  5
138F7
  8
0
 10
4237.9435778642837249
 20
228.1020374960421861
 30
0.0
 40
109.5873514248533951
 50
357.1530727814892998
 51
1.3835192132466989
  0
ARC
  5
138F8
  8
0
 10
4330.0821586773763556
 20
230.0066157351882055
 30
0.0
 40
17.4325946996477512
 50
2.4373877224814251
 51
22.8608409581398817
  0
ARC
  5
138F9
  8
0
 10
4345.8713441685567886
 20
236.6580194569455102
 30
0.0
 40
0.2996423103052014
 50
23.8293047081565703
 51
66.8378589243612424
  0
ARC
  5
138FA
  8
0
 10
4346.1247332088159965
 20
237.9023662001357025
 30
0.0
 40
0.9782903662823264
 50
176.5816374374757061
 51
262.0368040993683962
  0
ARC
  5
138FB
  8
0
 10
4626.6687721209809752
 20
228.4252380060246992
 30
0.0
 40
281.6820314566488719
 50
176.3415307530326004
 51
176.3973166581153009
  0
ARC
  5
138FC
  8
0
 10
4626.6687721209809752
 20
228.4252380060246992
 30
0.0
 40
281.6820314566488719
 50
176.6512756948515062
 51
178.0600607977204959
  0
ARC
  5
138FD
  8
0
 10
4345.7455301108202548
 20
247.5573291381392096
 30
0.0
 40
0.253892650244951
 50
90.8799918816030754
 51
175.8818750489053002
  0
ARC
  5
138FE
  8
0
 10
10113.3193731838691747
 20
-130.4220592436251991
 30
0.0
 40
5780.1999471227172762
 50
176.2504524094557041
 51
176.2610810647128972
  0
ARC
  5
138FF
  8
0
 10
4346.1113853246179133
 20
245.1865623164455883
 30
0.0
 40
1.238826973072626
 50
85.3116557523309069
 51
101.8306945678201032
  0
ARC
  5
13900
  8
0
 10
4349.8212455183438578
 20
-1836.2523699249591118
 30
0.0
 40
2082.6767404154929864
 50
89.9029240186465444
 51
90.099275064224372
  0
ARC
  5
13901
  8
0
 10
4345.5227882722147115
 20
246.499755865692606
 30
0.0
 40
0.1006859372485156
 50
176.6756372731692863
 51
269.5846727518148214
  0
ARC
  5
13902
  8
0
 10
4406.2983331784544134
 20
240.4827682918798075
 30
0.0
 40
60.378438255212167
 50
174.3555913384925873
 51
179.8326956893698139
  0
ARC
  5
13903
  8
0
 10
4143.9380424938426586
 20
240.3156881532956959
 30
0.0
 40
201.9824017276808945
 50
359.671904653768479
 51
0.0974072727362503
  0
ARC
  5
13904
  8
0
 10
4346.4186165420869656
 20
239.3515836575116964
 30
0.0
 40
0.0600778015299118
 50
177.5128483775829977
 51
270.5670404595568925
  0
ARC
  5
13905
  8
0
 10
4350.2325299623571482
 20
238.9678166842651876
 30
0.0
 40
3.8931548155969229
 50
159.1755009357227095
 51
174.3043348588560093
  0
ARC
  5
13906
  8
0
 10
4346.9254031827877043
 20
240.1996185946613025
 30
0.0
 40
0.36497115945269
 50
92.5022397119369231
 51
155.346457883191988
  0
ARC
  5
13907
  8
0
 10
4350.7399551629596317
 20
217.8446193464897078
 30
0.0
 40
23.0402661876735984
 50
93.752037347767768
 51
99.5699626139596461
  0
ARC
  5
13908
  8
0
 10
4347.3172655818743806
 20
239.0371504393301905
 30
0.0
 40
1.5732805013767259
 50
100.0105840562347055
 51
105.7238648086676989
  0
ARC
  5
13909
  8
0
 10
4346.9189552130337688
 20
240.4204925715569061
 30
0.0
 40
0.1340327218986213
 50
102.0803739067879974
 51
131.3244260523156015
  0
ARC
  5
1390A
  8
0
 10
4346.8518239636769067
 20
240.5200981682615122
 30
0.0
 40
0.0213992980664032
 50
177.1857726962452091
 51
265.054975232277684
  0
ARC
  5
1390B
  8
0
 10
4348.4515662123776565
 20
254.5212769152520025
 30
0.0
 40
14.1136650695642896
 50
263.4841685886274263
 51
270.6042824774327755
  0
ARC
  5
1390C
  8
0
 10
4352.3638216576937339
 20
749.1506582444833384
 30
0.0
 40
508.7561810991089146
 50
269.5761639512957117
 51
270.1110530890323957
  0
ARC
  5
1390D
  8
0
 10
4346.9219416250325594
 20
239.1634498127494055
 30
0.0
 40
0.1956363862910702
 50
12.6716296023587898
 51
40.8875474285744502
  0
ARC
  5
1390E
  8
0
 10
4347.1714817803185724
 20
239.2191111556271039
 30
0.0
 40
0.0600374074535301
 50
192.2571627915419867
 51
269.9873825028359988
  0
ARC
  5
1390F
  8
0
 10
4339.7423719832522693
 20
245.9483413193769081
 30
0.0
 40
5.8607036235377654
 50
349.4538860143109105
 51
1.697491510428849
  0
LINE
  5
13910
  8
0
 10
4345.6030712629799382
 20
245.9412058061182904
 30
0.0
 11
4345.6504817283721422
 21
245.9375402778414923
 31
0.0
  0
LINE
  5
13911
  8
0
 10
4345.5344152348834541
 20
245.0538683269475939
 30
0.0
 11
4345.5818096256743956
 21
245.0502014412045071
 31
0.0
  0
ARC
  5
13912
  8
0
 10
4341.4596746807592353
 20
245.8155446005235092
 30
0.0
 40
4.192582337367825
 50
349.4818517107767093
 51
1.667426806772339
  0
ARC
  5
13913
  8
0
 10
4345.2993408375496074
 20
244.9256188076535068
 30
0.0
 40
0.0306159739672413
 50
175.9517743330409019
 51
257.1725782790048811
  0
ARC
  5
13914
  8
0
 10
4344.8837727184909454
 20
244.8745208122799966
 30
0.0
 40
0.3886946495914017
 50
7.8755058688858623
 51
63.5487931200195106
  0
ARC
  5
13915
  8
0
 10
4344.6654994914024428
 20
244.5202670207071947
 30
0.0
 40
0.8039706134741323
 50
60.8663685556955016
 51
82.8302222480833734
  0
ARC
  5
13916
  8
0
 10
4344.7750508851268023
 20
245.3453611289183129
 30
0.0
 40
0.0289152860494626
 50
181.4401636091247099
 51
251.4311402888797886
  0
ARC
  5
13917
  8
0
 10
4347.5267984868150961
 20
245.3385348118322042
 30
0.0
 40
2.780660443872049
 50
170.8116240058334938
 51
179.8743172393450038
  0
ARC
  5
13918
  8
0
 10
4344.8032505746587049
 20
245.776110090744794
 30
0.0
 40
0.0223805052468313
 50
90.4063768379577368
 51
163.2683059620370898
  0
ARC
  5
13919
  8
0
 10
4344.833791751152603
 20
246.5387267012443999
 30
0.0
 40
0.7408730049596493
 50
267.6251272297874948
 51
298.2071580607835131
  0
ARC
  5
1391A
  8
0
 10
4345.0133076715337666
 20
246.2044196151522897
 30
0.0
 40
0.3614166511619418
 50
298.1780636463507221
 51
346.0689179518734022
  0
ARC
  5
1391B
  8
0
 10
4345.388104997667142
 20
246.1092926293976859
 30
0.0
 40
0.0253453646167966
 50
89.3371119176488122
 51
161.3281369967702972
  0
ARC
  5
1391C
  8
0
 10
4344.6693479150862913
 20
245.5751563915920883
 30
0.0
 40
0.7657803058246136
 50
350.035299097373013
 51
1.141383134637725
  0
ARC
  5
1391D
  8
0
 10
4344.018467974721716
 20
245.972991552839602
 30
0.0
 40
1.379433912097958
 50
349.3428069599291916
 51
6.729492191348414
  0
ARC
  5
1391E
  8
0
 10
4343.9425182818868052
 20
245.2706015633750951
 30
0.0
 40
1.4010958028430791
 50
344.4826813369057845
 51
1.807905972774003
  0
ARC
  5
1391F
  8
0
 10
4344.8938687528643641
 20
245.5885903489117936
 30
0.0
 40
0.0200611962421422
 50
88.0377983570497946
 51
175.1556600129788137
  0
ARC
  5
13920
  8
0
 10
4344.8891592974750893
 20
245.527654509577502
 30
0.0
 40
0.0200529928008893
 50
176.0200228128917956
 51
263.1613394461456892
  0
ARC
  5
13921
  8
0
 10
4344.5565655570044328
 20
245.5839640774013901
 30
0.0
 40
0.3173766025956792
 50
350.0355859710625737
 51
1.1410963458471051
  0
ARC
  5
13922
  8
0
 10
4344.7488333520950619
 20
245.3402636042769984
 30
0.0
 40
0.0009648917386657
 50
196.085384833075608
 51
340.2763623986261905
  0
ARC
  5
13923
  8
0
 10
4344.7827797513600672
 20
245.7792314944884993
 30
0.0
 40
0.0008003248729371
 50
31.3929851125511412
 51
141.451783936373289
  0
ARC
  5
13924
  8
0
 10
4344.7864283051585517
 20
245.7757476490334057
 30
0.0
 40
0.0058422710492008
 50
137.0245742747127053
 51
157.1123777508312003
  0
ARC
  5
13925
  8
0
 10
4344.8948063214256763
 20
216.0535247495892008
 30
0.0
 40
29.2647105344518614
 50
89.1226349719734685
 51
90.2524911018839475
  0
ARC
  5
13926
  8
0
 10
4350.2227202539797872
 20
282.207475261872105
 30
0.0
 40
36.810142318933913
 50
261.533453060594411
 51
262.4309830982829226
  0
ARC
  5
13927
  8
0
 10
4344.7741744195182036
 20
245.3499155872326867
 30
0.0
 40
0.0280786480325682
 50
183.7062677990375903
 51
200.6874126578275934
  0
LINE
  5
13928
  8
0
 10
4358.357434741011275
 20
239.2915087981216971
 30
0.0
 11
4358.1027599616063526
 21
239.1590737496293002
 31
0.0
  0
ARC
  5
13929
  8
0
 10
4357.7827859423778136
 20
239.1277909413292946
 30
0.0
 40
0.1679110752773299
 50
102.831566201686897
 51
153.0599509775094873
  0
ARC
  5
1392A
  8
0
 10
4357.5238910735433819
 20
239.2363688580695964
 30
0.0
 40
0.1139400867848106
 50
317.282524208912605
 51
343.4246023181755731
  0
ARC
  5
1392B
  8
0
 10
4356.2347290305724528
 20
239.0930101209887937
 30
0.0
 40
0.0801964648540104
 50
55.4642209972575913
 51
68.6502176296735485
  0
ARC
  5
1392C
  8
0
 10
4356.2193242511530116
 20
239.4332638333468992
 30
0.0
 40
0.2692800644196856
 50
270.7183220236693728
 51
279.5338982868432254
  0
ARC
  5
1392D
  8
0
 10
4356.217513990966836
 20
239.1966759523268991
 30
0.0
 40
0.0330800826050193
 50
223.8883090586342064
 51
279.0198052853461945
  0
ARC
  5
1392E
  8
0
 10
4356.3209665066569869
 20
239.0293946753662055
 30
0.0
 40
0.1924577258030068
 50
100.372460716268094
 51
131.407345989159495
  0
ARC
  5
1392F
  8
0
 10
4356.8867968644653956
 20
236.7865153473275086
 30
0.0
 40
2.5052217148899261
 50
90.6912346633059059
 51
103.8683643068937954
  0
LINE
  5
13930
  8
0
 10
4348.3423925612978564
 20
239.2915087981216971
 30
0.0
 11
4348.5970673407036884
 21
239.1590737496293002
 31
0.0
  0
ARC
  5
13931
  8
0
 10
4348.9170413599313179
 20
239.1277909413292946
 30
0.0
 40
0.1679110752773299
 50
26.9400490224904807
 51
77.1684337983130746
  0
ARC
  5
13932
  8
0
 10
4349.1759362287648401
 20
239.2363688580695964
 30
0.0
 40
0.1139400867848106
 50
196.5753976818243132
 51
222.7174757910875087
  0
ARC
  5
13933
  8
0
 10
4350.4650982717357692
 20
239.0930101209887937
 30
0.0
 40
0.0801964648540104
 50
111.3497823703263947
 51
124.5357790027424016
  0
ARC
  5
13934
  8
0
 10
4350.4805030511552104
 20
239.4332638333468992
 30
0.0
 40
0.2692800644196856
 50
260.4661017131567746
 51
269.2816779763306272
  0
ARC
  5
13935
  8
0
 10
4350.482313311341386
 20
239.1966759523268991
 30
0.0
 40
0.0330800826050193
 50
260.9801947146538055
 51
316.1116909413656799
  0
ARC
  5
13936
  8
0
 10
4350.3788607956521446
 20
239.0293946753662055
 30
0.0
 40
0.1924577258030068
 50
48.592654010839837
 51
79.6275392837318776
  0
ARC
  5
13937
  8
0
 10
4349.8130304378419169
 20
236.7865153473275086
 30
0.0
 40
2.5052217148899261
 50
76.131635693106233
 51
89.3087653366940941
  0
ENDSEC
  0
EOF
