  0
SECTION
  2
HEADER
  9
$ACADVER
  1
AC1009
  9
$INSBASE
 10
413.8692884335725921
 20
67.5136290478738204
 30
0.0
  9
$EXTMIN
 10
408.5650230090840864
 20
67.510673273464846
 30
-0.0015258207003583
  9
$EXTMAX
 10
414.9621783932781796
 20
77.1487662188385173
 30
0.0000000349246037
  9
$LIMMIN
 10
0.0
 20
0.0
  9
$LIMMAX
 10
11.6929133858000007
 20
8.2677165353999982
  9
$ORTHOMODE
 70
     1
  9
$REGENMODE
 70
     1
  9
$FILLMODE
 70
     1
  9
$QTEXTMODE
 70
     0
  9
$MIRRTEXT
 70
     0
  9
$DRAGMODE
 70
     2
  9
$LTSCALE
 40
0.6431102362
  9
$OSMODE
 70
  4095
  9
$ATTMODE
 70
     1
  9
$TEXTSIZE
 40
0.2
  9
$TRACEWID
 40
0.05
  9
$TEXTSTYLE
  7
STANDARD
  9
$CLAYER
  8
0
  9
$CELTYPE
  6
BYLAYER
  9
$CECOLOR
 62
   256
  9
$DIMSCALE
 40
1.0
  9
$DIMASZ
 40
0.1875
  9
$DIMEXO
 40
0.0625
  9
$DIMDLI
 40
0.4443307087
  9
$DIMRND
 40
0.0
  9
$DIMDLE
 40
0.0
  9
$DIMEXE
 40
0.125
  9
$DIMTP
 40
0.01
  9
$DIMTM
 40
0.01
  9
$DIMTXT
 40
1.0
  9
$DIMCEN
 40
0.1052362205
  9
$DIMTSZ
 40
0.0
  9
$DIMTOL
 70
     1
  9
$DIMLIM
 70
     0
  9
$DIMTIH
 70
     0
  9
$DIMTOH
 70
     1
  9
$DIMSE1
 70
     0
  9
$DIMSE2
 70
     0
  9
$DIMTAD
 70
     0
  9
$DIMZIN
 70
     0
  9
$DIMBLK
  1

  9
$DIMASO
 70
     1
  9
$DIMSHO
 70
     1
  9
$DIMPOST
  1
\X
  9
$DIMAPOST
  1

  9
$DIMALT
 70
     1
  9
$DIMALTD
 70
     2
  9
$DIMALTF
 40
25.3999999999999986
  9
$DIMLFAC
 40
1.0
  9
$DIMTOFL
 70
     0
  9
$DIMTVP
 40
0.0
  9
$DIMTIX
 70
     0
  9
$DIMSOXD
 70
     0
  9
$DIMSAH
 70
     0
  9
$DIMBLK1
  1

  9
$DIMBLK2
  1

  9
$DIMSTYLE
  2
STANDARD
  9
$DIMCLRD
 70
     0
  9
$DIMCLRE
 70
     0
  9
$DIMCLRT
 70
     0
  9
$DIMTFAC
 40
1.0
  9
$DIMGAP
 40
0.09
  9
$LUNITS
 70
     2
  9
$LUPREC
 70
     4
  9
$SKETCHINC
 40
0.1
  9
$FILLETRAD
 40
0.0
  9
$AUNITS
 70
     0
  9
$AUPREC
 70
     0
  9
$MENU
  1
.
  9
$ELEVATION
 40
0.0
  9
$PELEVATION
 40
0.0
  9
$THICKNESS
 40
0.0
  9
$LIMCHECK
 70
     0
  9
$BLIPMODE
 70
     0
  9
$CHAMFERA
 40
0.0
  9
$CHAMFERB
 40
0.0
  9
$SKPOLY
 70
     0
  9
$TDCREATE
 40
2458172.5207638889551163
  9
$TDUPDATE
 40
2459052.6853819438256323
  9
$TDINDWG
 40
0.2699509028
  9
$TDUSRTIMER
 40
0.2699509028
  9
$USRTIMER
 70
     1
  9
$ANGBASE
 50
0.0
  9
$ANGDIR
 70
     0
  9
$PDMODE
 70
     0
  9
$PDSIZE
 40
0.3125
  9
$PLINEWID
 40
0.0
  9
$COORDS
 70
     1
  9
$SPLFRAME
 70
     0
  9
$SPLINETYPE
 70
     6
  9
$SPLINESEGS
 70
     8
  9
$ATTDIA
 70
     1
  9
$ATTREQ
 70
     1
  9
$HANDLING
 70
     1
  9
$HANDSEED
  5
F5A5
  9
$SURFTAB1
 70
     6
  9
$SURFTAB2
 70
     6
  9
$SURFTYPE
 70
     6
  9
$SURFU
 70
     6
  9
$SURFV
 70
     6
  9
$UCSNAME
  2

  9
$UCSORG
 10
0.0
 20
0.0
 30
0.0
  9
$UCSXDIR
 10
1.0
 20
0.0
 30
0.0
  9
$UCSYDIR
 10
0.0
 20
1.0
 30
0.0
  9
$PUCSNAME
  2

  9
$PUCSORG
 10
0.0
 20
0.0
 30
0.0
  9
$PUCSXDIR
 10
1.0
 20
0.0
 30
0.0
  9
$PUCSYDIR
 10
0.0
 20
1.0
 30
0.0
  9
$USERI1
 70
     0
  9
$USERI2
 70
     0
  9
$USERI3
 70
     0
  9
$USERI4
 70
     0
  9
$USERI5
 70
     0
  9
$USERR1
 40
0.0
  9
$USERR2
 40
0.0
  9
$USERR3
 40
0.0
  9
$USERR4
 40
0.0
  9
$USERR5
 40
0.0
  9
$WORLDVIEW
 70
     1
  9
$SHADEDGE
 70
     3
  9
$SHADEDIF
 70
    70
  9
$TILEMODE
 70
     1
  9
$MAXACTVP
 70
    64
  9
$PLIMCHECK
 70
     0
  9
$PEXTMIN
 10
1.0000000000000000E+20
 20
1.0000000000000000E+20
 30
1.0000000000000000E+20
  9
$PEXTMAX
 10
-1.0000000000000000E+20
 20
-1.0000000000000000E+20
 30
-1.0000000000000000E+20
  9
$PLIMMIN
 10
0.0
 20
0.0
  9
$PLIMMAX
 10
12.0
 20
9.0
  9
$UNITMODE
 70
     0
  9
$VISRETAIN
 70
     1
  9
$PLINEGEN
 70
     0
  9
$PSLTSCALE
 70
     1
  0
ENDSEC
  0
SECTION
  2
TABLES
  0
TABLE
  2
VPORT
 70
     1
  0
VPORT
  2
*ACTIVE
 70
     0
 10
0.0
 20
0.0
 11
1.0
 21
1.0
 12
-17.8656884068725503
 22
2.6271782339329941
 13
0.0
 23
0.0
 14
1.0
 24
1.0
 15
0.0
 25
0.0
 16
0.0
 26
0.0
 36
14.6338572656650907
 17
429.6292891080536833
 27
69.7025415122186871
 37
0.0
 40
9.7182989893018856
 41
2.6486111111111108
 42
50.0
 43
0.0
 44
0.0
 50
0.0
 51
0.0
 71
     0
 72
   100
 73
     1
 74
     1
 75
     0
 76
     0
 77
     0
 78
     1
  0
ENDTAB
  0
TABLE
  2
LTYPE
 70
     2
  0
LTYPE
  2
CONTINUOUS
 70
     0
  3
Solid line
 72
    65
 73
     0
 40
0.0
  0
LTYPE
  2
PHANTOM2
 70
     0
  3
___ _ _ ___ _ _ ___ _ _ ___ _ _
 72
    65
 73
     6
 40
1.25
 49
0.625
 49
-0.125
 49
0.125
 49
-0.125
 49
0.125
 49
-0.125
  0
ENDTAB
  0
TABLE
  2
LAYER
 70
     2
  0
LAYER
  2
0
 70
     0
 62
   255
  6
CONTINUOUS
  0
LAYER
  2
DEFPOINTS
 70
     0
 62
     7
  6
CONTINUOUS
  0
ENDTAB
  0
TABLE
  2
STYLE
 70
     1
  0
STYLE
  2
STANDARD
 70
     0
 40
0.0
 41
0.8
 50
0.0
 71
     0
 42
0.2
  3
txt
  4

  0
ENDTAB
  0
TABLE
  2
VIEW
 70
     0
  0
ENDTAB
  0
TABLE
  2
UCS
 70
     0
  0
ENDTAB
  0
TABLE
  2
APPID
 70
    10
  0
APPID
  2
ACAD
 70
     0
  0
APPID
  2
ACAD_MLEADERVER
 70
     0
  0
APPID
  2
ACAD_EXEMPT_FROM_CAD_STANDARDS
 70
     0
  0
APPID
  2
ACAD_DSTYLE_DIMJAG
 70
     0
  0
APPID
  2
ACAD_DSTYLE_DIMTALN
 70
     0
  0
APPID
  2
ACAD_NAV_VCDISPLAY
 70
     0
  0
APPID
  2
ACAECLAYERSTANDARD
 70
     0
  0
APPID
  2
ACCMTRANSPARENCY
 70
     0
  0
APPID
  2
DCO15
 70
     0
  0
APPID
  2
ACDBATTR
 70
     0
  0
ENDTAB
  0
TABLE
  2
DIMSTYLE
 70
     1
  0
DIMSTYLE
  2
STANDARD
 70
     0
  3

  4

  5

  6

  7

 40
1.0
 41
0.1875
 42
0.0625
 43
0.38
 44
0.125
 45
0.0
 46
0.0
 47
0.01
 48
0.01
140
0.15625
141
0.09
142
0.0
143
25.3999999999999986
144
1.0
145
0.0
146
1.0
147
0.09
 71
     1
 72
     0
 73
     1
 74
     1
 75
     0
 76
     0
 77
     0
 78
     4
170
     0
171
     2
172
     0
173
     0
174
     0
175
     0
176
     0
177
     0
178
     0
  0
ENDTAB
  0
ENDSEC
  0
SECTION
  2
BLOCKS
  0
BLOCK
  8
0
  2
$MODEL_SPACE
 70
     0
 10
0.0
 20
0.0
 30
0.0
  3
$MODEL_SPACE
  1

  0
ENDBLK
  5
21
  8
0
  0
BLOCK
 67
     1
  8
0
  2
$PAPER_SPACE
 70
     0
 10
0.0
 20
0.0
 30
0.0
  3
$PAPER_SPACE
  1

  0
ENDBLK
  5
1D
 67
     1
  8
0
  0
BLOCK
  8
0
  2
_FILLED
 70
     0
 10
0.0
 20
0.0
 30
0.0
  3
_FILLED
  1

  0
SOLID
  5
87E2
  8
0
  6
BYBLOCK
 62
     0
 10
0.0
 20
0.0
 30
0.0
 11
-1.0
 21
0.1666666667
 31
0.0
 12
-1.0
 22
-0.1666666667
 32
0.0
 13
-1.0
 23
-0.1666666667
 33
0.0
  0
ENDBLK
  5
87E3
  8
0
  6
BYBLOCK
 62
     0
  0
BLOCK
  8
0
  2
*U3
 70
     1
 10
0.0
 20
0.0
 30
0.0
  3
*U3
  1

  0
TEXT
  5
F596
  8
0
 62
     0
 10
415.2121283629809909
 20
84.7600089702503965
 30
0.0
 40
1.0
  1
6.3646±0.0100
 41
0.8
  0
ENDBLK
  5
F598
  8
0
  0
BLOCK
  8
0
  2
*U4
 70
     1
 10
0.0
 20
0.0
 30
0.0
  3
*U4
  1

  0
TEXT
  5
F59A
  8
0
 62
     0
 10
415.4121283629809795
 20
83.5800089702503897
 30
0.0
 40
1.0
  1
[161.66±0.25]
 41
0.8
  0
ENDBLK
  5
F59C
  8
0
  0
BLOCK
  8
0
  2
*U5
 70
     1
 10
0.0
 20
0.0
 30
0.0
  3
*U5
  1

  0
TEXT
  5
F59E
  8
0
 62
     0
 10
412.7666379669610137
 20
80.9624055770713937
 30
0.0
 40
1.0
  1
6.3646±0.0100
 41
0.8
  0
ENDBLK
  5
F5A0
  8
0
  0
BLOCK
  8
0
  2
*U6
 70
     1
 10
0.0
 20
0.0
 30
0.0
  3
*U6
  1

  0
TEXT
  5
F5A2
  8
0
 62
     0
 10
412.9666379669608887
 20
79.7824055770714011
 30
0.0
 40
1.0
  1
[161.66±0.25]
 41
0.8
  0
ENDBLK
  5
F5A4
  8
0
  0
ENDSEC
  0
SECTION
  2
ENTITIES
  0
ATTDEF
  5
B1E1
  8
DEFPOINTS
 10
413.8695174326268216
 20
67.5172874317647711
 30
0.0
 40
0.001
  1
K-5241A-4ND
  3

  2
MODELNUMBER
 70
     0
1001
ACDBATTR
1070
     0
1070
     1
  0
ATTDEF
  5
B1E2
  8
DEFPOINTS
 10
413.8695174326268216
 20
67.5156207650981059
 30
0.0
 40
0.001
  1
JULY
  3

  2
TRADENAME
 70
     0
1001
ACDBATTR
1070
     0
1070
     1
  0
ATTDEF
  5
B1E3
  8
DEFPOINTS
 10
413.8695174326268216
 20
67.5139540984314408
 30
0.0
 40
0.001
  1
BATHROOM SINK FAUCET
  3

  2
PRODUCT
 70
     0
1001
ACDBATTR
1070
     0
1070
     1
  0
ARC
  5
EA06
  8
0
 10
413.2141383383091124
 20
173.4463118108068898
 30
0.0
 40
96.3035942462192054
 50
270.021475039838208
 51
270.4685663968650147
  0
ARC
  5
EA07
  8
0
 10
409.5672552209509831
 20
1537.1583003506209479
 30
0.0
 40
1460.0202212837600655
 50
270.1122354581763148
 51
270.144531805242309
  0
LINE
  5
EA08
  8
0
 10
412.8178517270725933
 20
76.4449662112738224
 30
0.0
 11
412.8200931384726005
 21
75.7500874723738207
 31
0.0
  0
ARC
  5
EA09
  8
0
 10
412.8595906014415959
 20
75.7502148622943707
 30
0.0
 40
0.0394976684017705
 50
180.1847936283189995
 51
269.8125922853977272
  0
LINE
  5
EA0A
  8
0
 10
412.8594614094726012
 20
75.7107174051785989
 30
0.0
 11
413.8428965292725934
 21
75.7107174051785989
 31
0.0
  0
ARC
  5
EA0B
  8
0
 10
413.8427549872280906
 20
76.6963213104016859
 30
0.0
 40
0.9856039153864706
 50
270.0082282158929843
 51
278.1590062477392848
  0
ARC
  5
EA0C
  8
0
 10
413.8429203955108733
 20
76.6948969894530563
 30
0.0
 40
0.9841705372628213
 50
278.1612421804928204
 51
295.1243168010008162
  0
LINE
  5
EA0D
  8
0
 10
414.2607831788002954
 20
75.803840122155691
 30
0.0
 11
414.9175996620381852
 21
76.1118554395490747
 31
0.0
  0
ARC
  5
EA0E
  8
0
 10
414.8928937316027827
 20
76.1453171808818468
 30
0.0
 40
0.041594123764022
 50
306.4397006777945762
 51
359.2597109850182164
  0
LINE
  5
EA0F
  8
0
 10
414.9344843835780807
 20
76.144779779759844
 30
0.0
 11
414.9350074888038193
 21
77.0529781777196803
 31
0.0
  0
ARC
  5
EA10
  8
0
 10
414.8956858565222205
 20
77.0521136396386908
 30
0.0
 40
0.0393311351397047
 50
1.25952055130348
 51
83.6764178661270961
  0
ARC
  5
EA11
  8
0
 10
413.9195244906757125
 20
68.3978429850301808
 30
0.0
 40
8.7484809371802932
 50
83.5650069407138716
 51
89.4617871382294112
  0
ARC
  5
EA12
  8
0
 10
414.0954126021723027
 20
75.6045127022738228
 30
0.0
 40
0.8661417322997061
 50
172.956771935217688
 51
179.9319132472489002
  0
ARC
  5
EA13
  8
0
 10
413.9878398009954026
 20
75.6048552783523746
 30
0.0
 40
0.8634783913421552
 50
359.9726082470947972
 51
29.3929630188621687
  0
LINE
  5
EA14
  8
0
 10
414.8871079084726148
 20
75.6044182097738258
 30
0.0
 11
408.6047601204858779
 21
75.6086766877218395
 31
0.0
  0
LINE
  5
EA15
  8
0
 10
409.1957543298876772
 20
75.6382913300943613
 30
0.0
 11
408.6047601204858779
 21
75.6086766877218395
 31
0.0
  0
LINE
  5
EA16
  8
0
 10
409.1957543298876772
 20
75.6382913300943613
 30
0.0
 11
412.3629270747725855
 21
75.6382913300943613
 31
0.0
  0
ARC
  5
EA17
  8
0
 10
405.9167934963447237
 20
-34.1681505535544972
 30
0.0
 40
109.9954877131697941
 50
86.3627163704896361
 51
86.6403350684057614
  0
ARC
  5
EA18
  8
0
 10
408.6093300303779188
 20
75.5695969458981551
 30
0.0
 40
0.0393460328041618
 50
96.6697664616959145
 51
179.9722978261897026
  0
ARC
  5
EA19
  8
0
 10
412.0254941705867964
 20
75.493687758114163
 30
0.0
 40
3.4563442561894822
 50
178.7412376450955094
 51
186.1094995286865981
  0
ARC
  5
EA1A
  8
0
 10
409.3798919962940204
 20
75.1959196977241788
 30
0.0
 40
0.7942096663148903
 50
185.0627907111673096
 51
209.6606801432141083
  0
ARC
  5
EA1B
  8
0
 10
408.165105021787781
 20
69.18039638837962
 30
0.0
 40
5.6469231627973873
 50
79.4794087521392782
 51
84.669103954259981
  0
ARC
  5
EA1C
  8
0
 10
408.5792575903880106
 20
69.9138094879882033
 30
0.0
 40
4.8579121301625552
 50
77.918776277125616
 51
82.7042317798420186
  0
ARC
  5
EA1D
  8
0
 10
409.6847730684252724
 20
75.3558499155685126
 30
0.0
 40
0.6973938625291629
 50
262.6876167827516042
 51
266.9396742806541738
  0
LINE
  5
EA1E
  8
0
 10
409.6475410466725862
 20
74.6594506220238259
 30
0.0
 11
412.2026834654225809
 21
74.6584064718238238
 31
0.0
  0
ARC
  5
EA1F
  8
0
 10
412.2701585844018837
 20
74.0873420701265957
 30
0.0
 40
0.5750369053957091
 50
31.6453143356506317
 51
96.7386400951050405
  0
ARC
  5
EA20
  8
0
 10
412.2248226523037147
 20
74.1464516630502146
 30
0.0
 40
0.5873136482543182
 50
359.3214597192663859
 51
24.3964683760593708
  0
LINE
  5
EA21
  8
0
 10
412.8120951153725855
 20
74.1394964098738143
 30
0.0
 11
412.8120951153725855
 21
67.5136290478738204
 31
0.0
  0
LINE
  5
EA22
  8
0
 10
412.8120951153725855
 20
67.5136290478738204
 30
0.0
 11
414.9264817517725987
 21
67.5136290478738204
 31
0.0
  0
LINE
  5
EA23
  8
0
 10
414.9264817517725987
 20
67.5136290478738204
 30
0.0
 11
414.9264863466095221
 21
75.5650482194711941
 31
0.0
  0
ARC
  5
EA24
  8
0
 10
414.8871163778637765
 20
75.5650482419391096
 30
0.0
 40
0.0393699687456916
 50
359.9999673020666933
 51
90.0123256479515135
  0
LINE
  5
EA25
  8
0
 10
409.6414876510982026
 20
74.659800655716765
 30
0.0
 11
409.5566569489901099
 21
74.3835592653684614
 31
0.0
  0
ARC
  5
EA26
  8
0
 10
409.5279787202351827
 20
74.3923660349746712
 30
0.0
 40
0.0299999999235805
 50
252.9288517656794113
 51
342.9288519358815961
  0
LINE
  5
EA27
  8
0
 10
409.5191719505438073
 20
74.3636878062459346
 30
0.0
 11
408.6750760827603131
 21
74.6229003948387231
 31
0.0
  0
ARC
  5
EA28
  8
0
 10
408.6838828525042118
 20
74.6515786237385157
 30
0.0
 40
0.0300000001025265
 50
162.9288571771878082
 51
252.9288517656794113
  0
LINE
  5
EA29
  8
0
 10
408.6552046227726009
 20
74.6603853907738255
 30
0.0
 11
408.6987087733858175
 21
74.8020516822248567
 31
0.0
  0
LINE
  5
EA2A
  8
0
 10
408.9639440654726172
 20
74.695290016773825
 30
0.0
 11
408.9275427517493995
 21
74.5767533402034246
 31
0.0
  0
ARC
  5
EA2B
  8
0
 10
408.940258856620801
 20
74.5728483638184514
 30
0.0
 40
0.0133021864243324
 50
162.9288519129111137
 51
206.1401029426484115
  0
ARC
  5
EA2C
  8
0
 10
408.9904697747884939
 20
74.6064197996574023
 30
0.0
 40
0.0736058282354758
 50
212.3926002970740115
 51
247.8434513088367908
  0
ARC
  5
EA2D
  8
0
 10
409.1108985892248029
 20
74.8494214706924765
 30
0.0
 40
0.344656279468579
 50
244.5349794037888103
 51
251.0983036010364913
  0
LINE
  5
EA2E
  8
0
 10
408.9639440654726172
 20
74.695290016773825
 30
0.0
 11
409.3207201352726088
 21
74.5857279976738141
 31
0.0
  0
LINE
  5
EA2F
  8
0
 10
409.3207201352726088
 20
74.5857279976738141
 30
0.0
 11
409.2843188207726257
 21
74.467191318473823
 31
0.0
  0
ARC
  5
EA30
  8
0
 10
409.2687296384705746
 20
74.4732041760449448
 30
0.0
 40
0.0167085924306865
 50
289.6850526149497114
 51
338.9080212088384769
  0
ARC
  5
EA31
  8
0
 10
409.2559595145777962
 20
74.5032276331314733
 30
0.0
 40
0.0493160612485567
 50
273.4363092506109183
 51
291.9051575587047864
  0
ARC
  5
EA32
  8
0
 10
409.2513897738808168
 20
74.5576915183533657
 30
0.0
 40
0.1039640191741513
 50
265.3395804079710842
 51
274.1511282510995215
  0
ARC
  5
EA33
  8
0
 10
409.2585436556234981
 20
74.644398856936391
 30
0.0
 40
0.1909659538128877
 50
258.2814024978773091
 51
265.3140004310163818
  0
ARC
  5
EA34
  8
0
 10
409.3343043841124995
 20
74.9959938033322686
 30
0.0
 40
0.5506269490203187
 50
255.2435722979276989
 51
257.9930731713413934
  0
LINE
  5
EF10
  8
0
 10
412.427255295622615
 20
77.1408802637738233
 30
0.0
 11
410.4105263189767925
 21
77.1321392912802679
 31
0.0
  0
ARC
  5
EF11
  8
0
 10
410.3741895136175231
 20
74.328202060013794
 30
0.0
 40
2.804172669488469
 50
89.2575336464201428
 51
99.6924056536182377
  0
ARC
  5
EF12
  8
0
 10
409.9100415317793136
 20
77.0537434479951457
 30
0.0
 40
0.0394158501734817
 50
101.6494207944127055
 51
209.4561268660544897
  0
ARC
  5
EF13
  8
0
 10
410.1052977936718094
 20
77.1800765219548737
 30
0.0
 40
0.2719167953227928
 50
212.4039400413319072
 51
249.1938128765378053
  0
ARC
  5
EF14
  8
0
 10
410.324725779159678
 20
78.1657489491146862
 30
0.0
 40
1.2794961332099699
 50
255.7008918927072045
 51
273.8357634414945778
  0
ARC
  5
EF15
  8
0
 10
410.8357734088576763
 20
72.7580977830566269
 30
0.0
 40
4.1528721482117801
 50
90.9118464351076341
 51
95.8801562305245199
  0
ARC
  5
EF16
  8
0
 10
410.7479797217318946
 20
-9.6628042517617558
 30
0.0
 40
86.5732509985105168
 50
89.141772739208605
 51
89.9856354483070362
  0
ARC
  5
EF17
  8
0
 10
414.192710845922079
 20
119.2103101176782047
 30
0.0
 40
42.3640661485742811
 50
267.0936547232248017
 51
267.4394023579469035
  0
ARC
  5
EF18
  8
0
 10
412.3671551317999047
 20
76.1409330813869758
 30
0.0
 40
0.7506153680805383
 50
70.0427945041643767
 51
95.1287559773787876
  0
ARC
  5
EF19
  8
0
 10
412.2726059149018738
 20
76.4801996425566557
 30
0.0
 40
0.5463830070286405
 50
356.3027243042279224
 51
30.3593622126948617
  0
ARC
  5
EF1A
  8
0
 10
412.4918894245111005
 20
76.5444771217925819
 30
0.0
 40
0.3293691031180113
 50
40.0368140690467769
 51
66.4755732821812302
  0
ENDSEC
  0
EOF
