  0
SECTION
  2
HEADER
  9
$ACADVER
  1
AC1009
  9
$INSBASE
 10
2976.1678544707610854
 20
177.4956565902637067
 30
0.0
  9
$EXTMIN
 10
2975.2309613688898935
 20
177.4886560099668031
 30
0.0
  9
$EXTMAX
 10
2977.8462165793011991
 20
187.1264776220824899
 30
0.0
  9
$LIMMIN
 10
0.0
 20
0.0
  9
$LIMMAX
 10
11.6929133858000007
 20
8.2677165353999982
  9
$ORTHOMODE
 70
     0
  9
$REGENMODE
 70
     1
  9
$FILLMODE
 70
     1
  9
$QTEXTMODE
 70
     0
  9
$MIRRTEXT
 70
     0
  9
$DRAGMODE
 70
     2
  9
$LTSCALE
 40
0.6431102362
  9
$OSMODE
 70
  4095
  9
$ATTMODE
 70
     1
  9
$TEXTSIZE
 40
0.2
  9
$TRACEWID
 40
0.05
  9
$TEXTSTYLE
  7
STANDARD
  9
$CLAYER
  8
0
  9
$CELTYPE
  6
BYLAYER
  9
$CECOLOR
 62
   256
  9
$DIMSCALE
 40
1.0
  9
$DIMASZ
 40
0.1875
  9
$DIMEXO
 40
0.0625
  9
$DIMDLI
 40
0.4443307087
  9
$DIMRND
 40
0.0
  9
$DIMDLE
 40
0.0
  9
$DIMEXE
 40
0.125
  9
$DIMTP
 40
0.01
  9
$DIMTM
 40
0.01
  9
$DIMTXT
 40
2.0
  9
$DIMCEN
 40
0.1052362205
  9
$DIMTSZ
 40
0.0
  9
$DIMTOL
 70
     1
  9
$DIMLIM
 70
     0
  9
$DIMTIH
 70
     1
  9
$DIMTOH
 70
     1
  9
$DIMSE1
 70
     0
  9
$DIMSE2
 70
     0
  9
$DIMTAD
 70
     0
  9
$DIMZIN
 70
     0
  9
$DIMBLK
  1

  9
$DIMASO
 70
     1
  9
$DIMSHO
 70
     1
  9
$DIMPOST
  1
\X
  9
$DIMAPOST
  1

  9
$DIMALT
 70
     1
  9
$DIMALTD
 70
     2
  9
$DIMALTF
 40
25.3999999999999986
  9
$DIMLFAC
 40
1.0
  9
$DIMTOFL
 70
     0
  9
$DIMTVP
 40
0.0
  9
$DIMTIX
 70
     0
  9
$DIMSOXD
 70
     0
  9
$DIMSAH
 70
     0
  9
$DIMBLK1
  1

  9
$DIMBLK2
  1

  9
$DIMSTYLE
  2
STANDARD
  9
$DIMCLRD
 70
     0
  9
$DIMCLRE
 70
     0
  9
$DIMCLRT
 70
     0
  9
$DIMTFAC
 40
1.0
  9
$DIMGAP
 40
0.09
  9
$LUNITS
 70
     2
  9
$LUPREC
 70
     4
  9
$SKETCHINC
 40
0.1
  9
$FILLETRAD
 40
0.0
  9
$AUNITS
 70
     0
  9
$AUPREC
 70
     0
  9
$MENU
  1
.
  9
$ELEVATION
 40
0.0
  9
$PELEVATION
 40
0.0
  9
$THICKNESS
 40
0.0
  9
$LIMCHECK
 70
     0
  9
$BLIPMODE
 70
     0
  9
$CHAMFERA
 40
0.0
  9
$CHAMFERB
 40
0.0
  9
$SKPOLY
 70
     0
  9
$TDCREATE
 40
2458060.468368056230247
  9
$TDUPDATE
 40
2458793.4018981480039656
  9
$TDINDWG
 40
0.3575417824
  9
$TDUSRTIMER
 40
0.3575417824
  9
$USRTIMER
 70
     1
  9
$ANGBASE
 50
0.0
  9
$ANGDIR
 70
     0
  9
$PDMODE
 70
     0
  9
$PDSIZE
 40
0.3125
  9
$PLINEWID
 40
0.0
  9
$COORDS
 70
     1
  9
$SPLFRAME
 70
     0
  9
$SPLINETYPE
 70
     6
  9
$SPLINESEGS
 70
     8
  9
$ATTDIA
 70
     1
  9
$ATTREQ
 70
     1
  9
$HANDLING
 70
     1
  9
$HANDSEED
  5
6DEC
  9
$SURFTAB1
 70
     6
  9
$SURFTAB2
 70
     6
  9
$SURFTYPE
 70
     6
  9
$SURFU
 70
     6
  9
$SURFV
 70
     6
  9
$UCSNAME
  2

  9
$UCSORG
 10
0.0
 20
0.0
 30
0.0
  9
$UCSXDIR
 10
1.0
 20
0.0
 30
0.0
  9
$UCSYDIR
 10
0.0
 20
1.0
 30
0.0
  9
$PUCSNAME
  2

  9
$PUCSORG
 10
0.0
 20
0.0
 30
0.0
  9
$PUCSXDIR
 10
1.0
 20
0.0
 30
0.0
  9
$PUCSYDIR
 10
0.0
 20
1.0
 30
0.0
  9
$USERI1
 70
     0
  9
$USERI2
 70
     0
  9
$USERI3
 70
     0
  9
$USERI4
 70
     0
  9
$USERI5
 70
     0
  9
$USERR1
 40
0.0
  9
$USERR2
 40
0.0
  9
$USERR3
 40
0.0
  9
$USERR4
 40
0.0
  9
$USERR5
 40
0.0
  9
$WORLDVIEW
 70
     1
  9
$SHADEDGE
 70
     3
  9
$SHADEDIF
 70
    70
  9
$TILEMODE
 70
     1
  9
$MAXACTVP
 70
    64
  9
$PLIMCHECK
 70
     0
  9
$PEXTMIN
 10
1.0000000000000000E+20
 20
1.0000000000000000E+20
 30
1.0000000000000000E+20
  9
$PEXTMAX
 10
-1.0000000000000000E+20
 20
-1.0000000000000000E+20
 30
-1.0000000000000000E+20
  9
$PLIMMIN
 10
0.0
 20
0.0
  9
$PLIMMAX
 10
12.0
 20
9.0
  9
$UNITMODE
 70
     0
  9
$VISRETAIN
 70
     1
  9
$PLINEGEN
 70
     0
  9
$PSLTSCALE
 70
     1
  0
ENDSEC
  0
SECTION
  2
TABLES
  0
TABLE
  2
VPORT
 70
     1
  0
VPORT
  2
*ACTIVE
 70
     0
 10
0.0
 20
0.0
 11
1.0
 21
1.0
 12
0.0000147553455463
 22
-0.0000012402282579
 13
0.0
 23
0.0
 14
1.0
 24
1.0
 15
0.0
 25
0.0
 16
0.0
 26
0.0
 36
28.61960628361253
 17
2976.53857421875
 27
182.3075680562529044
 37
0.0
 40
9.7030890270962118
 41
2.1491525423728808
 42
50.0
 43
0.0
 44
0.0
 50
0.0
 51
0.0
 71
     0
 72
   100
 73
     1
 74
     1
 75
     0
 76
     0
 77
     0
 78
     0
  0
ENDTAB
  0
TABLE
  2
LTYPE
 70
     2
  0
LTYPE
  2
CONTINUOUS
 70
     0
  3
Solid line
 72
    65
 73
     0
 40
0.0
  0
LTYPE
  2
PHANTOM2
 70
     0
  3
___ _ _ ___ _ _ ___ _ _ ___ _ _
 72
    65
 73
     6
 40
1.25
 49
0.625
 49
-0.125
 49
0.125
 49
-0.125
 49
0.125
 49
-0.125
  0
ENDTAB
  0
TABLE
  2
LAYER
 70
     2
  0
LAYER
  2
0
 70
     0
 62
   255
  6
CONTINUOUS
  0
LAYER
  2
DEFPOINTS
 70
     0
 62
     7
  6
CONTINUOUS
  0
ENDTAB
  0
TABLE
  2
STYLE
 70
     1
  0
STYLE
  2
STANDARD
 70
     0
 40
0.0
 41
0.8
 50
0.0
 71
     0
 42
0.2
  3
txt
  4

  0
ENDTAB
  0
TABLE
  2
VIEW
 70
     0
  0
ENDTAB
  0
TABLE
  2
UCS
 70
     0
  0
ENDTAB
  0
TABLE
  2
APPID
 70
     9
  0
APPID
  2
ACAD
 70
     0
  0
APPID
  2
ACAD_MLEADERVER
 70
     0
  0
APPID
  2
ACAD_EXEMPT_FROM_CAD_STANDARDS
 70
     0
  0
APPID
  2
ACAD_NAV_VCDISPLAY
 70
     0
  0
APPID
  2
ACAECLAYERSTANDARD
 70
     0
  0
APPID
  2
ACCMTRANSPARENCY
 70
     0
  0
APPID
  2
ACAD_DSTYLE_DIMJAG
 70
     0
  0
APPID
  2
ACAD_DSTYLE_DIMTALN
 70
     0
  0
APPID
  2
ACDBATTR
 70
     0
  0
ENDTAB
  0
TABLE
  2
DIMSTYLE
 70
     1
  0
DIMSTYLE
  2
STANDARD
 70
     0
  3

  4

  5

  6

  7

 40
1.0
 41
0.1875
 42
0.0625
 43
0.38
 44
0.125
 45
0.0
 46
0.0
 47
0.01
 48
0.01
140
0.15625
141
0.09
142
0.0
143
25.3999999999999986
144
1.0
145
0.0
146
1.0
147
0.09
 71
     1
 72
     0
 73
     1
 74
     1
 75
     0
 76
     0
 77
     0
 78
     4
170
     0
171
     2
172
     0
173
     0
174
     0
175
     0
176
     0
177
     0
178
     0
  0
ENDTAB
  0
ENDSEC
  0
SECTION
  2
BLOCKS
  0
BLOCK
  8
0
  2
$MODEL_SPACE
 70
     0
 10
0.0
 20
0.0
 30
0.0
  3
$MODEL_SPACE
  1

  0
ENDBLK
  5
21
  8
0
  0
BLOCK
 67
     1
  8
0
  2
$PAPER_SPACE
 70
     0
 10
0.0
 20
0.0
 30
0.0
  3
$PAPER_SPACE
  1

  0
ENDBLK
  5
1D
 67
     1
  8
0
  0
BLOCK
  8
0
  2
A$C3A671683
 70
     0
 10
0.0
 20
0.0
 30
0.0
  3
A$C3A671683
  1

  0
LINE
  5
64AD
  8
0
 10
19.7242805827151813
 20
17.186593760681049
 30
0.0
 11
17.9919971181151794
 21
17.186593760681049
 31
0.0
  0
LINE
  5
64AE
  8
0
 10
17.9919971181151794
 20
17.186593760681049
 30
0.0
 11
17.9919971181151794
 21
17.3243890362810511
 31
0.0
  0
ARC
  5
64AF
  8
0
 10
18.0116821575151818
 20
17.3243890362810511
 30
0.0
 40
0.0196850394000006
 50
90.0
 51
180.0000000000001137
  0
LINE
  5
64B0
  8
0
 10
18.0116821575151818
 20
17.3440740756810392
 30
0.0
 11
19.7045955433151789
 21
17.3440740756810392
 31
0.0
  0
LINE
  5
64B1
  8
0
 10
18.2956388817670685
 20
17.3440740756810392
 30
0.0
 11
18.2956388817670685
 21
20.2196336419188505
 31
0.0
  0
ARC
  5
64B2
  8
0
 10
18.3250044745555485
 20
20.2203861248934196
 30
0.0
 40
0.0293752322619933
 50
103.3931210179136997
 51
181.4678629531381091
  0
ARC
  5
64B3
  8
0
 10
18.3524956441739988
 20
20.0575827250337184
 30
0.0
 40
0.1944283320560142
 50
90.3572060212433001
 51
100.1596096926020039
  0
ARC
  5
64B4
  8
0
 10
18.4301884864185404
 20
17.4679263725625695
 30
0.0
 40
2.7851988236965202
 50
89.6777915155863639
 51
91.623412808093974
  0
LINE
  5
64B5
  8
0
 10
18.4458512449900205
 20
20.25308115560685
 30
0.0
 11
18.8581388504151803
 21
20.2531462157714195
 31
0.0
  0
LINE
  5
64B6
  8
0
 10
18.5825482992151798
 20
19.7394040924810383
 30
0.0
 11
18.5825482992151798
 21
19.7353486181810389
 31
0.0
  0
ARC
  5
64B7
  8
0
 10
18.5829207314853484
 20
19.7353486181810389
 30
0.0
 40
0.0003724322701721
 50
180.0000000001230944
 51
216.6495548276951126
  0
LINE
  5
64B8
  8
0
 10
18.5826219285151808
 20
19.7351263062810389
 30
0.0
 11
18.7500976734151799
 21
19.4823706713810409
 31
0.0
  0
ARC
  5
64B9
  8
0
 10
18.7569350533351518
 20
19.4869923168469299
 30
0.0
 40
0.0082528401767107
 50
214.0562583524256013
 51
264.5475790829518132
  0
ARC
  5
64BA
  8
0
 10
18.8581388504151484
 20
21.1754368430929993
 30
0.0
 40
1.6997225629050901
 50
266.5600311822514072
 51
273.4399688177508096
  0
ARC
  5
64BB
  8
0
 10
18.8581404643989714
 20
17.2486399579505516
 30
0.0
 40
2.2342150727920349
 50
87.7808100175880099
 51
92.2192433637510049
  0
ARC
  5
64BC
  8
0
 10
18.8581384996158405
 20
21.4674066674564017
 30
0.0
 40
1.9881106424789281
 50
267.5059333389526728
 51
272.494120020041521
  0
ARC
  5
64BD
  8
0
 10
18.5825391158227617
 20
19.741761079252349
 30
0.0
 40
0.0055827622209994
 50
225.303642260348397
 51
270.0942490193702952
  0
ARC
  5
64BE
  8
0
 10
18.5838249764580716
 20
19.7306739344601993
 30
0.0
 40
0.0088230133090339
 50
98.3198233499394689
 51
126.2126520955261952
  0
ARC
  5
64BF
  8
0
 10
18.7407229511753712
 20
18.1326798039934616
 30
0.0
 40
1.614491300607918
 50
89.1409621279035349
 51
95.6223908089581727
  0
ARC
  5
64C0
  8
0
 10
18.7950696496019987
 20
22.4958364459219489
 30
0.0
 40
2.749012047345798
 50
269.3717692705130275
 51
271.3146235973587181
  0
ARC
  5
64C1
  8
0
 10
18.5745595370528989
 20
38.2455076295901719
 30
0.0
 40
18.5745595528637288
 50
269.6694244810611849
 51
270.1559017409766739
  0
ARC
  5
64C2
  8
0
 10
18.4718657689205799
 20
20.4466874816682491
 30
0.0
 40
0.7754431515340197
 50
266.1924087295838035
 51
269.6694244810611849
  0
ARC
  5
64C3
  8
0
 10
18.420670491416189
 20
19.697305235251541
 30
0.0
 40
0.0243510872039879
 50
237.574552116457113
 51
269.2967489079658208
  0
ARC
  5
64C4
  8
0
 10
18.4153747727721786
 20
19.6858507639934004
 30
0.0
 40
0.0119603343623452
 50
180.0370851075628025
 51
229.5392928551794967
  0
LINE
  5
64C5
  8
0
 10
18.4034144409151814
 20
19.6858430225810395
 30
0.0
 11
18.4034144409151814
 21
19.7490506882810415
 31
0.0
  0
ARC
  5
64C6
  8
0
 10
18.4795767070448598
 20
18.4649179682395115
 30
0.0
 40
1.286389339765875
 50
89.0083595863617063
 51
93.3942522298393243
  0
ARC
  5
64C7
  8
0
 10
18.67998924409018
 20
274.3849054994178118
 30
0.0
 40
254.6338531722921914
 50
269.959914122701889
 51
270.0400858772978836
  0
LINE
  5
64C8
  8
0
 10
19.7242805827151813
 20
17.186593760681049
 30
0.0
 11
19.7242805827151813
 21
17.3243890362810511
 31
0.0
  0
ARC
  5
64C9
  8
0
 10
19.7045955433151789
 20
17.3243890362810511
 30
0.0
 40
0.0196850394000006
 50
359.9999999999997726
 51
90.0
  0
LINE
  5
64CA
  8
0
 10
19.4206388190632993
 20
17.3440740756810392
 30
0.0
 11
19.4206388190632993
 21
20.2196336419188505
 31
0.0
  0
ARC
  5
64CB
  8
0
 10
19.3912732262748193
 20
20.2203861248934196
 30
0.0
 40
0.0293752322619933
 50
358.5321370468619193
 51
76.6068789820861866
  0
ARC
  5
64CC
  8
0
 10
19.363782056656369
 20
20.0575827250337184
 30
0.0
 40
0.1944283320560142
 50
79.8403903073980672
 51
89.6427939787568135
  0
ARC
  5
64CD
  8
0
 10
19.2738764523260606
 20
16.3924462453898698
 30
0.0
 40
3.8606364517145049
 50
88.6475942299276056
 51
90.0512011371418453
  0
LINE
  5
64CE
  8
0
 10
19.2704264783176704
 20
20.25308115560685
 30
0.0
 11
18.8581388504151803
 21
20.2531462157714195
 31
0.0
  0
LINE
  5
64CF
  8
0
 10
19.1337294016151809
 20
19.7394040924810383
 30
0.0
 11
19.1337294016151809
 21
19.7353486181810389
 31
0.0
  0
ARC
  5
64D0
  8
0
 10
19.1333569693450087
 20
19.7353486181810389
 30
0.0
 40
0.0003724322701721
 50
323.3504451723047737
 51
359.9999999998768203
  0
LINE
  5
64D1
  8
0
 10
19.1336557723151905
 20
19.7351263062810389
 30
0.0
 11
18.9661800274151808
 21
19.4823706713810409
 31
0.0
  0
ARC
  5
64D2
  8
0
 10
18.9593426474952089
 20
19.4869923168469299
 30
0.0
 40
0.0082528401767107
 50
275.4524209170483005
 51
325.9437416475743134
  0
ARC
  5
64D3
  8
0
 10
19.1337385850075989
 20
19.741761079252349
 30
0.0
 40
0.0055827622209994
 50
269.9057509806297048
 51
314.6963577396517167
  0
ARC
  5
64D4
  8
0
 10
19.1324527243722891
 20
19.7306739344601993
 30
0.0
 40
0.0088230133090339
 50
53.78734790447389
 51
81.6801766500604174
  0
ARC
  5
64D5
  8
0
 10
18.9755547496550001
 20
18.1326798039934616
 30
0.0
 40
1.614491300607918
 50
84.377609191041941
 51
90.8590378720963656
  0
ARC
  5
64D6
  8
0
 10
18.9212080512283585
 20
22.4958364459219489
 30
0.0
 40
2.749012047345798
 50
268.685376402641225
 51
270.6282307294869725
  0
ARC
  5
64D7
  8
0
 10
19.1417181637774689
 20
38.2455076295901719
 30
0.0
 40
18.5745595528637288
 50
269.8440982590233261
 51
270.3305755189388151
  0
ARC
  5
64D8
  8
0
 10
19.2444119319097808
 20
20.4466874816682491
 30
0.0
 40
0.7754431515340197
 50
270.3305755189388151
 51
273.8075912704164239
  0
ARC
  5
64D9
  8
0
 10
19.2956072094141788
 20
19.697305235251541
 30
0.0
 40
0.0243510872039879
 50
270.7032510920341792
 51
302.4254478835429154
  0
ARC
  5
64DA
  8
0
 10
19.3009029280581785
 20
19.6858507639934004
 30
0.0
 40
0.0119603343623452
 50
310.4607071448205033
 51
359.9629148924371975
  0
LINE
  5
64DB
  8
0
 10
19.3128632599151793
 20
19.6858430225810395
 30
0.0
 11
19.3128632599151793
 21
19.7490506882810415
 31
0.0
  0
ARC
  5
64DC
  8
0
 10
19.2367009937855009
 20
18.4649179682395115
 30
0.0
 40
1.286389339765875
 50
86.6057477701606899
 51
90.9916404136383932
  0
ARC
  5
64DD
  8
0
 10
19.0362884567401913
 20
274.3849054994178118
 30
0.0
 40
254.6338531722921914
 50
269.959914122701889
 51
270.0400858772979973
  0
LINE
  5
64DE
  8
0
 10
18.8581388504151803
 20
19.7826446988810396
 30
0.0
 11
18.4465124539118897
 21
19.7825738496418886
 31
0.0
  0
ARC
  5
64DF
  8
0
 10
18.4482149446979484
 20
9.8912870029448516
 30
0.0
 40
9.89128699321361
 50
90.0098617639189769
 51
90.5083211738065927
  0
ARC
  5
64E0
  8
0
 10
18.3681834782528384
 20
18.9118534942383505
 30
0.0
 40
0.8703654848826323
 50
90.508321173806479
 51
94.7811258880082903
  0
LINE
  5
64E1
  8
0
 10
18.8581388504151803
 20
19.7826446988810396
 30
0.0
 11
19.269765246918471
 21
19.7825738496418886
 31
0.0
  0
ARC
  5
64E2
  8
0
 10
19.2680627561324087
 20
9.8912870029448516
 30
0.0
 40
9.89128699321361
 50
89.4916788261933931
 51
89.9901382360810231
  0
ARC
  5
64E3
  8
0
 10
19.3480942225775188
 20
18.9118534942383505
 30
0.0
 40
0.8703654848826323
 50
85.2188741119917239
 51
89.4916788261933931
  0
LINE
  5
64E4
  8
0
 10
17.9919971181151794
 20
17.24564887878104
 30
0.0
 11
19.7242805827151813
 21
17.2456488787810507
 31
0.0
  0
LINE
  5
64E5
  8
0
 10
18.8581388504151803
 20
17.186593760681049
 30
0.0
 11
20.1357999530772389
 21
16.0890186315406503
 31
0.0
  0
ENDBLK
  5
64E7
  8
0
  0
BLOCK
  8
0
  2
_FILLED
 70
     0
 10
0.0
 20
0.0
 30
0.0
  3
_FILLED
  1

  0
SOLID
  5
67D1
  8
0
  6
BYBLOCK
 62
     0
 10
0.0
 20
0.0
 30
0.0
 11
-1.0
 21
0.1666666667
 31
0.0
 12
-1.0
 22
-0.1666666667
 32
0.0
 13
-1.0
 23
-0.1666666667
 33
0.0
  0
ENDBLK
  5
67D2
  8
0
  6
BYBLOCK
 62
     0
  0
ENDSEC
  0
SECTION
  2
ENTITIES
  0
ATTDEF
  5
3930
  8
DEFPOINTS
 10
2976.1645903219391585
 20
177.491989343300105
 30
0.0
 40
0.001
  1
K-5241M-4
  3

  2
MODELNUMBER
 70
     0
1001
ACDBATTR
1070
     0
1070
     1
  0
ATTDEF
  5
3931
  8
DEFPOINTS
 10
2976.1645903219391585
 20
177.4903226766334114
 30
0.0
 40
0.001
  1
JULY
  3

  2
TRADENAME
 70
     0
1001
ACDBATTR
1070
     0
1070
     1
  0
ATTDEF
  5
3932
  8
DEFPOINTS
 10
2976.1645903219391585
 20
177.4886560099668031
 30
0.0
 40
0.001
  1
BATHROOM SINK FAUCET
  3

  2
PRODUCT
 70
     0
1001
ACDBATTR
1070
     0
1070
     1
  0
ARC
  5
6C7A
  8
0
 10
2976.1699481966338681
 20
179.6428978310815978
 30
0.0
 40
7.4835800838880102
 50
90.0160299824634933
 51
96.9364168971379314
  0
ARC
  5
6C7B
  8
0
 10
2975.2714882374821173
 20
187.0315117430538976
 30
0.0
 40
0.0405422062658206
 50
97.5338809505198157
 51
178.4239231887277128
  0
LINE
  5
6C7C
  8
0
 10
2975.2309613688898935
 20
187.0326268264637122
 30
0.0
 11
2975.2309613688898935
 21
185.7346407657709051
 31
0.0
  0
ARC
  5
6C7D
  8
0
 10
2975.3131395522332241
 20
185.7383738175321923
 30
0.0
 40
0.0822629290329479
 50
182.6009478537451116
 51
196.8317602451446078
  0
ARC
  5
6C7E
  8
0
 10
2975.2709705685911104
 20
185.7341754523899908
 30
0.0
 40
0.0415013690266911
 50
208.2162672314046858
 51
273.3482739360788969
  0
LINE
  5
6C7F
  8
0
 10
2975.2733944622100353
 20
185.6927449277636981
 30
0.0
 11
2977.0643537655100772
 21
185.6927400963637069
 31
0.0
  0
ARC
  5
6C80
  8
0
 10
2976.2230347678300859
 20
185.5944143733196086
 30
0.0
 40
0.8661417169902181
 50
173.4813384724236016
 51
180.0062606470320929
  0
LINE
  5
6C81
  8
0
 10
2975.3568930560109038
 20
185.5943197309636901
 30
0.0
 11
2975.5437760930340119
 21
185.5943197309636901
 31
0.0
  0
ARC
  5
6C82
  8
0
 10
2976.2431924037891804
 20
177.9927469370944948
 30
0.0
 40
7.6336814261693009
 50
90.5654697168770042
 51
95.6174222675821852
  0
ARC
  5
6C83
  8
0
 10
2975.4193161084808708
 20
186.3761641901612052
 30
0.0
 40
0.790121851493414
 50
271.8302690911983746
 51
275.566996850739713
  0
LINE
  5
6C84
  8
0
 10
2975.4445516438108825
 20
185.5864454377158097
 30
0.0
 11
2975.2711410725100905
 21
185.586445280263689
 31
0.0
  0
ARC
  5
6C85
  8
0
 10
2975.2714515990192012
 20
185.5459402991637887
 30
0.0
 40
0.0405061713892316
 50
90.4392425152640698
 51
178.3924939890513031
  0
LINE
  5
6C86
  8
0
 10
2975.2309613688898935
 20
185.5470766022637008
 30
0.0
 11
2975.2309613688898935
 21
177.4956565902637067
 31
0.0
  0
LINE
  5
6C87
  8
0
 10
2975.2309613688898935
 20
177.4956565902637067
 30
0.0
 11
2977.1047475726309131
 21
177.4956565902637067
 31
0.0
  0
LINE
  5
6C88
  8
0
 10
2975.4100427895100438
 20
185.5943197309636901
 30
0.0
 11
2975.4021684590720724
 21
185.5864453992330141
 31
0.0
  0
CIRCLE
  5
6C89
  8
0
 10
2976.1679166780108972
 20
186.3147921718637008
 30
0.0
 40
0.1318897637000007
  0
LINE
  5
6C8A
  8
0
 10
2975.2661726497108248
 20
187.0717039688636874
 30
0.0
 11
2977.0695362918108913
 21
187.0717039688636874
 31
0.0
  0
ARC
  5
6C8B
  8
0
 10
2975.6345335901510225
 20
187.0321536506735072
 30
0.0
 40
0.0413365100722909
 50
106.9048444461462992
 51
198.2961386975985931
  0
ARC
  5
6C8C
  8
0
 10
2975.7195979329590045
 20
187.0630744932383891
 30
0.0
 40
0.1318342054084945
 50
199.4494712434432984
 51
232.6943958591992043
  0
ARC
  5
6C8D
  8
0
 10
2975.8189801353551047
 20
187.1935058142454977
 30
0.0
 40
0.295813324972226
 50
232.6943958591992043
 51
259.1168410464155158
  0
ARC
  5
6C8E
  8
0
 10
2976.2092439057610136
 20
189.7165505816305995
 30
0.0
 40
2.8486862071629688
 50
260.9901715680286998
 51
269.1675027669238034
  0
ARC
  5
6C8F
  8
0
 10
2975.5941198984978655
 20
185.5466761068680057
 30
0.0
 40
0.0522740787572309
 50
101.6281390225558994
 51
174.6033849592037939
  0
ARC
  5
6C90
  8
0
 10
2987.0361928326487941
 20
185.4888487396032133
 30
0.0
 40
11.4942865596887405
 50
179.6872386928343985
 51
181.985244816747894
  0
ARC
  5
6C91
  8
0
 10
2976.5316590529077985
 20
185.1247308075722913
 30
0.0
 40
0.9834439769959793
 50
181.985244816747894
 51
197.3938626681751884
  0
ARC
  5
6C92
  8
0
 10
2975.8326517480791154
 20
184.9278468817726093
 30
0.0
 40
0.258405635807491
 50
202.0729475462539142
 51
238.1826038007878026
  0
ARC
  5
6C93
  8
0
 10
2976.1769928721478209
 20
180.7536778537165958
 30
0.0
 40
4.0312551061942772
 50
90.1298831916228664
 51
94.2986364233764363
  0
ARC
  5
6C94
  8
0
 10
2975.9432364691688235
 20
183.8635283353009982
 30
0.0
 40
0.9126316801063753
 50
94.2986364233764363
 51
103.6076273645654027
  0
ARC
  5
6C95
  8
0
 10
2975.7474475009607886
 20
184.6723518018106915
 30
0.0
 40
0.0804485752259627
 50
103.6076273645654027
 51
129.3701973294801064
  0
ARC
  5
6C96
  8
0
 10
2975.7110454228231902
 20
184.7167154448806912
 30
0.0
 40
0.0230617812813531
 50
129.3701973294801064
 51
187.7897242876555879
  0
LINE
  5
6C97
  8
0
 10
2975.6964166780098822
 20
184.7345436691637133
 30
0.0
 11
2975.6964171120098399
 21
184.5000556731637005
 31
0.0
  0
ARC
  5
6C98
  8
0
 10
2976.1650771169811378
 20
183.2576627154340088
 30
0.0
 40
1.499345388407795
 50
89.8938665219960455
 51
97.0402770166577682
  0
LINE
  5
6C99
  8
0
 10
2976.3544021507100297
 20
184.7457033939637085
 30
0.0
 11
2975.9813067908098674
 21
184.7457033939637085
 31
0.0
  0
LINE
  5
6C9A
  8
0
 10
2975.9813067908098674
 20
184.7457033939637085
 30
0.0
 11
2975.9813067908098674
 21
184.627166714763689
 31
0.0
  0
ARC
  5
6C9B
  8
0
 10
2975.9952841825811447
 20
184.627166714763689
 30
0.0
 40
0.0139773917705073
 50
179.9999999999934914
 51
243.3038564200334122
  0
ARC
  5
6C9C
  8
0
 10
2976.0543435043941827
 20
184.7446127979586095
 30
0.0
 40
0.145436837801754
 50
243.3038564200327016
 51
269.3409457271583278
  0
ARC
  5
6C9D
  8
0
 10
2976.1331153105229532
 20
188.3717856729726066
 30
0.0
 40
3.7734576712437402
 50
268.7784439916212023
 51
270.5274831615215021
  0
ARC
  5
6C9E
  8
0
 10
2976.177323839258861
 20
183.2580454697277048
 30
0.0
 40
1.3294682768341
 50
90.4081025825789482
 51
100.4519312290128994
  0
ARC
  5
6C9F
  8
0
 10
2976.0307939496128711
 20
184.0897435522466878
 30
0.0
 40
0.4850355106917698
 50
101.2528845550259007
 51
115.7375234616725947
  0
ARC
  5
6CA0
  8
0
 10
2975.8676939029301138
 20
184.4280732032567869
 30
0.0
 40
0.109444539047608
 50
115.7375234616725947
 51
145.1255037397243939
  0
ARC
  5
6CA1
  8
0
 10
2975.8089011927559113
 20
184.4714074150240037
 30
0.0
 40
0.0364843069553478
 50
148.1658991061889878
 51
210.3989115305695066
  0
ARC
  5
6CA2
  8
0
 10
2975.8827994753419262
 20
184.5288949439392923
 30
0.0
 40
0.1298863224681802
 50
215.7843492202312916
 51
251.8014144407935078
  0
ARC
  5
6CA3
  8
0
 10
2976.1756131650881798
 20
185.4112151675786038
 30
0.0
 40
1.0595249618899361
 50
251.6603626050263074
 51
269.5804304489619199
  0
ARC
  5
6CA4
  8
0
 10
2976.0540524972298044
 20
183.8963702164813014
 30
0.0
 40
0.734408237769808
 50
95.6846694190617058
 51
113.7582011636313979
  0
ARC
  5
6CA5
  8
0
 10
2975.8127511131337997
 20
184.4445564612038879
 30
0.0
 40
0.1354637354406181
 50
113.7582011636313979
 51
141.3324085741753038
  0
ARC
  5
6CA6
  8
0
 10
2975.7446539356587891
 20
184.4990493755784939
 30
0.0
 40
0.0482473189984838
 50
141.3324085741739964
 51
178.8048914043143895
  0
ARC
  5
6CA7
  8
0
 10
2975.7678311431977818
 20
184.4985658618184061
 30
0.0
 40
0.0714295694260699
 50
178.8048914043143895
 51
227.9104945507760931
  0
ARC
  5
6CA8
  8
0
 10
2975.9575641723599801
 20
184.7383090590118968
 30
0.0
 40
0.3770443115771966
 50
230.9354568393578973
 51
262.6483606414719816
  0
ARC
  5
6CA9
  8
0
 10
2976.1784943501797898
 20
186.0040096403016037
 30
0.0
 40
1.6615934808767101
 50
260.677064995023386
 51
269.633108604180677
  0
ARC
  5
6CAA
  8
0
 10
2976.1657607448869385
 20
179.6428978310815978
 30
0.0
 40
7.4835800838880102
 50
83.0635831028620828
 51
89.9839700175365209
  0
ARC
  5
6CAB
  8
0
 10
2977.064220704039144
 20
187.0315117430538976
 30
0.0
 40
0.0405422062658206
 50
1.5760768112722909
 51
82.4661190494801843
  0
LINE
  5
6CAC
  8
0
 10
2977.1047475726309131
 20
187.0326268264637122
 30
0.0
 11
2977.1047475726309131
 21
185.7346407657709051
 31
0.0
  0
ARC
  5
6CAD
  8
0
 10
2977.0225693892871277
 20
185.7383738175321923
 30
0.0
 40
0.0822629290329479
 50
343.1682397548552785
 51
357.3990521462548031
  0
ARC
  5
6CAE
  8
0
 10
2977.0649100022587845
 20
185.7340067970226869
 30
0.0
 40
0.0412704492657789
 50
269.2277529406526924
 51
331.8773978421535844
  0
ARC
  5
6CAF
  8
0
 10
2976.1126741736911754
 20
185.5944143733196086
 30
0.0
 40
0.8661417169902181
 50
359.9937393529679071
 51
6.5186615275763931
  0
LINE
  5
6CB0
  8
0
 10
2976.9788158855108122
 20
185.5943197309636901
 30
0.0
 11
2976.7919328484867947
 21
185.5943197309636901
 31
0.0
  0
ARC
  5
6CB1
  8
0
 10
2976.0925165377311714
 20
177.9927469370944948
 30
0.0
 40
7.6336814261693009
 50
84.382577732417829
 51
89.43453028312301
  0
ARC
  5
6CB2
  8
0
 10
2976.9163928330399358
 20
186.3761641901612052
 30
0.0
 40
0.7901218514934262
 50
264.433003149260287
 51
268.1697309088016254
  0
LINE
  5
6CB3
  8
0
 10
2976.8911572977108335
 20
185.5864454377158097
 30
0.0
 11
2977.0645678690098066
 21
185.5864454377158097
 31
0.0
  0
ARC
  5
6CB4
  8
0
 10
2977.0642570650138623
 20
185.5459401779561119
 30
0.0
 40
0.0405064521690075
 50
1.6076663792241579
 51
89.560368014380245
  0
LINE
  5
6CB5
  8
0
 10
2977.1047475726309131
 20
185.5470766022637008
 30
0.0
 11
2977.1047475726309131
 21
177.4956565902637067
 31
0.0
  0
LINE
  5
6CB6
  8
0
 10
2976.9256661520112175
 20
185.5943197309636901
 30
0.0
 11
2976.9335404439661943
 21
185.5864454377158097
 31
0.0
  0
ARC
  5
6CB7
  8
0
 10
2976.701175351369784
 20
187.0321536506735072
 30
0.0
 40
0.0413365100722909
 50
341.7038613024013785
 51
73.0951555538272686
  0
ARC
  5
6CB8
  8
0
 10
2976.616111008561802
 20
187.0630744932383891
 30
0.0
 40
0.1318342054084945
 50
307.3056041408008241
 51
340.5505287565566732
  0
ARC
  5
6CB9
  8
0
 10
2976.5167288061661566
 20
187.1935058142454977
 30
0.0
 40
0.295813324972226
 50
280.8831589535844842
 51
307.3056041408008241
  0
ARC
  5
6CBA
  8
0
 10
2976.126465035759793
 20
189.7165505816305995
 30
0.0
 40
2.8486862071629688
 50
270.8324972330761966
 51
279.0098284319713002
  0
ARC
  5
6CBB
  8
0
 10
2976.741589043022941
 20
185.5466761068680057
 30
0.0
 40
0.0522740787572309
 50
5.3966150407962203
 51
78.3718609774440438
  0
ARC
  5
6CBC
  8
0
 10
2965.2995161088711029
 20
185.4888487396032133
 30
0.0
 40
11.4942865596887405
 50
358.0147551832520776
 51
0.3127613071656176
  0
ARC
  5
6CBD
  8
0
 10
2975.8040498886120986
 20
185.1247308075722913
 30
0.0
 40
0.9834439769959793
 50
342.6061373318246979
 51
358.0147551832520776
  0
ARC
  5
6CBE
  8
0
 10
2976.5030571934421459
 20
184.9278468817726093
 30
0.0
 40
0.258405635807491
 50
301.8173961992122258
 51
337.9270524537460005
  0
ARC
  5
6CBF
  8
0
 10
2976.1587160693729857
 20
180.7536778537165958
 30
0.0
 40
4.0312551061942772
 50
85.7013635766235637
 51
89.8701168083771336
  0
ARC
  5
6CC0
  8
0
 10
2976.392472472351983
 20
183.8635283353009982
 30
0.0
 40
0.9126316801063753
 50
76.3923726354345831
 51
85.7013635766235637
  0
ARC
  5
6CC1
  8
0
 10
2976.5882614405600179
 20
184.6723518018106915
 30
0.0
 40
0.0804485752259627
 50
50.6298026705198723
 51
76.3923726354345831
  0
ARC
  5
6CC2
  8
0
 10
2976.6246635186980711
 20
184.7167154448806912
 30
0.0
 40
0.0230617812813531
 50
352.2102757123444121
 51
50.6298026705198723
  0
LINE
  5
6CC3
  8
0
 10
2976.6392922635109244
 20
184.7345436691637133
 30
0.0
 11
2976.6392918295100571
 21
184.5000556731637005
 31
0.0
  0
ARC
  5
6CC4
  8
0
 10
2976.1706318245401235
 20
183.2576627154340088
 30
0.0
 40
1.499345388407795
 50
82.959722983342246
 51
90.1061334780039971
  0
LINE
  5
6CC5
  8
0
 10
2976.3544021507100297
 20
184.7457033939637085
 30
0.0
 11
2976.3544021507100297
 21
184.627166714763689
 31
0.0
  0
ARC
  5
6CC6
  8
0
 10
2976.3404247589392071
 20
184.627166714763689
 30
0.0
 40
0.0139773917705073
 50
296.6961435799665878
 51
0.0000000000065138
  0
ARC
  5
6CC7
  8
0
 10
2976.2813654371270786
 20
184.7446127979586095
 30
0.0
 40
0.145436837801754
 50
270.6590542728416722
 51
296.6961435799673268
  0
ARC
  5
6CC8
  8
0
 10
2976.2025936309978533
 20
188.3717856729726066
 30
0.0
 40
3.7734576712437402
 50
269.4725168384783842
 51
271.2215560083787977
  0
ARC
  5
6CC9
  8
0
 10
2976.3049149919079355
 20
184.0897435522466878
 30
0.0
 40
0.4850355106917698
 50
64.2624765383273768
 51
78.7471154449740283
  0
ARC
  5
6CCA
  8
0
 10
2976.4680150385911475
 20
184.4280732032567869
 30
0.0
 40
0.109444539047608
 50
34.8744962602756132
 51
64.2624765383273768
  0
ARC
  5
6CCB
  8
0
 10
2976.5268077487648952
 20
184.4714074150240037
 30
0.0
 40
0.0364843069553478
 50
329.6010884694305219
 51
31.8341008938110086
  0
ARC
  5
6CCC
  8
0
 10
2976.4529094661788804
 20
184.5288949439392923
 30
0.0
 40
0.1298863224681802
 50
288.1985855592063785
 51
324.21565077976868
  0
ARC
  5
6CCD
  8
0
 10
2976.1600957764330815
 20
185.4112151675786038
 30
0.0
 40
1.0595249618899469
 50
270.4195695510380233
 51
288.3396373949735789
  0
ARC
  5
6CCE
  8
0
 10
2976.2816564442900926
 20
183.8963702164813014
 30
0.0
 40
0.734408237769808
 50
66.2417988363685453
 51
84.3153305809382942
  0
ARC
  5
6CCF
  8
0
 10
2976.5229578283870069
 20
184.4445564612038879
 30
0.0
 40
0.1354637354406181
 50
38.667591425824682
 51
66.2417988363685453
  0
ARC
  5
6CD0
  8
0
 10
2976.5910550058620174
 20
184.4990493755784939
 30
0.0
 40
0.0482473189984838
 50
1.19510859568557
 51
38.6675914258259468
  0
ARC
  5
6CD1
  8
0
 10
2976.5678777983221153
 20
184.4985658618184061
 30
0.0
 40
0.0714295694260699
 50
312.0895054492239069
 51
1.19510859568557
  0
ARC
  5
6CD2
  8
0
 10
2976.3781447691608264
 20
184.7383090590118968
 30
0.0
 40
0.3770443115771966
 50
277.3516393585280184
 51
309.064543160642188
  0
ARC
  5
6CD3
  8
0
 10
2976.1572145913410168
 20
186.0040096403016037
 30
0.0
 40
1.6615934808767381
 50
270.366891395819323
 51
279.322935004976614
  0
ARC
  5
6CD4
  8
0
 10
2976.1583851022619456
 20
183.2580454697277048
 30
0.0
 40
1.3294682768341
 50
79.5480687709870438
 51
89.5918974174210661
  0
ARC
  5
6CD5
  8
0
 10
2977.0294760668889467
 20
178.3286461249435035
 30
0.0
 40
1.2804046482948159
 50
50.3663152116021706
 51
70.012306761702618
  0
LINE
  5
6CD6
  8
0
 10
2977.4671418013949733
 20
179.5319269600830125
 30
0.0
 11
2977.2894095770620879
 21
179.3324509776093123
 31
0.0
  0
ARC
  5
6CD7
  8
0
 10
2976.728340590823791
 20
179.2484462634554063
 30
0.0
 40
0.5673228351809233
 50
330.000000034833306
 51
8.5152215456070852
  0
LINE
  5
6CD8
  8
0
 10
2977.2196565784111044
 20
178.9647848461636954
 30
0.0
 11
2977.1628343662150655
 21
178.8663658875036049
 31
0.0
  0
LINE
  5
6CD9
  8
0
 10
2977.1628343662150655
 20
178.8663658875036049
 30
0.0
 11
2977.4185505287100568
 21
178.7187280919449108
 31
0.0
  0
LINE
  5
6CDA
  8
0
 10
2977.2225014706791626
 20
178.8319170686083055
 30
0.0
 11
2977.1047475726309131
 21
178.6279613343346
 31
0.0
  0
LINE
  5
6CDB
  8
0
 10
2977.2894095771112006
 20
179.3324509776637115
 30
0.0
 11
2977.7589044515748355
 21
179.061387985526494
 31
0.0
  0
LINE
  5
6CDC
  8
0
 10
2977.4671418012649156
 20
179.5319269601287999
 30
0.0
 11
2977.8462165792880114
 21
179.3147348626727933
 31
0.0
  0
LINE
  5
6CDD
  8
0
 10
2977.8462165792188898
 20
179.3147348627219912
 30
0.0
 11
2977.7589044515698333
 21
179.0613879853860908
 31
0.0
  0
ARC
  5
6CDE
  8
0
 10
2977.9666887281218806
 20
178.5334856329236004
 30
0.0
 40
0.5673228351809231
 50
111.4847784466042953
 51
149.9999999573709886
  0
LINE
  5
6CDF
  8
0
 10
2977.4753727409201929
 20
178.8171470508796119
 30
0.0
 11
2977.418550528590913
 21
178.7187280919775958
 31
0.0
  0
LINE
  5
6CE0
  8
0
 10
2977.3588834240040342
 20
178.7531769109799882
 30
0.0
 11
2977.1047475726309131
 21
178.313000704434188
 31
0.0
  0
ARC
  5
6CE1
  8
0
 10
2976.1723477542291221
 20
185.4626457726149056
 30
0.0
 40
1.027107935169558
 50
254.5294472072752967
 51
269.7493476671004942
  0
ARC
  5
6CE2
  8
0
 10
2975.9399679024400029
 20
184.6167768258403044
 30
0.0
 40
0.1499103671338091
 50
216.9514201467038106
 51
253.8913503381195937
  0
ARC
  5
6CE3
  8
0
 10
2976.163361187290775
 20
185.4626457726147919
 30
0.0
 40
1.0271079351694721
 50
270.2506523328995058
 51
285.4705527927246749
  0
ARC
  5
6CE4
  8
0
 10
2976.3957410390808036
 20
184.6167768258403044
 30
0.0
 40
0.1499103671338091
 50
286.1086496618804063
 51
323.0485798532960757
  0
ENDSEC
  0
EOF
