  0
SECTION
  2
HEADER
  9
$ACADVER
  1
AC1009
  9
$INSBASE
 10
3333.7197141138872212
 20
353.7177570820073811
 30
0.0
  9
$EXTMIN
 10
3332.3668259233418212
 20
352.9697255859073834
 30
0.0
  9
$EXTMAX
 10
3335.0726023044321664
 20
353.7232078929044974
 30
0.0
  9
$LIMMIN
 10
0.0
 20
0.0
  9
$LIMMAX
 10
11.6929133858000007
 20
8.2677165353999982
  9
$ORTHOMODE
 70
     0
  9
$REGENMODE
 70
     1
  9
$FILLMODE
 70
     1
  9
$QTEXTMODE
 70
     0
  9
$MIRRTEXT
 70
     0
  9
$DRAGMODE
 70
     2
  9
$LTSCALE
 40
0.6431102362
  9
$OSMODE
 70
  4095
  9
$ATTMODE
 70
     1
  9
$TEXTSIZE
 40
0.2
  9
$TRACEWID
 40
0.05
  9
$TEXTSTYLE
  7
STANDARD
  9
$CLAYER
  8
0
  9
$CELTYPE
  6
BYLAYER
  9
$CECOLOR
 62
   256
  9
$DIMSCALE
 40
1.0
  9
$DIMASZ
 40
0.1875
  9
$DIMEXO
 40
0.0625
  9
$DIMDLI
 40
0.4443307087
  9
$DIMRND
 40
0.0
  9
$DIMDLE
 40
0.0
  9
$DIMEXE
 40
0.125
  9
$DIMTP
 40
0.01
  9
$DIMTM
 40
0.01
  9
$DIMTXT
 40
2.0
  9
$DIMCEN
 40
0.1052362205
  9
$DIMTSZ
 40
0.0
  9
$DIMTOL
 70
     1
  9
$DIMLIM
 70
     0
  9
$DIMTIH
 70
     1
  9
$DIMTOH
 70
     1
  9
$DIMSE1
 70
     0
  9
$DIMSE2
 70
     0
  9
$DIMTAD
 70
     0
  9
$DIMZIN
 70
     0
  9
$DIMBLK
  1

  9
$DIMASO
 70
     1
  9
$DIMSHO
 70
     1
  9
$DIMPOST
  1
\X
  9
$DIMAPOST
  1

  9
$DIMALT
 70
     1
  9
$DIMALTD
 70
     2
  9
$DIMALTF
 40
25.3999999999999986
  9
$DIMLFAC
 40
1.0
  9
$DIMTOFL
 70
     0
  9
$DIMTVP
 40
0.0
  9
$DIMTIX
 70
     0
  9
$DIMSOXD
 70
     0
  9
$DIMSAH
 70
     0
  9
$DIMBLK1
  1

  9
$DIMBLK2
  1

  9
$DIMSTYLE
  2
STANDARD
  9
$DIMCLRD
 70
     0
  9
$DIMCLRE
 70
     0
  9
$DIMCLRT
 70
     0
  9
$DIMTFAC
 40
1.0
  9
$DIMGAP
 40
0.09
  9
$LUNITS
 70
     2
  9
$LUPREC
 70
     4
  9
$SKETCHINC
 40
0.1
  9
$FILLETRAD
 40
0.0
  9
$AUNITS
 70
     0
  9
$AUPREC
 70
     0
  9
$MENU
  1
.
  9
$ELEVATION
 40
0.0
  9
$PELEVATION
 40
0.0
  9
$THICKNESS
 40
0.0
  9
$LIMCHECK
 70
     0
  9
$BLIPMODE
 70
     0
  9
$CHAMFERA
 40
0.0
  9
$CHAMFERB
 40
0.0
  9
$SKPOLY
 70
     0
  9
$TDCREATE
 40
2458060.468368056230247
  9
$TDUPDATE
 40
2459182.5327546298503876
  9
$TDINDWG
 40
2.7574839120000001
  9
$TDUSRTIMER
 40
2.7574839120000001
  9
$USRTIMER
 70
     1
  9
$ANGBASE
 50
0.0
  9
$ANGDIR
 70
     0
  9
$PDMODE
 70
     0
  9
$PDSIZE
 40
0.3125
  9
$PLINEWID
 40
0.0
  9
$COORDS
 70
     1
  9
$SPLFRAME
 70
     0
  9
$SPLINETYPE
 70
     6
  9
$SPLINESEGS
 70
     8
  9
$ATTDIA
 70
     1
  9
$ATTREQ
 70
     1
  9
$HANDLING
 70
     1
  9
$HANDSEED
  5
8513
  9
$SURFTAB1
 70
     6
  9
$SURFTAB2
 70
     6
  9
$SURFTYPE
 70
     6
  9
$SURFU
 70
     6
  9
$SURFV
 70
     6
  9
$UCSNAME
  2

  9
$UCSORG
 10
0.0
 20
0.0
 30
0.0
  9
$UCSXDIR
 10
1.0
 20
0.0
 30
0.0
  9
$UCSYDIR
 10
0.0
 20
1.0
 30
0.0
  9
$PUCSNAME
  2

  9
$PUCSORG
 10
0.0
 20
0.0
 30
0.0
  9
$PUCSXDIR
 10
1.0
 20
0.0
 30
0.0
  9
$PUCSYDIR
 10
0.0
 20
1.0
 30
0.0
  9
$USERI1
 70
     0
  9
$USERI2
 70
     0
  9
$USERI3
 70
     0
  9
$USERI4
 70
     0
  9
$USERI5
 70
     0
  9
$USERR1
 40
0.0
  9
$USERR2
 40
0.0
  9
$USERR3
 40
0.0
  9
$USERR4
 40
0.0
  9
$USERR5
 40
0.0
  9
$WORLDVIEW
 70
     1
  9
$SHADEDGE
 70
     3
  9
$SHADEDIF
 70
    70
  9
$TILEMODE
 70
     1
  9
$MAXACTVP
 70
    64
  9
$PLIMCHECK
 70
     0
  9
$PEXTMIN
 10
1.0000000000000000E+20
 20
1.0000000000000000E+20
 30
1.0000000000000000E+20
  9
$PEXTMAX
 10
-1.0000000000000000E+20
 20
-1.0000000000000000E+20
 30
-1.0000000000000000E+20
  9
$PLIMMIN
 10
0.0
 20
0.0
  9
$PLIMMAX
 10
12.0
 20
9.0
  9
$UNITMODE
 70
     0
  9
$VISRETAIN
 70
     1
  9
$PLINEGEN
 70
     0
  9
$PSLTSCALE
 70
     1
  0
ENDSEC
  0
SECTION
  2
TABLES
  0
TABLE
  2
VPORT
 70
     1
  0
VPORT
  2
*ACTIVE
 70
     0
 10
0.0
 20
0.0
 11
1.0
 21
1.0
 12
0.0
 22
0.0
 13
0.0
 23
0.0
 14
1.0
 24
1.0
 15
0.0
 25
0.0
 16
0.0
 26
0.0
 36
7.9575106252328212
 17
3333.7197141138872212
 27
353.3470979468643804
 37
0.0
 40
2.8083911035506399
 41
2.1186252771618621
 42
50.0
 43
0.0
 44
0.0
 50
0.0
 51
0.0
 71
     0
 72
   100
 73
     1
 74
     1
 75
     0
 76
     0
 77
     0
 78
     0
  0
ENDTAB
  0
TABLE
  2
LTYPE
 70
     3
  0
LTYPE
  2
CONTINUOUS
 70
     0
  3
Solid line
 72
    65
 73
     0
 40
0.0
  0
LTYPE
  2
PHANTOM2
 70
     0
  3
___ _ _ ___ _ _ ___ _ _ ___ _ _
 72
    65
 73
     6
 40
1.25
 49
0.625
 49
-0.125
 49
0.125
 49
-0.125
 49
0.125
 49
-0.125
  0
ENDTAB
  0
TABLE
  2
LAYER
 70
     2
  0
LAYER
  2
0
 70
     0
 62
   255
  6
CONTINUOUS
  0
LAYER
  2
DEFPOINTS
 70
     0
 62
     7
  6
CONTINUOUS
  0
ENDTAB
  0
TABLE
  2
STYLE
 70
     1
  0
STYLE
  2
STANDARD
 70
     0
 40
0.0
 41
0.8
 50
0.0
 71
     0
 42
0.2
  3
txt
  4

  0
ENDTAB
  0
TABLE
  2
VIEW
 70
     0
  0
ENDTAB
  0
TABLE
  2
UCS
 70
     0
  0
ENDTAB
  0
TABLE
  2
APPID
 70
     9
  0
APPID
  2
ACAD
 70
     0
  0
APPID
  2
ACAD_MLEADERVER
 70
     0
  0
APPID
  2
ACAD_EXEMPT_FROM_CAD_STANDARDS
 70
     0
  0
APPID
  2
ACAD_NAV_VCDISPLAY
 70
     0
  0
APPID
  2
ACAECLAYERSTANDARD
 70
     0
  0
APPID
  2
ACCMTRANSPARENCY
 70
     0
  0
APPID
  2
ACAD_DSTYLE_DIMJAG
 70
     0
  0
APPID
  2
ACAD_DSTYLE_DIMTALN
 70
     0
  0
APPID
  2
ACDBATTR
 70
     0
  0
ENDTAB
  0
TABLE
  2
DIMSTYLE
 70
     2
  0
DIMSTYLE
  2
STANDARD
 70
     0
  3

  4

  5

  6

  7

 40
1.0
 41
0.1875
 42
0.0625
 43
0.38
 44
0.125
 45
0.0
 46
0.0
 47
0.01
 48
0.01
140
0.15625
141
0.09
142
0.0
143
25.3999999999999986
144
1.0
145
0.0
146
1.0
147
0.09
 71
     1
 72
     0
 73
     1
 74
     1
 75
     0
 76
     0
 77
     0
 78
     4
170
     0
171
     2
172
     0
173
     0
174
     0
175
     0
176
     0
177
     0
178
     0
  0
ENDTAB
  0
ENDSEC
  0
SECTION
  2
BLOCKS
  0
BLOCK
  8
0
  2
$MODEL_SPACE
 70
     0
 10
0.0
 20
0.0
 30
0.0
  3
$MODEL_SPACE
  1

  0
ENDBLK
  5
21
  8
0
  0
BLOCK
 67
     1
  8
0
  2
$PAPER_SPACE
 70
     0
 10
0.0
 20
0.0
 30
0.0
  3
$PAPER_SPACE
  1

  0
ENDBLK
  5
1D
 67
     1
  8
0
  0
BLOCK
  8
0
  2
_CLOSED
 70
     0
 10
0.0
 20
0.0
 30
0.0
  3
_CLOSED
  1

  0
LINE
  5
57DF
  8
0
  6
BYBLOCK
 62
     0
 10
0.0
 20
0.0
 30
0.0
 11
-1.0
 21
0.1666666667
 31
0.0
  0
LINE
  5
57E0
  8
0
  6
BYBLOCK
 62
     0
 10
-1.0
 20
0.1666666667
 30
0.0
 11
-1.0
 21
-0.1666666667
 31
0.0
  0
LINE
  5
57E1
  8
0
  6
BYBLOCK
 62
     0
 10
-1.0
 20
-0.1666666667
 30
0.0
 11
0.0
 21
0.0
 31
0.0
  0
LINE
  5
57E2
  8
0
  6
BYBLOCK
 62
     0
 10
-1.0
 20
0.0
 30
0.0
 11
0.0
 21
0.0
 31
0.0
  0
ENDBLK
  5
57E3
  8
0
  6
BYBLOCK
 62
     0
  0
BLOCK
  8
0
  2
_FILLED
 70
     0
 10
0.0
 20
0.0
 30
0.0
  3
_FILLED
  1

  0
SOLID
  5
5925
  8
0
  6
BYBLOCK
 62
     0
 10
0.0
 20
0.0
 30
0.0
 11
-1.0
 21
0.1666666667
 31
0.0
 12
-1.0
 22
-0.1666666667
 32
0.0
 13
-1.0
 23
-0.1666666667
 33
0.0
  0
ENDBLK
  5
5926
  8
0
  6
BYBLOCK
 62
     0
  0
ENDSEC
  0
SECTION
  2
ENTITIES
  0
ATTDEF
  5
3930
  8
DEFPOINTS
 10
3333.7167861054108471
 20
353.722207892904521
 30
0.0
 40
0.001
  1
K-527-E
  3

  2
MODELNUMBER
 70
     0
1001
ACDBATTR
1070
     0
1070
     1
  0
ATTDEF
  5
3931
  8
DEFPOINTS
 10
3333.7167861054108471
 20
353.7205412262379127
 30
0.0
 40
0.001
  1
DTV PROMPT
  3

  2
TRADENAME
 70
     0
1001
ACDBATTR
1070
     0
1070
     1
  0
ATTDEF
  5
3932
  8
DEFPOINTS
 10
3333.7167861054108471
 20
353.7188745595711907
 30
0.0
 40
0.001
  1
DIGITAL INTERFACE
  3

  2
PRODUCT
 70
     0
1001
ACDBATTR
1070
     0
1070
     1
  0
LINE
  5
83E0
  8
0
 10
3335.0726023044321664
 20
353.7177573760013729
 30
0.0
 11
3332.3668259233418212
 21
353.7177574874642119
 31
0.0
  0
LINE
  5
83E1
  8
0
 10
3332.3668259233418212
 20
353.7177574874642119
 30
0.0
 11
3332.3922799273382225
 21
353.010356768305428
 31
0.0
  0
ARC
  5
83E2
  8
0
 10
3332.4017576639489562
 20
353.0106978004221219
 30
0.0
 40
0.009483870210821
 50
182.0607530457168082
 51
272.3277343370834842
  0
LINE
  5
83E3
  8
0
 10
3332.4021428556370665
 20
353.0012217558074212
 30
0.0
 11
3332.4481257558481957
 21
353.0012217226405937
 31
0.0
  0
ARC
  5
83E4
  8
0
 10
3332.4480885080160988
 20
353.0110621025410182
 30
0.0
 40
0.0098404503954117
 50
270.2168751036784897
 51
359.6055972714668201
  0
LINE
  5
83E5
  8
0
 10
3332.4579287252709037
 20
353.0109943650937794
 30
0.0
 11
3332.4565157705369529
 21
353.4727240919074234
 31
0.0
  0
ARC
  5
83E6
  8
0
 10
3332.6426661641758074
 20
353.455633750315485
 30
0.0
 40
0.186933273730425
 50
86.877837106728137
 51
174.7544185486335948
  0
LINE
  5
83E7
  8
0
 10
3332.6528474958367951
 20
353.6422895547074177
 30
0.0
 11
3334.7865807319371925
 21
353.6422895547074177
 31
0.0
  0
ARC
  5
83E8
  8
0
 10
3332.6010805128780703
 20
353.5021358493373782
 30
0.0
 40
0.133353944770107
 50
168.9143893167415058
 51
180.9819713226054887
  0
LINE
  5
83E9
  8
0
 10
3332.4677461528381173
 20
353.499850456939896
 30
0.0
 11
3332.4689198129099168
 21
353.0205657914132757
 31
0.0
  0
ARC
  5
83EA
  8
0
 10
3332.4886019002610738
 20
353.0209066882742945
 30
0.0
 40
0.0196850393224118
 50
180.9922727336866899
 51
270.0043024199138131
  0
LINE
  5
83EB
  8
0
 10
3332.4886033784368919
 20
353.0012216490073911
 30
0.0
 11
3334.9508248493370957
 21
353.0012216490073911
 31
0.0
  0
ARC
  5
83EC
  8
0
 10
3332.4707753237321413
 20
353.0868518883225988
 30
0.0
 40
0.0131229246261108
 50
98.9853841605417841
 51
175.4686277031102009
  0
ARC
  5
83ED
  8
0
 10
3333.7197141139367886
 20
355.4461035387075185
 30
0.0
 40
2.4763779528001342
 50
260.8521574645819214
 51
279.1478425354180786
  0
LINE
  5
83EE
  8
0
 10
3335.0726023044321664
 20
353.7177573760013729
 30
0.0
 11
3335.0471483004362199
 21
353.010356768305428
 31
0.0
  0
ARC
  5
83EF
  8
0
 10
3335.0376705638259409
 20
353.0106978004221219
 30
0.0
 40
0.009483870210821
 50
267.6722656629164021
 51
357.9392469542831918
  0
LINE
  5
83F0
  8
0
 10
3335.0372853721369211
 20
353.0012217558074212
 30
0.0
 11
3334.9913024719257919
 21
353.0012217226405937
 31
0.0
  0
ARC
  5
83F1
  8
0
 10
3334.9913397197587983
 20
353.0110621025410182
 30
0.0
 40
0.0098404503954117
 50
180.3944027285330947
 51
269.7831248963215103
  0
LINE
  5
83F2
  8
0
 10
3334.9814995025039934
 20
353.0109943650937794
 30
0.0
 11
3334.9829124572370347
 21
353.4727240919074234
 31
0.0
  0
ARC
  5
83F3
  8
0
 10
3334.7967620635990897
 20
353.455633750315485
 30
0.0
 40
0.186933273730425
 50
5.2455814513663448
 51
93.122162893271863
  0
ARC
  5
83F4
  8
0
 10
3334.8383477148968268
 20
353.5021358493373782
 30
0.0
 40
0.133353944770107
 50
359.0180286773945113
 51
11.0856106832584604
  0
LINE
  5
83F5
  8
0
 10
3334.9716820749367798
 20
353.499850456939896
 30
0.0
 11
3334.9705084148640708
 21
353.0205657914132757
 31
0.0
  0
ARC
  5
83F6
  8
0
 10
3334.9508263275138233
 20
353.0209066882742945
 30
0.0
 40
0.0196850393224118
 50
269.9956975800861869
 51
359.0077272663132248
  0
ARC
  5
83F7
  8
0
 10
3334.9686529040432106
 20
353.0868518883225988
 30
0.0
 40
0.0131229246261108
 50
4.5313722968897627
 51
81.0146158394582443
  0
ENDSEC
  0
EOF
