  0
SECTION
  2
HEADER
  9
$ACADVER
  1
AC1009
  9
$INSBASE
 10
3334.1403579963989614
 20
357.9814114542754169
 30
0.0
  9
$EXTMIN
 10
3332.7874698058540162
 20
354.0837736732146936
 30
0.0
  9
$EXTMAX
 10
3335.4932461869439067
 20
361.8790492353360264
 30
0.0
  9
$LIMMIN
 10
0.0
 20
0.0
  9
$LIMMAX
 10
11.6929133858000007
 20
8.2677165353999982
  9
$ORTHOMODE
 70
     0
  9
$REGENMODE
 70
     1
  9
$FILLMODE
 70
     1
  9
$QTEXTMODE
 70
     0
  9
$MIRRTEXT
 70
     0
  9
$DRAGMODE
 70
     2
  9
$LTSCALE
 40
0.6431102362
  9
$OSMODE
 70
  4095
  9
$ATTMODE
 70
     1
  9
$TEXTSIZE
 40
0.2
  9
$TRACEWID
 40
0.05
  9
$TEXTSTYLE
  7
STANDARD
  9
$CLAYER
  8
0
  9
$CELTYPE
  6
BYLAYER
  9
$CECOLOR
 62
   256
  9
$DIMSCALE
 40
1.0
  9
$DIMASZ
 40
0.1875
  9
$DIMEXO
 40
0.0625
  9
$DIMDLI
 40
0.4443307087
  9
$DIMRND
 40
0.0
  9
$DIMDLE
 40
0.0
  9
$DIMEXE
 40
0.125
  9
$DIMTP
 40
0.01
  9
$DIMTM
 40
0.01
  9
$DIMTXT
 40
2.0
  9
$DIMCEN
 40
0.1052362205
  9
$DIMTSZ
 40
0.0
  9
$DIMTOL
 70
     1
  9
$DIMLIM
 70
     0
  9
$DIMTIH
 70
     1
  9
$DIMTOH
 70
     1
  9
$DIMSE1
 70
     0
  9
$DIMSE2
 70
     0
  9
$DIMTAD
 70
     0
  9
$DIMZIN
 70
     0
  9
$DIMBLK
  1

  9
$DIMASO
 70
     1
  9
$DIMSHO
 70
     1
  9
$DIMPOST
  1
\X
  9
$DIMAPOST
  1

  9
$DIMALT
 70
     1
  9
$DIMALTD
 70
     2
  9
$DIMALTF
 40
25.3999999999999986
  9
$DIMLFAC
 40
1.0
  9
$DIMTOFL
 70
     0
  9
$DIMTVP
 40
0.0
  9
$DIMTIX
 70
     0
  9
$DIMSOXD
 70
     0
  9
$DIMSAH
 70
     0
  9
$DIMBLK1
  1

  9
$DIMBLK2
  1

  9
$DIMSTYLE
  2
STANDARD
  9
$DIMCLRD
 70
     0
  9
$DIMCLRE
 70
     0
  9
$DIMCLRT
 70
     0
  9
$DIMTFAC
 40
1.0
  9
$DIMGAP
 40
0.09
  9
$LUNITS
 70
     2
  9
$LUPREC
 70
     4
  9
$SKETCHINC
 40
0.1
  9
$FILLETRAD
 40
0.0
  9
$AUNITS
 70
     0
  9
$AUPREC
 70
     0
  9
$MENU
  1
.
  9
$ELEVATION
 40
0.0
  9
$PELEVATION
 40
0.0
  9
$THICKNESS
 40
0.0
  9
$LIMCHECK
 70
     0
  9
$BLIPMODE
 70
     0
  9
$CHAMFERA
 40
0.0
  9
$CHAMFERB
 40
0.0
  9
$SKPOLY
 70
     0
  9
$TDCREATE
 40
2458060.468368056230247
  9
$TDUPDATE
 40
2459207.4849305548705161
  9
$TDINDWG
 40
2.7572061343000001
  9
$TDUSRTIMER
 40
2.7572061343000001
  9
$USRTIMER
 70
     1
  9
$ANGBASE
 50
0.0
  9
$ANGDIR
 70
     0
  9
$PDMODE
 70
     0
  9
$PDSIZE
 40
0.3125
  9
$PLINEWID
 40
0.0
  9
$COORDS
 70
     1
  9
$SPLFRAME
 70
     0
  9
$SPLINETYPE
 70
     6
  9
$SPLINESEGS
 70
     8
  9
$ATTDIA
 70
     1
  9
$ATTREQ
 70
     1
  9
$HANDLING
 70
     1
  9
$HANDSEED
  5
86B5
  9
$SURFTAB1
 70
     6
  9
$SURFTAB2
 70
     6
  9
$SURFTYPE
 70
     6
  9
$SURFU
 70
     6
  9
$SURFV
 70
     6
  9
$UCSNAME
  2

  9
$UCSORG
 10
0.0
 20
0.0
 30
0.0
  9
$UCSXDIR
 10
1.0
 20
0.0
 30
0.0
  9
$UCSYDIR
 10
0.0
 20
1.0
 30
0.0
  9
$PUCSNAME
  2

  9
$PUCSORG
 10
0.0
 20
0.0
 30
0.0
  9
$PUCSXDIR
 10
1.0
 20
0.0
 30
0.0
  9
$PUCSYDIR
 10
0.0
 20
1.0
 30
0.0
  9
$USERI1
 70
     0
  9
$USERI2
 70
     0
  9
$USERI3
 70
     0
  9
$USERI4
 70
     0
  9
$USERI5
 70
     0
  9
$USERR1
 40
0.0
  9
$USERR2
 40
0.0
  9
$USERR3
 40
0.0
  9
$USERR4
 40
0.0
  9
$USERR5
 40
0.0
  9
$WORLDVIEW
 70
     1
  9
$SHADEDGE
 70
     3
  9
$SHADEDIF
 70
    70
  9
$TILEMODE
 70
     1
  9
$MAXACTVP
 70
    64
  9
$PLIMCHECK
 70
     0
  9
$PEXTMIN
 10
1.0000000000000000E+20
 20
1.0000000000000000E+20
 30
1.0000000000000000E+20
  9
$PEXTMAX
 10
-1.0000000000000000E+20
 20
-1.0000000000000000E+20
 30
-1.0000000000000000E+20
  9
$PLIMMIN
 10
0.0
 20
0.0
  9
$PLIMMAX
 10
12.0
 20
9.0
  9
$UNITMODE
 70
     0
  9
$VISRETAIN
 70
     1
  9
$PLINEGEN
 70
     0
  9
$PSLTSCALE
 70
     1
  0
ENDSEC
  0
SECTION
  2
TABLES
  0
TABLE
  2
VPORT
 70
     1
  0
VPORT
  2
*ACTIVE
 70
     0
 10
0.0
 20
0.0
 11
1.0
 21
1.0
 12
0.0
 22
0.0
 13
0.0
 23
0.0
 14
1.0
 24
1.0
 15
0.0
 25
0.0
 16
0.0
 26
0.0
 36
23.3804831968176785
 17
3334.1403579963989614
 27
357.9814114542753032
 37
0.0
 40
8.2515178551504462
 41
2.1186252771618621
 42
50.0
 43
0.0
 44
0.0
 50
0.0
 51
0.0
 71
     0
 72
   100
 73
     1
 74
     1
 75
     0
 76
     0
 77
     0
 78
     0
  0
ENDTAB
  0
TABLE
  2
LTYPE
 70
     2
  0
LTYPE
  2
CONTINUOUS
 70
     0
  3
Solid line
 72
    65
 73
     0
 40
0.0
  0
LTYPE
  2
PHANTOM2
 70
     0
  3
___ _ _ ___ _ _ ___ _ _ ___ _ _
 72
    65
 73
     6
 40
1.25
 49
0.625
 49
-0.125
 49
0.125
 49
-0.125
 49
0.125
 49
-0.125
  0
ENDTAB
  0
TABLE
  2
LAYER
 70
     2
  0
LAYER
  2
0
 70
     0
 62
   255
  6
CONTINUOUS
  0
LAYER
  2
DEFPOINTS
 70
     0
 62
     7
  6
CONTINUOUS
  0
ENDTAB
  0
TABLE
  2
STYLE
 70
     1
  0
STYLE
  2
STANDARD
 70
     0
 40
0.0
 41
0.8
 50
0.0
 71
     0
 42
0.2
  3
txt
  4

  0
ENDTAB
  0
TABLE
  2
VIEW
 70
     0
  0
ENDTAB
  0
TABLE
  2
UCS
 70
     0
  0
ENDTAB
  0
TABLE
  2
APPID
 70
     9
  0
APPID
  2
ACAD
 70
     0
  0
APPID
  2
ACAD_MLEADERVER
 70
     0
  0
APPID
  2
ACAD_EXEMPT_FROM_CAD_STANDARDS
 70
     0
  0
APPID
  2
ACAD_NAV_VCDISPLAY
 70
     0
  0
APPID
  2
ACAECLAYERSTANDARD
 70
     0
  0
APPID
  2
ACCMTRANSPARENCY
 70
     0
  0
APPID
  2
ACAD_DSTYLE_DIMJAG
 70
     0
  0
APPID
  2
ACAD_DSTYLE_DIMTALN
 70
     0
  0
APPID
  2
ACDBATTR
 70
     0
  0
ENDTAB
  0
TABLE
  2
DIMSTYLE
 70
     1
  0
DIMSTYLE
  2
STANDARD
 70
     0
  3

  4

  5

  6

  7

 40
1.0
 41
0.1875
 42
0.0625
 43
0.38
 44
0.125
 45
0.0
 46
0.0
 47
0.01
 48
0.01
140
0.15625
141
0.09
142
0.0
143
25.3999999999999986
144
1.0
145
0.0
146
1.0
147
0.09
 71
     1
 72
     0
 73
     1
 74
     1
 75
     0
 76
     0
 77
     0
 78
     4
170
     0
171
     2
172
     0
173
     0
174
     0
175
     0
176
     0
177
     0
178
     0
  0
ENDTAB
  0
ENDSEC
  0
SECTION
  2
BLOCKS
  0
BLOCK
  8
0
  2
$MODEL_SPACE
 70
     0
 10
0.0
 20
0.0
 30
0.0
  3
$MODEL_SPACE
  1

  0
ENDBLK
  5
21
  8
0
  0
BLOCK
 67
     1
  8
0
  2
$PAPER_SPACE
 70
     0
 10
0.0
 20
0.0
 30
0.0
  3
$PAPER_SPACE
  1

  0
ENDBLK
  5
1D
 67
     1
  8
0
  0
BLOCK
  8
0
  2
_CLOSED
 70
     0
 10
0.0
 20
0.0
 30
0.0
  3
_CLOSED
  1

  0
LINE
  5
57DF
  8
0
  6
BYBLOCK
 62
     0
 10
0.0
 20
0.0
 30
0.0
 11
-1.0
 21
0.1666666667
 31
0.0
  0
LINE
  5
57E0
  8
0
  6
BYBLOCK
 62
     0
 10
-1.0
 20
0.1666666667
 30
0.0
 11
-1.0
 21
-0.1666666667
 31
0.0
  0
LINE
  5
57E1
  8
0
  6
BYBLOCK
 62
     0
 10
-1.0
 20
-0.1666666667
 30
0.0
 11
0.0
 21
0.0
 31
0.0
  0
LINE
  5
57E2
  8
0
  6
BYBLOCK
 62
     0
 10
-1.0
 20
0.0
 30
0.0
 11
0.0
 21
0.0
 31
0.0
  0
ENDBLK
  5
57E3
  8
0
  6
BYBLOCK
 62
     0
  0
BLOCK
  8
0
  2
_FILLED
 70
     0
 10
0.0
 20
0.0
 30
0.0
  3
_FILLED
  1

  0
SOLID
  5
5925
  8
0
  6
BYBLOCK
 62
     0
 10
0.0
 20
0.0
 30
0.0
 11
-1.0
 21
0.1666666667
 31
0.0
 12
-1.0
 22
-0.1666666667
 32
0.0
 13
-1.0
 23
-0.1666666667
 33
0.0
  0
ENDBLK
  5
5926
  8
0
  6
BYBLOCK
 62
     0
  0
ENDSEC
  0
SECTION
  2
ENTITIES
  0
ATTDEF
  5
3930
  8
DEFPOINTS
 10
3334.1374241026219352
 20
357.9782260060060821
 30
0.0
 40
0.001
  1
K-527
  3

  2
MODELNUMBER
 70
     0
1001
ACDBATTR
1070
     0
1070
     1
  0
ATTDEF
  5
3931
  8
DEFPOINTS
 10
3334.1374241026219352
 20
357.9765593393394738
 30
0.0
 40
0.001
  1
DTV PROMPT
  3

  2
TRADENAME
 70
     0
1001
ACDBATTR
1070
     0
1070
     1
  0
ATTDEF
  5
3932
  8
DEFPOINTS
 10
3334.1374241026219352
 20
357.9748926726728087
 30
0.0
 40
0.001
  1
DIGITAL INTERFACE
  3

  2
PRODUCT
 70
     0
1001
ACDBATTR
1070
     0
1070
     1
  0
LINE
  5
8470
  8
0
 10
3335.4833723397491667
 20
361.8790492353360264
 30
0.0
 11
3332.7973436530478466
 21
361.8790492353360264
 31
0.0
  0
ARC
  5
8471
  8
0
 10
3332.7983473959661751
 20
361.8682138437090998
 30
0.0
 40
0.0108817834728001
 50
95.292523929554477
 51
178.4093204190970141
  0
LINE
  5
8472
  8
0
 10
3332.7874698058540162
 20
361.8685159114605767
 30
0.0
 11
3332.7874698058540162
 21
354.0943070052604753
 31
0.0
  0
ARC
  5
8473
  8
0
 10
3332.7982641722810513
 20
354.094529549713684
 30
0.0
 40
0.010796660250847
 50
181.1810838444465048
 51
265.0183489237845151
  0
LINE
  5
8474
  8
0
 10
3332.7973266258491094
 20
354.0837736732146936
 30
0.0
 11
3334.0693366358491403
 21
354.0837736732146936
 31
0.0
  0
ARC
  5
8475
  8
0
 10
3334.0690922758121815
 20
354.0939614340010735
 30
0.0
 40
0.0101906909318449
 50
271.3740129039496765
 51
354.814314100692286
  0
LINE
  5
8476
  8
0
 10
3334.079241256349178
 20
354.0930403608605843
 30
0.0
 11
3334.0803730897259811
 21
354.1219179347427257
 31
0.0
  0
LINE
  5
8477
  8
0
 10
3335.2072246459479175
 20
354.1219179369605854
 30
0.0
 11
3333.0734913468490959
 21
354.1219179369605854
 31
0.0
  0
ARC
  5
8478
  8
0
 10
3333.0734913476358088
 20
354.4795321132332901
 30
0.0
 40
0.3576141762727107
 50
251.8243247807104979
 51
269.9999998737890792
  0
ARC
  5
8479
  8
0
 10
3333.0179206616508054
 20
354.3136107694151065
 30
0.0
 40
0.182640269372779
 50
230.3844683243466989
 51
252.1511652591065058
  0
ARC
  5
847A
  8
0
 10
3332.9732121502379414
 20
354.2354488759115725
 30
0.0
 40
0.0951752065574757
 50
186.0817125431923102
 51
221.0740128745673019
  0
LINE
  5
847B
  8
0
 10
3332.8785726077821892
 20
354.2253653771605855
 30
0.0
 11
3332.8785726077821892
 21
361.7379355818605973
 31
0.0
  0
ARC
  5
847C
  8
0
 10
3332.9543127428942171
 20
361.7362282030495066
 30
0.0
 40
0.0757593770370287
 50
130.453472548080299
 51
178.7086234506112135
  0
ARC
  5
847D
  8
0
 10
3333.0516435989870843
 20
361.5750173322805949
 30
0.0
 40
0.2633576019465745
 50
101.9357383819397
 51
123.7950674766633057
  0
ARC
  5
847E
  8
0
 10
3333.0812164570020286
 20
361.4110237430405732
 30
0.0
 40
0.4299506478616972
 50
91.02950937149852
 51
101.2717154113526021
  0
LINE
  5
847F
  8
0
 10
3333.0734913783489901
 20
361.8409049856605861
 30
0.0
 11
3335.2075180330139119
 21
361.8405606438232098
 31
0.0
  0
ARC
  5
8480
  8
0
 10
3332.9824343561058413
 20
361.7335854324676916
 30
0.0
 40
0.0932416466169886
 50
131.3225704851425917
 51
174.8872390724459081
  0
LINE
  5
8481
  8
0
 10
3332.8895636954221118
 20
361.7418947674606216
 30
0.0
 11
3332.8895636954221118
 21
354.2274240400606118
 31
0.0
  0
ARC
  5
8482
  8
0
 10
3332.9800658213271163
 20
354.2271593527881919
 30
0.0
 40
0.090502512962868
 50
179.8324302307210871
 51
228.4993979868270912
  0
ARC
  5
8483
  8
0
 10
3335.4823685947758349
 20
361.8682138417811984
 30
0.0
 40
0.0108817855822988
 50
1.590689427869648
 51
84.7074662235130376
  0
LINE
  5
8484
  8
0
 10
3335.4932461869439067
 20
361.8685159114605767
 30
0.0
 11
3335.4932461869439067
 21
354.0943070052604753
 31
0.0
  0
ARC
  5
8485
  8
0
 10
3335.482451820517781
 20
354.094529549713684
 30
0.0
 40
0.0107966602508449
 50
274.9816510761895074
 51
358.8189161555599753
  0
LINE
  5
8486
  8
0
 10
3335.4833893669488134
 20
354.0837736732146936
 30
0.0
 11
3334.2113793569487825
 21
354.0837736732146936
 31
0.0
  0
ARC
  5
8487
  8
0
 10
3334.2116237169861961
 20
354.0939614340010735
 30
0.0
 40
0.0101906909318461
 50
185.1856858993043886
 51
268.6259870960503235
  0
LINE
  5
8488
  8
0
 10
3334.2014747364491996
 20
354.0930403608605843
 30
0.0
 11
3334.2003429029850849
 21
354.1219179369605854
 31
0.0
  0
ARC
  5
8489
  8
0
 10
3335.207224645162114
 20
354.4795321132332901
 30
0.0
 40
0.3576141762727107
 50
270.0000001262109208
 51
288.1756752192894737
  0
ARC
  5
848A
  8
0
 10
3335.2627953311471174
 20
354.3136107694151065
 30
0.0
 40
0.182640269372779
 50
287.8488347408936079
 51
309.6155316756533011
  0
ARC
  5
848B
  8
0
 10
3335.3075038425590719
 20
354.2354488759115725
 30
0.0
 40
0.0951752065574757
 50
318.9259871254326981
 51
353.9182874568077182
  0
LINE
  5
848C
  8
0
 10
3335.4021433850148242
 20
354.2253653771605855
 30
0.0
 11
3335.4021433850148242
 21
361.7379355818605973
 31
0.0
  0
ARC
  5
848D
  8
0
 10
3335.3264032499041605
 20
361.7362282030495066
 30
0.0
 40
0.0757593770370287
 50
1.291376549388781
 51
49.546527451919637
  0
ARC
  5
848E
  8
0
 10
3335.2290723938099291
 20
361.5750173322805949
 30
0.0
 40
0.2633576019465745
 50
56.2049325233366304
 51
78.0642616180603142
  0
ARC
  5
848F
  8
0
 10
3335.2054217404997871
 20
361.4496751541785784
 30
0.0
 40
0.3908911107418623
 50
78.4722262518718736
 51
89.6927295452331634
  0
ARC
  5
8490
  8
0
 10
3335.2982816366920815
 20
361.7335854324676916
 30
0.0
 40
0.0932416466169886
 50
5.1127609275540653
 51
48.6774295148573799
  0
LINE
  5
8491
  8
0
 10
3335.391152297375811
 20
361.7418947674606216
 30
0.0
 11
3335.391152297375811
 21
354.2274240400606118
 31
0.0
  0
ARC
  5
8492
  8
0
 10
3335.3006501714721708
 20
354.2271593527881919
 30
0.0
 40
0.090502512962868
 50
311.5006020131729088
 51
0.1675697692789205
  0
CIRCLE
  5
8493
  8
0
 10
3334.1403579964489836
 20
355.5896791755606046
 30
0.0
 40
0.3937007873999997
  0
CIRCLE
  5
8494
  8
0
 10
3334.1403579964489836
 20
356.4755059471606273
 30
0.0
 40
0.3937007874
  0
CIRCLE
  5
8495
  8
0
 10
3334.1403579964489836
 20
357.3613327188605808
 30
0.0
 40
0.3937007873999998
  0
CIRCLE
  5
8496
  8
0
 10
3334.1403579964489836
 20
360.4518838999605919
 30
0.0
 40
0.3937007874000003
  0
LINE
  5
855E
  8
0
 10
3333.4603579963991251
 20
359.6885321766745278
 30
0.0
 11
3334.8203579963987977
 21
359.6885321766745278
 31
0.0
  0
ARC
  5
855F
  8
0
 10
3334.8203579963987977
 20
359.5885321766745051
 30
0.0
 40
0.0999999999999659
 50
359.9999999999674856
 51
89.999999999739444
  0
LINE
  5
8560
  8
0
 10
3334.9203579963991615
 20
359.5885321766743914
 30
0.0
 11
3334.9203579963991615
 21
358.2285321766744914
 31
0.0
  0
ARC
  5
8561
  8
0
 10
3334.8203579963987977
 20
358.2285321766743778
 30
0.0
 40
0.1000000000003638
 50
270.0000000002606271
 51
0.0000000000325689
  0
LINE
  5
8562
  8
0
 10
3334.8203579963987977
 20
358.1285321766745255
 30
0.0
 11
3333.4603579963991251
 21
358.1285321766745255
 31
0.0
  0
ARC
  5
8563
  8
0
 10
3333.4603579963991251
 20
358.2285321766743778
 30
0.0
 40
0.0999999999999659
 50
179.9999999999674003
 51
270.0
  0
LINE
  5
8564
  8
0
 10
3333.3603579963992161
 20
358.2285321766744914
 30
0.0
 11
3333.3603579963992161
 21
359.5885321766743914
 31
0.0
  0
ARC
  5
8565
  8
0
 10
3333.4603579963991251
 20
359.5885321766745051
 30
0.0
 40
0.0999999999999091
 50
90.0
 51
180.000000000032486
  0
ENDSEC
  0
EOF
