  0
SECTION
  2
HEADER
  9
$ACADVER
  1
AC1009
  9
$INSBASE
 10
4060.3594121902178813
 20
138.3339878292196943
 30
0.0
  9
$EXTMIN
 10
4048.6674202688168407
 20
134.559563287462197
 30
-0.0015258207003583
  9
$EXTMAX
 10
4071.8199302187040303
 20
141.4896137756734902
 30
0.0000000349246037
  9
$LIMMIN
 10
0.0
 20
0.0
  9
$LIMMAX
 10
11.6929133858000007
 20
8.2677165353999982
  9
$ORTHOMODE
 70
     0
  9
$REGENMODE
 70
     1
  9
$FILLMODE
 70
     1
  9
$QTEXTMODE
 70
     0
  9
$MIRRTEXT
 70
     0
  9
$DRAGMODE
 70
     2
  9
$LTSCALE
 40
0.6431102362
  9
$OSMODE
 70
  4095
  9
$ATTMODE
 70
     1
  9
$TEXTSIZE
 40
0.2
  9
$TRACEWID
 40
0.05
  9
$TEXTSTYLE
  7
STANDARD
  9
$CLAYER
  8
0
  9
$CELTYPE
  6
BYLAYER
  9
$CECOLOR
 62
   256
  9
$DIMSCALE
 40
1.0
  9
$DIMASZ
 40
0.1875
  9
$DIMEXO
 40
0.0625
  9
$DIMDLI
 40
0.4443307087
  9
$DIMRND
 40
0.0
  9
$DIMDLE
 40
0.0
  9
$DIMEXE
 40
0.125
  9
$DIMTP
 40
0.01
  9
$DIMTM
 40
0.01
  9
$DIMTXT
 40
2.0
  9
$DIMCEN
 40
0.1052362205
  9
$DIMTSZ
 40
0.0
  9
$DIMTOL
 70
     1
  9
$DIMLIM
 70
     0
  9
$DIMTIH
 70
     1
  9
$DIMTOH
 70
     1
  9
$DIMSE1
 70
     0
  9
$DIMSE2
 70
     0
  9
$DIMTAD
 70
     0
  9
$DIMZIN
 70
     0
  9
$DIMBLK
  1

  9
$DIMASO
 70
     1
  9
$DIMSHO
 70
     1
  9
$DIMPOST
  1
\X
  9
$DIMAPOST
  1

  9
$DIMALT
 70
     1
  9
$DIMALTD
 70
     2
  9
$DIMALTF
 40
25.3999999999999986
  9
$DIMLFAC
 40
1.0
  9
$DIMTOFL
 70
     0
  9
$DIMTVP
 40
0.0
  9
$DIMTIX
 70
     0
  9
$DIMSOXD
 70
     0
  9
$DIMSAH
 70
     0
  9
$DIMBLK1
  1

  9
$DIMBLK2
  1

  9
$DIMSTYLE
  2
STANDARD
  9
$DIMCLRD
 70
     0
  9
$DIMCLRE
 70
     0
  9
$DIMCLRT
 70
     0
  9
$DIMTFAC
 40
1.0
  9
$DIMGAP
 40
0.09
  9
$LUNITS
 70
     2
  9
$LUPREC
 70
     4
  9
$SKETCHINC
 40
0.1
  9
$FILLETRAD
 40
0.0
  9
$AUNITS
 70
     0
  9
$AUPREC
 70
     0
  9
$MENU
  1
.
  9
$ELEVATION
 40
0.0
  9
$PELEVATION
 40
0.0
  9
$THICKNESS
 40
0.0
  9
$LIMCHECK
 70
     0
  9
$BLIPMODE
 70
     0
  9
$CHAMFERA
 40
0.0
  9
$CHAMFERB
 40
0.0
  9
$SKPOLY
 70
     0
  9
$TDCREATE
 40
2458060.468368056230247
  9
$TDUPDATE
 40
2459095.4017361109144986
  9
$TDINDWG
 40
0.3679353009
  9
$TDUSRTIMER
 40
0.3679353009
  9
$USRTIMER
 70
     1
  9
$ANGBASE
 50
0.0
  9
$ANGDIR
 70
     0
  9
$PDMODE
 70
     0
  9
$PDSIZE
 40
0.3125
  9
$PLINEWID
 40
0.0
  9
$COORDS
 70
     1
  9
$SPLFRAME
 70
     0
  9
$SPLINETYPE
 70
     6
  9
$SPLINESEGS
 70
     8
  9
$ATTDIA
 70
     1
  9
$ATTREQ
 70
     1
  9
$HANDLING
 70
     1
  9
$HANDSEED
  5
10A2B
  9
$SURFTAB1
 70
     6
  9
$SURFTAB2
 70
     6
  9
$SURFTYPE
 70
     6
  9
$SURFU
 70
     6
  9
$SURFV
 70
     6
  9
$UCSNAME
  2

  9
$UCSORG
 10
0.0
 20
0.0
 30
0.0
  9
$UCSXDIR
 10
1.0
 20
0.0
 30
0.0
  9
$UCSYDIR
 10
0.0
 20
1.0
 30
0.0
  9
$PUCSNAME
  2

  9
$PUCSORG
 10
0.0
 20
0.0
 30
0.0
  9
$PUCSXDIR
 10
1.0
 20
0.0
 30
0.0
  9
$PUCSYDIR
 10
0.0
 20
1.0
 30
0.0
  9
$USERI1
 70
     0
  9
$USERI2
 70
     0
  9
$USERI3
 70
     0
  9
$USERI4
 70
     0
  9
$USERI5
 70
     0
  9
$USERR1
 40
0.0
  9
$USERR2
 40
0.0
  9
$USERR3
 40
0.0
  9
$USERR4
 40
0.0
  9
$USERR5
 40
0.0
  9
$WORLDVIEW
 70
     1
  9
$SHADEDGE
 70
     3
  9
$SHADEDIF
 70
    70
  9
$TILEMODE
 70
     1
  9
$MAXACTVP
 70
    64
  9
$PLIMCHECK
 70
     0
  9
$PEXTMIN
 10
1.0000000000000000E+20
 20
1.0000000000000000E+20
 30
1.0000000000000000E+20
  9
$PEXTMAX
 10
-1.0000000000000000E+20
 20
-1.0000000000000000E+20
 30
-1.0000000000000000E+20
  9
$PLIMMIN
 10
0.0
 20
0.0
  9
$PLIMMAX
 10
12.0
 20
9.0
  9
$UNITMODE
 70
     0
  9
$VISRETAIN
 70
     1
  9
$PLINEGEN
 70
     0
  9
$PSLTSCALE
 70
     1
  0
ENDSEC
  0
SECTION
  2
TABLES
  0
TABLE
  2
VPORT
 70
     1
  0
VPORT
  2
*ACTIVE
 70
     0
 10
0.0
 20
0.0
 11
1.0
 21
1.0
 12
148.8783186416688125
 22
5.4449833280390001
 13
0.0
 23
0.0
 14
1.0
 24
1.0
 15
0.0
 25
0.0
 16
0.0
 26
0.0
 36
60.4960186965801583
 17
3911.3653564453120453
 27
132.5796051025390057
 37
0.0
 40
15.0650332810537293
 41
2.48361934477379
 42
50.0
 43
0.0
 44
0.0
 50
0.0
 51
0.0
 71
     0
 72
   100
 73
     1
 74
     1
 75
     0
 76
     0
 77
     0
 78
     0
  0
ENDTAB
  0
TABLE
  2
LTYPE
 70
     3
  0
LTYPE
  2
CONTINUOUS
 70
     0
  3
Solid line
 72
    65
 73
     0
 40
0.0
  0
LTYPE
  2
PHANTOM2
 70
     0
  3
___ _ _ ___ _ _ ___ _ _ ___ _ _
 72
    65
 73
     6
 40
1.25
 49
0.625
 49
-0.125
 49
0.125
 49
-0.125
 49
0.125
 49
-0.125
  0
ENDTAB
  0
TABLE
  2
LAYER
 70
     2
  0
LAYER
  2
0
 70
     0
 62
   255
  6
CONTINUOUS
  0
LAYER
  2
DEFPOINTS
 70
     0
 62
     7
  6
CONTINUOUS
  0
ENDTAB
  0
TABLE
  2
STYLE
 70
     1
  0
STYLE
  2
STANDARD
 70
     0
 40
0.0
 41
0.8
 50
0.0
 71
     0
 42
0.2
  3
txt
  4

  0
ENDTAB
  0
TABLE
  2
VIEW
 70
     0
  0
ENDTAB
  0
TABLE
  2
UCS
 70
     0
  0
ENDTAB
  0
TABLE
  2
APPID
 70
    10
  0
APPID
  2
ACAD
 70
     0
  0
APPID
  2
ACAD_MLEADERVER
 70
     0
  0
APPID
  2
ACAD_EXEMPT_FROM_CAD_STANDARDS
 70
     0
  0
APPID
  2
ACAD_NAV_VCDISPLAY
 70
     0
  0
APPID
  2
ACAECLAYERSTANDARD
 70
     0
  0
APPID
  2
ACCMTRANSPARENCY
 70
     0
  0
APPID
  2
ACAD_DSTYLE_DIMJAG
 70
     0
  0
APPID
  2
ACAD_DSTYLE_DIMTALN
 70
     0
  0
APPID
  2
ACDBATTR
 70
     0
  0
APPID
  2
ACADANNOTATIVE
 70
     0
  0
ENDTAB
  0
TABLE
  2
DIMSTYLE
 70
     2
  0
DIMSTYLE
  2
STANDARD
 70
     0
  3

  4

  5

  6

  7

 40
1.0
 41
0.1875
 42
0.0625
 43
0.38
 44
0.125
 45
0.0
 46
0.0
 47
0.01
 48
0.01
140
0.15625
141
0.09
142
0.0
143
25.3999999999999986
144
1.0
145
0.0
146
1.0
147
0.09
 71
     1
 72
     0
 73
     1
 74
     1
 75
     0
 76
     0
 77
     0
 78
     4
170
     0
171
     2
172
     0
173
     0
174
     0
175
     0
176
     0
177
     0
178
     0
  0
ENDTAB
  0
ENDSEC
  0
SECTION
  2
BLOCKS
  0
BLOCK
  8
0
  2
$MODEL_SPACE
 70
     0
 10
0.0
 20
0.0
 30
0.0
  3
$MODEL_SPACE
  1

  0
ENDBLK
  5
21
  8
0
  0
BLOCK
 67
     1
  8
0
  2
$PAPER_SPACE
 70
     0
 10
0.0
 20
0.0
 30
0.0
  3
$PAPER_SPACE
  1

  0
ENDBLK
  5
1D
 67
     1
  8
0
  0
ENDSEC
  0
SECTION
  2
ENTITIES
  0
LINE
  5
107C9
  8
0
 10
4048.9420914946181256
 20
141.1369985775197051
 30
0.0
 11
4048.9987087604167755
 21
138.3339878292196943
 31
0.0
  0
LINE
  5
107CA
  8
0
 10
4049.0790272290178109
 20
138.3339878292196943
 30
0.0
 11
4049.0790272290178109
 21
138.2552476718196885
 31
0.0
  0
LINE
  5
107CB
  8
0
 10
4059.0673098366178237
 20
134.7082468424196975
 30
0.0
 11
4058.961765526218187
 21
135.9146238303196981
 31
0.0
  0
LINE
  5
107CC
  8
0
 10
4059.0352103071181773
 20
135.9342730956196874
 30
0.0
 11
4059.0350968674179057
 21
135.9348565132196995
 31
0.0
  0
LINE
  5
107CD
  8
0
 10
4059.035283342916955
 20
135.9338829646196984
 30
0.0
 11
4059.0351408284168429
 21
135.9346527427196918
 31
0.0
  0
LINE
  5
107CE
  8
0
 10
4058.6603765725171797
 20
138.0600464539197105
 30
0.0
 11
4059.1857217952178871
 21
135.0806656436197102
 31
0.0
  0
LINE
  5
107CF
  8
0
 10
4060.3594143225182052
 20
141.4836254321197089
 30
0.0
 11
4060.3594143367181459
 21
141.484317939319709
 31
0.0
  0
LINE
  5
107D0
  8
0
 10
4061.6836389220179626
 20
135.9344144266196963
 30
0.0
 11
4061.6838347006178083
 21
135.9354986334197122
 31
0.0
  0
LINE
  5
107D1
  8
0
 10
4059.2241908914179476
 20
134.5644918412197057
 30
0.0
 11
4061.4946377658170604
 21
134.5644918412197057
 31
0.0
  0
LINE
  5
107D2
  8
0
 10
4061.6515188206171842
 20
134.7082468424196975
 30
0.0
 11
4061.7570631309181408
 21
135.9146238302197105
 31
0.0
  0
LINE
  5
107D3
  8
0
 10
4049.0790272290178109
 20
138.2552476718196885
 30
0.0
 11
4071.6397966353169977
 21
138.2552476718196885
 31
0.0
  0
LINE
  5
107D4
  8
0
 10
4048.9987087604167755
 20
138.3339878292196943
 30
0.0
 11
4071.7201156200180776
 21
138.3339878292196943
 31
0.0
  0
LINE
  5
107D5
  8
0
 10
4049.1153199715190567
 20
141.4835941284196963
 30
0.0
 11
4071.6035106101180645
 21
141.4835941284196963
 31
0.0
  0
LINE
  5
107D6
  8
0
 10
4071.6397966353169977
 20
138.2552476718196885
 30
0.0
 11
4071.6397966353169977
 21
138.3339878292196943
 31
0.0
  0
LINE
  5
107D7
  8
0
 10
4071.7201156200180776
 20
138.3339878292196943
 30
0.0
 11
4071.7765238746160321
 21
141.137002828515989
 31
0.0
  0
ARC
  5
107D8
  8
0
 10
4059.4958974654177837
 20
135.1353579830195883
 30
0.0
 40
0.3149606299
 50
189.9999999999990905
 51
270.0
  0
ARC
  5
107D9
  8
0
 10
4058.4277448198181446
 20
138.0190271993197086
 30
0.0
 40
0.2362204724
 50
9.9999999993016875
 51
90.0
  0
ARC
  5
107DA
  8
0
 10
4059.2241908914179476
 20
134.7219721562196924
 30
0.0
 40
0.157480315
 50
185.0000000001003002
 51
270.0
  0
ARC
  5
107DB
  8
0
 10
4061.2228228144517743
 20
135.1354871419989934
 30
0.0
 40
0.3150898076304002
 50
270.0197666592774226
 51
349.9802927356989244
  0
ARC
  5
107DC
  8
0
 10
4061.4946377658170604
 20
134.7219721562196924
 30
0.0
 40
0.157480315
 50
270.0
 51
354.9999999998996145
  0
ARC
  5
107DD
  8
0
 10
4060.8056317800551369
 20
309.0717306837332785
 30
0.0
 40
172.5323449301986898
 50
268.0116072761500732
 51
269.3053161846546004
  0
ARC
  5
107DE
  8
0
 10
4050.0904607952011247
 20
141.1542139423029028
 30
0.0
 40
1.1484983323048641
 50
174.1836924268033044
 51
180.8588647085119021
  0
ARC
  5
107DF
  8
0
 10
4049.3180391504711224
 20
141.2347146309409993
 30
0.0
 40
0.3718996929086423
 50
157.1599848021838
 51
174.4624654639538051
  0
ARC
  5
107E0
  8
0
 10
4049.1612839399749646
 20
141.3009056384937026
 30
0.0
 40
0.201742703226384
 50
138.0958411122836083
 51
157.2040413554732083
  0
ARC
  5
107E1
  8
0
 10
4049.1160998246800773
 20
141.3447322178666923
 30
0.0
 40
0.138864100376523
 50
90.3217716428037249
 51
139.1029090508515083
  0
ARC
  5
107E2
  8
0
 10
4070.6876285696312152
 20
141.1585113007432994
 30
0.0
 40
1.089107707987266
 50
358.868408705405102
 51
5.9073353526527397
  0
ARC
  5
107E3
  8
0
 10
4071.4009082277461857
 20
141.2347537399411124
 30
0.0
 40
0.3717768736742545
 50
5.5333141550807632
 51
22.8414473929337305
  0
ARC
  5
107E4
  8
0
 10
4071.5487535797528835
 20
141.2953361369197864
 30
0.0
 40
0.2120138885870728
 50
23.2628380776705583
 51
41.4372794545749414
  0
ARC
  5
107E5
  8
0
 10
4071.6031803309438146
 20
141.3457091075441099
 30
0.0
 40
0.137885416437647
 50
40.7125609473299122
 51
89.8627583590215977
  0
ARC
  5
107E6
  8
0
 10
4062.2907307951791154
 20
138.0194476794115985
 30
0.0
 40
0.2358000419728635
 50
89.9628130900869536
 51
170.0857218269790962
  0
LINE
  5
107E7
  8
0
 10
4059.4958974654241501
 20
134.820397353119688
 30
0.0
 11
4061.2229315183180915
 21
134.820397353119688
 31
0.0
  0
ARC
  5
107E8
  8
0
 10
4058.7265940420688821
 20
135.8940595503825932
 30
0.0
 40
0.2360688809766144
 50
4.9974470211261206
 51
18.9185424277486298
  0
ARC
  5
107E9
  8
0
 10
4058.8240543541028273
 20
135.7704375337197007
 30
0.0
 40
0.2364361038048373
 50
11.0648930596363702
 51
88.8294378372799258
  0
ARC
  5
107EA
  8
0
 10
4059.839230509871868
 20
198.9378643530666011
 30
0.0
 40
62.9391499929064793
 50
265.4937694593673996
 51
269.0802060116490111
  0
ARC
  5
107EB
  8
0
 10
4055.7765589530617945
 20
141.9067224933129978
 30
0.0
 40
5.7811736762322949
 50
238.5908017809225043
 51
261.2214345468890997
  0
ARC
  5
107EC
  8
0
 10
4056.0317777087411741
 20
144.1278362749453095
 30
0.0
 40
7.8661588299334309
 50
229.985736400950799
 51
245.4518421288750858
  0
ARC
  5
107ED
  8
0
 10
4050.5771874607730751
 20
137.6623600720909053
 30
0.0
 40
0.5931834015991181
 50
48.0125162102435823
 51
88.1904872725240949
  0
ARC
  5
107EE
  8
0
 10
4050.7873319509171779
 20
137.6774043194569117
 30
0.0
 40
0.6308441105247633
 50
41.3232109802665093
 51
60.3622968368781088
  0
ARC
  5
107EF
  8
0
 10
4050.9639073410530727
 20
137.9969911831931029
 30
0.0
 40
0.2657891264988704
 50
59.3779246895727368
 51
72.5516621070085534
  0
ARC
  5
107F0
  8
0
 10
4051.0112139472112176
 20
138.1448354865866861
 30
0.0
 40
0.1105656853536876
 50
72.9659383765794587
 51
86.9805206251819953
  0
ARC
  5
107F1
  8
0
 10
4055.6199116113011769
 20
143.4897195980209119
 30
0.0
 40
6.9363949100976656
 50
231.0679595081003015
 51
245.822487016209891
  0
ARC
  5
107F2
  8
0
 10
4055.0527280652599984
 20
141.8352482899439906
 30
0.0
 40
5.1972228193834251
 50
244.0563025002147981
 51
267.4254325133355792
  0
ARC
  5
107F3
  8
0
 10
4058.7521860911037948
 20
136.2185292078299881
 30
0.0
 40
0.3357381980367927
 50
76.6072917441224632
 51
96.563255549749357
  0
ARC
  5
107F4
  8
0
 10
4058.7927757782508706
 20
136.3700217011773077
 30
0.0
 40
0.1790179343787811
 50
43.4754353942883611
 51
78.0145766998163737
  0
ARC
  5
107F5
  8
0
 10
4058.8506935407999663
 20
136.4303209244021104
 30
0.0
 40
0.0955801958649231
 50
10.6905586523635492
 51
41.1325052564121521
  0
LINE
  5
107F6
  8
0
 10
4061.6834183501168809
 20
135.9342730956196874
 30
0.0
 11
4061.6835317898171525
 21
135.9348565132196995
 31
0.0
  0
LINE
  5
107F7
  8
0
 10
4061.6833453143171937
 20
135.9338829646196984
 30
0.0
 11
4061.6834878288182153
 21
135.9346527427196918
 31
0.0
  0
LINE
  5
107F8
  8
0
 10
4062.058452084712826
 20
138.0600464538939889
 30
0.0
 11
4061.5331068620371298
 21
135.0806656436006961
 31
0.0
  0
ARC
  5
107F9
  8
0
 10
4059.9262472036998588
 20
308.6158809488545103
 30
0.0
 40
172.0763099453207019
 50
270.6921162999049102
 51
271.9892498767392226
  0
ARC
  5
107FA
  8
0
 10
4061.9796732799181882
 20
135.897473313718308
 30
0.0
 40
0.223269833731425
 50
160.8836200510721142
 51
175.5944735598332045
  0
ARC
  5
107FB
  8
0
 10
4061.8945743031317761
 20
135.7704375337197007
 30
0.0
 40
0.2364361038048373
 50
91.1705621627200884
 51
167.4300752954684128
  0
ARC
  5
107FC
  8
0
 10
4060.9241552594839959
 20
197.9933508254426897
 30
0.0
 40
61.9940467561668882
 50
270.8924471252414037
 51
274.5335774037413898
  0
ARC
  5
107FD
  8
0
 10
4064.998319015287052
 20
141.6884048208395086
 30
0.0
 40
5.5568735560986422
 50
278.5489271229989754
 51
302.1451265734976914
  0
ARC
  5
107FE
  8
0
 10
4064.984021446729912
 20
143.7211643114740127
 30
0.0
 40
7.3636988916732999
 50
293.7943267279324004
 51
310.277902782116314
  0
ARC
  5
107FF
  8
0
 10
4070.1414411964619831
 20
137.6623600720909053
 30
0.0
 40
0.5931834015991181
 50
91.8095127274759051
 51
131.9874837897563964
  0
ARC
  5
10800
  8
0
 10
4069.8533650313511316
 20
137.7915038507325107
 30
0.0
 40
0.4932636829090226
 50
118.3236206196716012
 51
142.3637766495812116
  0
ARC
  5
10801
  8
0
 10
4069.7547213161819855
 20
137.9969911831931029
 30
0.0
 40
0.2657891264988704
 50
107.4483378929914039
 51
120.6220753104272063
  0
ARC
  5
10802
  8
0
 10
4069.7074147100229311
 20
138.1448354865866861
 30
0.0
 40
0.1105656853536876
 50
93.0194793748180189
 51
107.0340616234204987
  0
ARC
  5
10803
  8
0
 10
4064.9567665496019799
 20
143.7535849617875954
 30
0.0
 40
7.235283940025127
 50
294.3472058825511226
 51
308.5193390685685131
  0
ARC
  5
10804
  8
0
 10
4065.6659005919759693
 20
141.8352482899439053
 30
0.0
 40
5.1972228193833017
 50
272.5745674866644208
 51
295.9436974997851735
  0
ARC
  5
10805
  8
0
 10
4061.9667316172990468
 20
136.2165725422051992
 30
0.0
 40
0.3377086478800403
 50
83.5227189199194271
 51
103.3635232088098945
  0
ARC
  5
10806
  8
0
 10
4061.9258528789841876
 20
136.3700217011773077
 30
0.0
 40
0.1790179343787811
 50
101.9854233001835979
 51
131.1673204985937105
  0
ARC
  5
10807
  8
0
 10
4061.8679351164369109
 20
136.4303209244021104
 30
0.0
 40
0.0955801958649231
 50
128.8243903607221057
 51
166.2566925080697047
  0
ATTDEF
  5
1080F
  8
DEFPOINTS
 10
4060.3598245140501604
 20
138.3323117604103913
 30
0.0
 40
0.001
  1
K-5373IN
  3

  2
MODELNUMBER
 70
     0
1001
ACDBATTR
1070
     0
1070
     1
  0
ATTDEF
  5
10810
  8
DEFPOINTS
 10
4060.3598245140501604
 20
138.3306450937436978
 30
0.0
 40
0.001
  1
FOREFRONT
  3

  2
TRADENAME
 70
     0
1001
ACDBATTR
1070
     0
1070
     1
  0
ATTDEF
  5
10811
  8
DEFPOINTS
 10
4060.3598245140501604
 20
138.3289784270770895
 30
0.0
 40
0.001
  1
BATHROOM SINK
  3

  2
PRODUCT
 70
     0
1001
ACDBATTR
1070
     0
1070
     1
  0
ENDSEC
  0
EOF
