  0
SECTION
  2
HEADER
  9
$ACADVER
  1
AC1009
  9
$INSBASE
 10
3710.4174866765920342
 20
134.0177799723678902
 30
0.0
  9
$EXTMIN
 10
3669.890126803055864
 20
134.0018715913961955
 30
-0.0000000349181948
  9
$EXTMAX
 10
3710.6553556760159154
 20
172.7577176943665052
 30
0.0000000814935746
  9
$LIMMIN
 10
0.0
 20
0.0
  9
$LIMMAX
 10
11.6929133858000007
 20
8.2677165353999982
  9
$ORTHOMODE
 70
     0
  9
$REGENMODE
 70
     1
  9
$FILLMODE
 70
     1
  9
$QTEXTMODE
 70
     0
  9
$MIRRTEXT
 70
     0
  9
$DRAGMODE
 70
     2
  9
$LTSCALE
 40
0.6431102362
  9
$OSMODE
 70
  2039
  9
$ATTMODE
 70
     1
  9
$TEXTSIZE
 40
0.2
  9
$TRACEWID
 40
0.05
  9
$TEXTSTYLE
  7
STANDARD
  9
$CLAYER
  8
0
  9
$CELTYPE
  6
BYLAYER
  9
$CECOLOR
 62
   256
  9
$DIMSCALE
 40
1.0
  9
$DIMASZ
 40
0.1875
  9
$DIMEXO
 40
0.0625
  9
$DIMDLI
 40
0.4443307087
  9
$DIMRND
 40
0.0
  9
$DIMDLE
 40
0.0
  9
$DIMEXE
 40
0.125
  9
$DIMTP
 40
0.01
  9
$DIMTM
 40
0.01
  9
$DIMTXT
 40
2.0
  9
$DIMCEN
 40
0.1052362205
  9
$DIMTSZ
 40
0.0
  9
$DIMTOL
 70
     1
  9
$DIMLIM
 70
     0
  9
$DIMTIH
 70
     1
  9
$DIMTOH
 70
     1
  9
$DIMSE1
 70
     0
  9
$DIMSE2
 70
     0
  9
$DIMTAD
 70
     0
  9
$DIMZIN
 70
     0
  9
$DIMBLK
  1

  9
$DIMASO
 70
     1
  9
$DIMSHO
 70
     1
  9
$DIMPOST
  1
\X
  9
$DIMAPOST
  1

  9
$DIMALT
 70
     1
  9
$DIMALTD
 70
     2
  9
$DIMALTF
 40
25.3999999999999986
  9
$DIMLFAC
 40
1.0
  9
$DIMTOFL
 70
     0
  9
$DIMTVP
 40
0.0
  9
$DIMTIX
 70
     0
  9
$DIMSOXD
 70
     0
  9
$DIMSAH
 70
     0
  9
$DIMBLK1
  1

  9
$DIMBLK2
  1

  9
$DIMSTYLE
  2
STANDARD
  9
$DIMCLRD
 70
     0
  9
$DIMCLRE
 70
     0
  9
$DIMCLRT
 70
     0
  9
$DIMTFAC
 40
1.0
  9
$DIMGAP
 40
0.09
  9
$LUNITS
 70
     2
  9
$LUPREC
 70
     4
  9
$SKETCHINC
 40
0.1
  9
$FILLETRAD
 40
0.0
  9
$AUNITS
 70
     0
  9
$AUPREC
 70
     0
  9
$MENU
  1
.
  9
$ELEVATION
 40
0.0
  9
$PELEVATION
 40
0.0
  9
$THICKNESS
 40
0.0
  9
$LIMCHECK
 70
     0
  9
$BLIPMODE
 70
     0
  9
$CHAMFERA
 40
0.0
  9
$CHAMFERB
 40
0.0
  9
$SKPOLY
 70
     0
  9
$TDCREATE
 40
2458060.468368056230247
  9
$TDUPDATE
 40
2459219.7640972221270204
  9
$TDINDWG
 40
0.3298913194
  9
$TDUSRTIMER
 40
0.3298913194
  9
$USRTIMER
 70
     1
  9
$ANGBASE
 50
0.0
  9
$ANGDIR
 70
     0
  9
$PDMODE
 70
     0
  9
$PDSIZE
 40
0.3125
  9
$PLINEWID
 40
0.0
  9
$COORDS
 70
     1
  9
$SPLFRAME
 70
     0
  9
$SPLINETYPE
 70
     6
  9
$SPLINESEGS
 70
     8
  9
$ATTDIA
 70
     1
  9
$ATTREQ
 70
     1
  9
$HANDLING
 70
     1
  9
$HANDSEED
  5
E2EA
  9
$SURFTAB1
 70
     6
  9
$SURFTAB2
 70
     6
  9
$SURFTYPE
 70
     6
  9
$SURFU
 70
     6
  9
$SURFV
 70
     6
  9
$UCSNAME
  2

  9
$UCSORG
 10
0.0
 20
0.0
 30
0.0
  9
$UCSXDIR
 10
1.0
 20
0.0
 30
0.0
  9
$UCSYDIR
 10
0.0
 20
1.0
 30
0.0
  9
$PUCSNAME
  2

  9
$PUCSORG
 10
0.0
 20
0.0
 30
0.0
  9
$PUCSXDIR
 10
1.0
 20
0.0
 30
0.0
  9
$PUCSYDIR
 10
0.0
 20
1.0
 30
0.0
  9
$USERI1
 70
     0
  9
$USERI2
 70
     0
  9
$USERI3
 70
     0
  9
$USERI4
 70
     0
  9
$USERI5
 70
     0
  9
$USERR1
 40
0.0
  9
$USERR2
 40
0.0
  9
$USERR3
 40
0.0
  9
$USERR4
 40
0.0
  9
$USERR5
 40
0.0
  9
$WORLDVIEW
 70
     1
  9
$SHADEDGE
 70
     3
  9
$SHADEDIF
 70
    70
  9
$TILEMODE
 70
     1
  9
$MAXACTVP
 70
    64
  9
$PLIMCHECK
 70
     0
  9
$PEXTMIN
 10
1.0000000000000000E+20
 20
1.0000000000000000E+20
 30
1.0000000000000000E+20
  9
$PEXTMAX
 10
-1.0000000000000000E+20
 20
-1.0000000000000000E+20
 30
-1.0000000000000000E+20
  9
$PLIMMIN
 10
0.0
 20
0.0
  9
$PLIMMAX
 10
12.0
 20
9.0
  9
$UNITMODE
 70
     0
  9
$VISRETAIN
 70
     1
  9
$PLINEGEN
 70
     0
  9
$PSLTSCALE
 70
     1
  0
ENDSEC
  0
SECTION
  2
TABLES
  0
TABLE
  2
VPORT
 70
     1
  0
VPORT
  2
*ACTIVE
 70
     0
 10
0.0
 20
0.0
 11
1.0
 21
1.0
 12
-113.2713261432773066
 22
27.3845324461314803
 13
0.0
 23
0.0
 14
1.0
 24
1.0
 15
0.0
 25
0.0
 16
0.0
 26
0.0
 36
17.1152628219792007
 17
3803.5440673828129547
 27
125.9952621967499056
 37
0.0
 40
39.0783635462682284
 41
2.6486111111111108
 42
50.0
 43
0.0
 44
0.0
 50
0.0
 51
0.0
 71
     0
 72
   100
 73
     1
 74
     1
 75
     0
 76
     0
 77
     0
 78
     0
  0
ENDTAB
  0
TABLE
  2
LTYPE
 70
     2
  0
LTYPE
  2
CONTINUOUS
 70
     0
  3
Solid line
 72
    65
 73
     0
 40
0.0
  0
LTYPE
  2
PHANTOM2
 70
     0
  3
___ _ _ ___ _ _ ___ _ _ ___ _ _
 72
    65
 73
     6
 40
1.25
 49
0.625
 49
-0.125
 49
0.125
 49
-0.125
 49
0.125
 49
-0.125
  0
ENDTAB
  0
TABLE
  2
LAYER
 70
     2
  0
LAYER
  2
0
 70
     0
 62
   255
  6
CONTINUOUS
  0
LAYER
  2
DEFPOINTS
 70
     0
 62
     7
  6
CONTINUOUS
  0
ENDTAB
  0
TABLE
  2
STYLE
 70
     1
  0
STYLE
  2
STANDARD
 70
     0
 40
0.0
 41
0.8
 50
0.0
 71
     0
 42
0.2
  3
txt
  4

  0
ENDTAB
  0
TABLE
  2
VIEW
 70
     0
  0
ENDTAB
  0
TABLE
  2
UCS
 70
     0
  0
ENDTAB
  0
TABLE
  2
APPID
 70
     9
  0
APPID
  2
ACAD
 70
     0
  0
APPID
  2
ACAD_MLEADERVER
 70
     0
  0
APPID
  2
ACAD_EXEMPT_FROM_CAD_STANDARDS
 70
     0
  0
APPID
  2
ACAD_NAV_VCDISPLAY
 70
     0
  0
APPID
  2
ACAECLAYERSTANDARD
 70
     0
  0
APPID
  2
ACCMTRANSPARENCY
 70
     0
  0
APPID
  2
ACAD_DSTYLE_DIMJAG
 70
     0
  0
APPID
  2
ACAD_DSTYLE_DIMTALN
 70
     0
  0
APPID
  2
ACDBATTR
 70
     0
  0
ENDTAB
  0
TABLE
  2
DIMSTYLE
 70
     1
  0
DIMSTYLE
  2
STANDARD
 70
     0
  3

  4

  5

  6

  7

 40
1.0
 41
0.1875
 42
0.0625
 43
0.38
 44
0.125
 45
0.0
 46
0.0
 47
0.01
 48
0.01
140
0.15625
141
0.09
142
0.0
143
25.3999999999999986
144
1.0
145
0.0
146
1.0
147
0.09
 71
     1
 72
     0
 73
     1
 74
     1
 75
     0
 76
     0
 77
     0
 78
     4
170
     0
171
     2
172
     0
173
     0
174
     0
175
     0
176
     0
177
     0
178
     0
  0
ENDTAB
  0
ENDSEC
  0
SECTION
  2
BLOCKS
  0
BLOCK
  8
0
  2
$MODEL_SPACE
 70
     0
 10
0.0
 20
0.0
 30
0.0
  3
$MODEL_SPACE
  1

  0
ENDBLK
  5
21
  8
0
  0
BLOCK
 67
     1
  8
0
  2
$PAPER_SPACE
 70
     0
 10
0.0
 20
0.0
 30
0.0
  3
$PAPER_SPACE
  1

  0
ENDBLK
  5
1D
 67
     1
  8
0
  0
BLOCK
  8
0
  2
_FILLED
 70
     0
 10
0.0
 20
0.0
 30
0.0
  3
_FILLED
  1

  0
SOLID
  5
8BDF
  8
0
  6
BYBLOCK
 62
     0
 10
0.0
 20
0.0
 30
0.0
 11
-1.0
 21
0.1666666667
 31
0.0
 12
-1.0
 22
-0.1666666667
 32
0.0
 13
-1.0
 23
-0.1666666667
 33
0.0
  0
ENDBLK
  5
8BE0
  8
0
  6
BYBLOCK
 62
     0
  0
ENDSEC
  0
SECTION
  2
ENTITIES
  0
ATTDEF
  5
D114
  8
DEFPOINTS
 10
3710.4182016691861463
 20
134.0218700616401861
 30
0.0
 40
0.001
  1
K-5401IN
  3

  2
MODELNUMBER
 70
     0
1001
ACDBATTR
1070
     0
1070
     1
  0
ATTDEF
  5
D115
  8
DEFPOINTS
 10
3710.4182016691861463
 20
134.0202033949734925
 30
0.0
 40
0.001
  1
VEIL
  3

  2
TRADENAME
 70
     0
1001
ACDBATTR
1070
     0
1070
     1
  0
ATTDEF
  5
D116
  8
DEFPOINTS
 10
3710.4182016691861463
 20
134.018536728306799
 30
0.0
 40
0.001
  1
TOILET
  3

  2
PRODUCT
 70
     0
1001
ACDBATTR
1070
     0
1070
     1
  0
LINE
  5
DCDA
  8
0
 10
3707.7340923594579181
 20
134.0177799723678902
 30
0.0
 11
3685.702808510999148
 21
134.0177799723678902
 31
0.0
  0
ARC
  5
DCDB
  8
0
 10
3570.5933462820598834
 20
128.5293904954264974
 30
0.0
 40
115.2402304479044943
 50
2.729780656044829
 51
6.655312661059142
  0
ARC
  5
DCDC
  8
0
 10
3646.6742756338007894
 20
138.029743555563698
 30
0.0
 40
38.5758948429868198
 50
5.7361091814926306
 51
12.3066947011989996
  0
ARC
  5
DCDD
  8
0
 10
3673.4377797571478368
 20
144.0534720198130003
 30
0.0
 40
11.1449398868450391
 50
11.3771037310067609
 51
28.6906399920847086
  0
ARC
  5
DCDE
  8
0
 10
3683.3504934158331707
 20
149.4880944465186019
 30
0.0
 40
0.1600162491429537
 50
90.0244701500271276
 51
211.7309283259413917
  0
LINE
  5
DCDF
  8
0
 10
3683.3504250753458109
 20
149.6481106810680046
 30
0.0
 11
3708.1374866762462261
 21
149.6481069807678921
 31
0.0
  0
LINE
  5
DCE0
  8
0
 10
3708.1374866765918341
 20
149.6481069807678921
 30
0.0
 11
3708.1374866765918341
 21
148.0481106810678966
 31
0.0
  0
ARC
  5
DCE1
  8
0
 10
3303.0440795154431726
 20
152.6742257969399077
 30
0.0
 40
405.1198211227056731
 50
357.8954407386256094
 51
359.3457179367348999
  0
LINE
  5
DCE2
  8
0
 10
3707.8873897759372085
 20
149.6481070181033033
 30
0.0
 11
3707.8873858481551906
 21
148.0481079481515962
 31
0.0
  0
LINE
  5
DCE3
  8
0
 10
3707.8873858481551906
 20
148.0481079481515962
 30
0.0
 11
3707.5694604107598025
 21
134.0177799723678902
 31
0.0
  0
LINE
  5
DCE4
  8
0
 10
3707.8070321363320545
 20
149.5299993892620023
 30
0.0
 11
3707.8207873892151838
 21
148.0481106810678966
 31
0.0
  0
LINE
  5
DCE5
  8
0
 10
3707.8207873892151838
 20
148.0481106810678966
 30
0.0
 11
3707.5158721591469657
 21
134.1802255492679024
 31
0.0
  0
ARC
  5
DCE6
  8
0
 10
3707.2582177991148455
 20
134.1858906335774861
 30
0.0
 40
0.2577166320264852
 50
330.1147480982767775
 51
358.7404322155678074
  0
LINE
  5
DCE7
  8
0
 10
3707.4816645703458562
 20
134.0574795637679131
 30
0.0
 11
3699.4530803094457951
 21
134.0574806050678944
 31
0.0
  0
ARC
  5
DCE8
  8
0
 10
3699.4530814071040368
 20
134.136220765057999
 30
0.0
 40
0.0787401599976905
 50
237.1143919427206015
 51
269.9992012819608931
  0
LINE
  5
DCE9
  8
0
 10
3699.4103189499442124
 20
134.0177799723678902
 30
0.0
 11
3699.4163694219309946
 21
149.6481082826871045
 31
0.0
  0
ARC
  5
DCEA
  8
0
 10
3561.3553988213388948
 20
148.8774546527783968
 30
0.0
 40
146.7841109253924969
 50
0.3008181774330181
 51
2.3198252359239429
  0
ARC
  5
DCEB
  8
0
 10
3707.881669140132999
 20
154.8133404784886125
 30
0.0
 40
0.137656368617386
 50
2.3198252359271971
 51
108.9237488038213968
  0
ARC
  5
DCEC
  8
0
 10
3690.1433957202161764
 20
207.7168776720068024
 30
0.0
 40
55.6604703392299811
 50
282.2888868216157903
 51
288.5350684323075825
  0
ARC
  5
DCED
  8
0
 10
3701.9981773974559474
 20
153.2939971148728091
 30
0.0
 40
0.038594963609372
 50
101.9002064501100051
 51
165.6817329863179964
  0
LINE
  5
DCEE
  8
0
 10
3701.9607813117459045
 20
153.3035419558678996
 30
0.0
 11
3701.7839582224460173
 21
152.6436292028679986
 31
0.0
  0
ARC
  5
DCEF
  8
0
 10
3725.0093246756741792
 20
146.3176887802800934
 30
0.0
 40
24.0714596382697685
 50
164.7638273050027919
 51
165.6760472696992963
  0
ARC
  5
DCF0
  8
0
 10
3701.3302385263650649
 20
152.3864728388846004
 30
0.0
 40
0.3735798863843155
 50
323.1068329005879036
 51
342.3280413433344052
  0
LINE
  5
DCF1
  8
0
 10
3701.6290113779459716
 20
152.1622035483678985
 30
0.0
 11
3700.3414878783328277
 21
150.5142486187666009
 31
0.0
  0
ARC
  5
DCF2
  8
0
 10
3698.3344219307959975
 20
152.0856295960155933
 30
0.0
 40
2.549029598381594
 50
295.0668543841687779
 51
321.9417400128078839
  0
ARC
  5
DCF3
  8
0
 10
3699.4310267550249591
 20
149.7410036894185055
 30
0.0
 40
0.0393700787085399
 50
115.0079825730354059
 51
179.9977677693472913
  0
LINE
  5
DCF4
  8
0
 10
3699.3916566763459741
 20
149.741005223267905
 30
0.0
 11
3699.3916566763459741
 21
149.648108286376214
 31
0.0
  0
LINE
  5
DCF5
  8
0
 10
3704.311968140746103
 20
151.686872126167998
 30
0.0
 11
3702.3019521359301507
 21
151.6762930671177969
 31
0.0
  0
ARC
  5
DCF6
  8
0
 10
3702.3025737343327819
 20
151.5581896768869115
 30
0.0
 40
0.1181050260090767
 50
90.3015547321974736
 51
180.0035095052791121
  0
LINE
  5
DCF7
  8
0
 10
3702.184468708546774
 20
151.5581824426679134
 30
0.0
 11
3702.1845591782439442
 21
150.0811845678385055
 31
0.0
  0
ARC
  5
DCF8
  8
0
 10
3702.3026696111001002
 20
150.081191802388588
 30
0.0
 40
0.1181104330779147
 50
180.003509505282409
 51
269.9538841422079258
  0
LINE
  5
DCF9
  8
0
 10
3702.3025745471459231
 20
149.9630814075678984
 30
0.0
 11
3704.3398486069459068
 21
149.9630938932679101
 31
0.0
  0
ARC
  5
DCFA
  8
0
 10
3704.3398247584641467
 20
150.0811521655284935
 30
0.0
 40
0.1180582746693732
 50
270.0115740923374119
 51
1.062797362581607
  0
LINE
  5
DCFB
  8
0
 10
3704.4578627231458086
 20
150.0833419398678927
 30
0.0
 11
3704.4306918835818578
 21
151.5709138114355028
 31
0.0
  0
ARC
  5
DCFC
  8
0
 10
3704.3125471259641017
 20
151.5687082008483912
 30
0.0
 40
0.1181653437806747
 50
1.0695142331695879
 51
90.2807383372704919
  0
CIRCLE
  5
DCFD
  8
0
 10
3706.5197099147458175
 20
150.0464967419428888
 30
0.0
 40
0.1855616130751729
  0
CIRCLE
  5
DCFE
  8
0
 10
3701.8069011471461636
 20
150.0463982117180137
 30
0.0
 40
0.17852161780329
  0
LINE
  5
DCFF
  8
0
 10
3707.8070321363320545
 20
149.5299993892620023
 30
0.0
 11
3699.454470115445929
 21
149.5300009853679057
 31
0.0
  0
ARC
  5
DD00
  8
0
 10
3699.4544701005820571
 20
149.4522138711234049
 30
0.0
 40
0.0777871142445236
 50
89.9999890512284253
 51
119.3698061456691022
  0
ARC
  5
DD01
  8
0
 10
3683.0012900746019113
 20
149.748735399868508
 30
0.0
 40
0.0219219570482149
 50
218.2589473614353892
 51
267.0171398005463743
  0
LINE
  5
DD02
  8
0
 10
3682.98407651016214
 20
149.7351609606513989
 30
0.0
 11
3682.0371143969900913
 21
151.0050080945489981
 31
0.0
  0
ARC
  5
DD03
  8
0
 10
3682.1464477018230355
 20
151.0896677067424037
 30
0.0
 40
0.1382787817506823
 50
91.3842718393292017
 51
217.7515472551091875
  0
ARC
  5
DD04
  8
0
 10
3701.8746206770920253
 20
153.2858870528104944
 30
0.0
 40
0.0196895094883289
 50
338.76325642061812
 51
104.3993304890475997
  0
LINE
  5
DD05
  8
0
 10
3701.8929731054818149
 20
153.2787550715939915
 30
0.0
 11
3701.6441496455167908
 21
152.3501332766917926
 31
0.0
  0
ARC
  5
DD06
  8
0
 10
3701.3399250190232124
 20
152.4316659807012115
 30
0.0
 40
0.3149606406976839
 50
321.9999531906170773
 51
344.9971954006045962
  0
LINE
  5
DD07
  8
0
 10
3701.5881172324361614
 20
152.2377566452121016
 30
0.0
 11
3700.1593673185020634
 21
150.4090049159007094
 31
0.0
  0
ARC
  5
DD08
  8
0
 10
3698.5936228373179802
 20
151.687142106814008
 30
0.0
 40
2.0211854093955011
 50
285.7218207650315094
 51
320.7747995586772731
  0
ARC
  5
DD09
  8
0
 10
3699.034617569565853
 20
150.1205439093866971
 30
0.0
 40
0.3937007655191555
 50
270.0000748596486915
 51
285.7218207650315094
  0
LINE
  5
DD0A
  8
0
 10
3699.034618083955138
 20
149.7268431438679102
 30
0.0
 11
3683.0001493169461355
 21
149.7268431438679102
 31
0.0
  0
ARC
  5
DD0B
  8
0
 10
9211.0233349622812966
 20
26916.4122703207394807
 30
0.0
 40
27331.2424710598315869
 50
258.3342604919740211
 51
258.3350767896455977
  0
LINE
  5
DD0C
  8
0
 10
3698.1398689968459621
 20
149.7268431438679102
 30
0.0
 11
3698.0194234219370628
 21
149.6481084912281005
 31
0.0
  0
LINE
  5
DD0D
  8
0
 10
3698.3443481201461509
 20
149.7268431438679102
 30
0.0
 11
3698.3152479951390887
 21
149.6481084470663063
 31
0.0
  0
ARC
  5
DD0E
  8
0
 10
3689.3907610400729027
 20
108.4015075094538929
 30
0.0
 40
41.3029743249582921
 50
87.0061533673762142
 51
92.8808019372970648
  0
LINE
  5
DD0F
  8
0
 10
3687.4009954426401237
 20
149.7268431438679102
 30
0.0
 11
3687.3453264812660564
 21
149.6711741824479986
 31
0.0
  0
ARC
  5
DD10
  8
0
 10
3687.2896487819461981
 20
149.726851881767999
 30
0.0
 40
0.0787401575000342
 50
270.0
 51
314.9999999999723741
  0
LINE
  5
DD11
  8
0
 10
3685.9010799956531628
 20
149.7268431438679102
 30
0.0
 11
3685.9567491153020455
 21
149.6711740241715916
 31
0.0
  0
ARC
  5
DD12
  8
0
 10
3686.0136762458591875
 20
149.7281019988400885
 30
0.0
 40
0.0805077169794159
 50
225.0004247861319868
 51
263.5095139970156879
  0
ARC
  5
DD13
  8
0
 10
3701.8803593044181071
 20
153.0879383380948013
 30
0.0
 40
0.021990736568486
 50
285.6673117569289957
 51
339.2313272523322212
  0
LINE
  5
DD14
  8
0
 10
3701.8862979285459005
 20
153.0667646459679077
 30
0.0
 11
3701.8330261836458703
 21
153.0550301134678932
 31
0.0
  0
LINE
  5
DD15
  8
0
 10
3699.2678324987227825
 20
149.7817204234821986
 30
0.0
 11
3699.4263473508231073
 21
149.7823165971975072
 31
0.0
  0
ARC
  5
DD16
  8
0
 10
3680.5660493979730745
 20
284.4432245748282071
 30
0.0
 40
133.2246530445565043
 50
270.6782593486195765
 51
273.8550077293783147
  0
ARC
  5
DD17
  8
0
 10
3684.0211427978638312
 20
233.1714963279924007
 30
0.0
 40
81.8366409428586081
 50
273.8548789197860174
 51
282.5974685907901858
  0
LINE
  5
DD18
  8
0
 10
3682.0371143969900913
 20
151.0050080945489981
 30
0.0
 11
3689.2810202649461644
 21
151.0530742296679989
 31
0.0
  0
ARC
  5
DD19
  8
0
 10
3690.2228258048257885
 20
208.5636606109196975
 30
0.0
 40
57.5182974677655992
 50
269.0617960461549956
 51
278.0517960453012165
  0
ARC
  5
DD1A
  8
0
 10
3693.33222488793308
 20
179.0918364873481039
 30
0.0
 40
27.921207388616601
 50
280.205564655840476
 51
287.3381843108602993
  0
ARC
  5
DD1B
  8
0
 10
3701.6623310749791926
 20
152.4689829480041965
 30
0.0
 40
0.0310971557112665
 50
252.6441644682379888
 51
280.1103084174588957
  0
ARC
  5
DD1C
  8
0
 10
3669.7074385360551787
 20
247.2829113077056036
 30
0.0
 40
100.0868778634648066
 50
288.6623791413937283
 51
292.5063105470111964
  0
LINE
  5
DD1D
  8
0
 10
3707.5901388780448542
 20
149.6481068864679003
 30
0.0
 11
3707.58942610062104
 21
149.5299994308446969
 31
0.0
  0
LINE
  5
DD1E
  8
0
 10
3700.4699685329951535
 20
149.6481081254021035
 30
0.0
 11
3700.457027913138063
 21
149.5300007937873943
 31
0.0
  0
LINE
  5
DD1F
  8
0
 10
3674.460279503286074
 20
172.746178218991389
 30
0.0
 11
3671.0307614244429715
 21
172.746178218991389
 31
0.0
  0
ARC
  5
DD20
  8
0
 10
3671.0399332184611012
 20
168.4847754184779092
 30
0.0
 40
4.2614126707031668
 50
90.1233172034915384
 51
94.0230453172814435
  0
ARC
  5
DD21
  8
0
 10
3670.7662585086741274
 20
172.0368171600449898
 30
0.0
 40
0.6993280943595034
 50
92.0729655886992333
 51
140.6928650281406021
  0
ARC
  5
DD22
  8
0
 10
3671.2729311473572125
 20
171.6773661415859067
 30
0.0
 40
1.319771184969893
 50
142.5528612197402936
 51
167.0466169093996882
  0
ARC
  5
DD23
  8
0
 10
3671.844879810168095
 20
171.5354328301019109
 30
0.0
 40
1.9090076494229411
 50
166.7430448053902126
 51
177.6521284732891957
  0
LINE
  5
DD24
  8
0
 10
3669.9374747428651062
 20
171.6136384231359102
 30
0.0
 11
3669.9374747428651062
 21
170.954816133394786
 31
0.0
  0
ARC
  5
DD25
  8
0
 10
3673.2068312449009682
 20
171.076875509284406
 30
0.0
 40
3.2716342137606982
 50
182.1381089812452956
 51
193.5662130994167001
  0
ARC
  5
DD26
  8
0
 10
3670.9881209929899342
 20
170.6043446863108954
 30
0.0
 40
1.0058431403390411
 50
197.0484205186878057
 51
225.2768970911525059
  0
ARC
  5
DD27
  8
0
 10
3670.7348038751279091
 20
170.3906109938598092
 30
0.0
 40
0.6763748291176565
 50
227.7838808114591984
 51
261.9116600406719044
  0
ARC
  5
DD28
  8
0
 10
3671.0244302413361766
 20
173.8470178821301886
 30
0.0
 40
4.1439571965345534
 50
264.6720560816528973
 51
269.7121165546537895
  0
LINE
  5
DD29
  8
0
 10
3671.0036089580639782
 20
169.7031129941202039
 30
0.0
 11
3674.3981257599639321
 21
169.7031129941202039
 31
0.0
  0
LINE
  5
DD2A
  8
0
 10
3674.3948750431509325
 20
170.1943752009505886
 30
0.0
 11
3671.0197754023652124
 21
170.1961218223947867
 31
0.0
  0
ARC
  5
DD2B
  8
0
 10
3671.0213636296221011
 20
173.2651470344771099
 30
0.0
 40
3.0690256230377559
 50
263.5681277028035083
 51
269.9703493114594153
  0
ARC
  5
DD2C
  8
0
 10
3670.7425958480262125
 20
170.8583001934933066
 30
0.0
 40
0.6461423186305196
 50
223.9619578010810983
 51
264.2237961436192109
  0
ARC
  5
DD2D
  8
0
 10
3671.0395876228008092
 20
171.1076240341483015
 30
0.0
 40
1.0333380952471301
 50
198.8791275305135002
 51
222.4812170222517977
  0
ARC
  5
DD2E
  8
0
 10
3671.7338589363821484
 20
171.3444459000558879
 30
0.0
 40
1.766889092734365
 50
184.5268437473727943
 51
198.8607851214850939
  0
ARC
  5
DD2F
  8
0
 10
3672.951857206700879
 20
171.4870324699465129
 30
0.0
 40
2.9926952845937711
 50
174.3819917995026003
 51
185.4077466191806138
  0
ARC
  5
DD30
  8
0
 10
3671.6306223039091492
 20
171.6159534509739046
 30
0.0
 40
1.6651862118178871
 50
158.469951689226292
 51
174.3461565292369926
  0
ARC
  5
DD31
  8
0
 10
3670.9216592198481521
 20
171.9158414731114135
 30
0.0
 40
0.8958321257319463
 50
142.0255137672087073
 51
159.6712803577891009
  0
LINE
  5
DD32
  8
0
 10
3674.3961156486639084
 20
172.7128075425949021
 30
0.0
 11
3671.0457227168640202
 21
172.7145431000948008
 31
0.0
  0
ARC
  5
DD33
  8
0
 10
3670.9885859322139368
 20
169.8904777740002032
 30
0.0
 40
2.8246432656549469
 50
88.8409439357042743
 51
94.6628900152565649
  0
ARC
  5
DD34
  8
0
 10
3670.8091344867621046
 20
171.8932634762115867
 30
0.0
 40
0.8140562839014375
 50
93.5335140848708164
 51
119.9694266668854965
  0
ARC
  5
DD35
  8
0
 10
3670.9295553728620689
 20
171.8939317130763982
 30
0.0
 40
0.8798781379429721
 50
126.800407708139403
 51
159.5484388538374958
  0
ARC
  5
DD36
  8
0
 10
3671.954054734579131
 20
171.5358572775895993
 30
0.0
 40
1.9650463865560901
 50
160.2036672378864921
 51
181.9020972867704984
  0
ARC
  5
DD37
  8
0
 10
3671.9905744212392165
 20
171.4355802936142936
 30
0.0
 40
2.0007904273426358
 50
178.9961328218431902
 51
198.0822248999716919
  0
ARC
  5
DD38
  8
0
 10
3671.077161580955817
 20
171.1631549682867899
 30
0.0
 40
1.0482205604545709
 50
199.4234684166411
 51
218.7800708175738862
  0
ARC
  5
DD39
  8
0
 10
3670.7786313164210696
 20
170.9524976191611927
 30
0.0
 40
0.6839367659032792
 50
220.6871156301955921
 51
267.735942402723424
  0
ARC
  5
DD3A
  8
0
 10
3670.9908298892751191
 20
173.0664857315229028
 30
0.0
 40
2.8076006291848219
 50
265.1122713750568209
 51
271.0977110427247112
  0
LINE
  5
DD3B
  8
0
 10
3671.0446164980639878
 20
170.2594003580948083
 30
0.0
 11
3674.3950094298647855
 21
170.2576648005947959
 31
0.0
  0
ARC
  5
DD3C
  8
0
 10
3670.7256083120191761
 20
170.0272691611729101
 30
0.0
 40
0.230302859901496
 50
120.3286961076274935
 51
271.9819030760518217
  0
LINE
  5
DD3D
  8
0
 10
3670.7335730684640112
 20
169.7971040683947876
 30
0.0
 11
3674.6619791885441373
 21
169.7971040683947876
 31
0.0
  0
ARC
  5
DD3E
  8
0
 10
3674.4302828018139735
 20
170.3857868435142962
 30
0.0
 40
2.3605819722105532
 50
84.5474151836279333
 51
89.2719038475416937
  0
ARC
  5
DD3F
  8
0
 10
3674.6292937483349306
 20
172.0368171600449898
 30
0.0
 40
0.6993280943595034
 50
39.3071349718594334
 51
87.9270344113267868
  0
ARC
  5
DD40
  8
0
 10
3674.1226211096518455
 20
171.6773661415859067
 30
0.0
 40
1.319771184969893
 50
12.9533830906002798
 51
37.4471387802597135
  0
ARC
  5
DD41
  8
0
 10
3672.2172423266720216
 20
171.4080433292243129
 30
0.0
 40
3.2412183221822422
 50
0.8809748593535907
 51
10.0418028783888094
  0
LINE
  5
DD42
  8
0
 10
3675.4580775141439517
 20
171.4578780529722053
 30
0.0
 11
3675.4580775141439517
 21
170.954816133394786
 31
0.0
  0
ARC
  5
DD43
  8
0
 10
3672.4250228416281061
 20
171.044286996094911
 30
0.0
 40
3.034374018104133
 50
345.9853331473204889
 51
358.3103447720051236
  0
ARC
  5
DD44
  8
0
 10
3674.4074312640200333
 20
170.6043446863108954
 30
0.0
 40
1.0058431403390411
 50
314.7231029088474088
 51
342.9515794813121943
  0
ARC
  5
DD45
  8
0
 10
3674.6607483818820583
 20
170.3906109938598092
 30
0.0
 40
0.6763748291176565
 50
278.0883399593017771
 51
312.2161191885397216
  0
ARC
  5
DD46
  8
0
 10
3674.2919705522149343
 20
175.4251249752024933
 30
0.0
 40
5.7229965961707157
 50
271.0628337981125924
 51
274.6498738005639098
  0
ARC
  5
DD47
  8
0
 10
3674.2987610655050048
 20
174.1575400247004097
 30
0.0
 40
3.9643301220896219
 50
271.3892548663553157
 51
276.0703382083086126
  0
ARC
  5
DD48
  8
0
 10
3674.6529564089828455
 20
170.8583001934933066
 30
0.0
 40
0.6461423186305196
 50
275.7762038563807891
 51
316.0380421989190154
  0
ARC
  5
DD49
  8
0
 10
3674.355964634207794
 20
171.1076240341483015
 30
0.0
 40
1.0333380952471301
 50
317.5187829777481738
 51
341.1208724694865282
  0
ARC
  5
DD4A
  8
0
 10
3673.6616933206269096
 20
171.3444459000558879
 30
0.0
 40
1.766889092734365
 50
341.1392148785149061
 51
355.4731562526271773
  0
ARC
  5
DD4B
  8
0
 10
3672.4436950503081789
 20
171.4870324699465129
 30
0.0
 40
2.9926952845937711
 50
354.5922533808193862
 51
5.6180082004974423
  0
ARC
  5
DD4C
  8
0
 10
3673.7649299530999087
 20
171.6159534509739046
 30
0.0
 40
1.6651862118178871
 50
5.6538434707629346
 51
21.5300483107736405
  0
ARC
  5
DD4D
  8
0
 10
3674.4738930371609058
 20
171.9158414731114135
 30
0.0
 40
0.8958321257319463
 50
20.3287196422123806
 51
37.9744862327913211
  0
ARC
  5
DD4E
  8
0
 10
3674.4632905054018011
 20
170.8955792954849073
 30
0.0
 40
1.818469401302049
 50
84.5314337389600183
 51
92.1170065668299571
  0
ARC
  5
DD4F
  8
0
 10
3674.5864177702460438
 20
171.8932634762115867
 30
0.0
 40
0.8140562839014375
 50
60.0305733331144893
 51
86.4664859151030782
  0
ARC
  5
DD50
  8
0
 10
3674.465996884146989
 20
171.8939317130763982
 30
0.0
 40
0.8798781379429721
 50
20.4515611461624509
 51
53.1995922918605899
  0
ARC
  5
DD51
  8
0
 10
3673.4414975224290174
 20
171.5358572775895993
 30
0.0
 40
1.9650463865560901
 50
358.0979027132294732
 51
19.7963327621134688
  0
ARC
  5
DD52
  8
0
 10
3673.4049778357698415
 20
171.4355802936142936
 30
0.0
 40
2.0007904273426358
 50
341.9177751000282228
 51
1.0038671781567601
  0
ARC
  5
DD53
  8
0
 10
3674.3183906760527861
 20
171.1631549682867899
 30
0.0
 40
1.0482205604545709
 50
321.2199291824260854
 51
340.5765315833589284
  0
ARC
  5
DD54
  8
0
 10
3674.6169209405879883
 20
170.9524976191611927
 30
0.0
 40
0.6839367659032792
 50
272.2640575972504848
 51
319.3128843698032142
  0
ARC
  5
DD55
  8
0
 10
3674.3427431935569984
 20
174.1123752421449069
 30
0.0
 40
3.855064765688569
 50
270.7768291024593736
 51
274.4810927466140811
  0
ARC
  5
DD56
  8
0
 10
3674.6699439449898819
 20
170.0272691611729101
 30
0.0
 40
0.230302859901496
 50
268.0180969239481783
 51
59.6713038923724568
  0
LINE
  5
DD57
  8
0
 10
3707.7340923594579181
 20
134.0177799723678902
 30
0.0
 11
3707.7659726916667751
 21
134.9189000745678868
 31
0.0
  0
ARC
  5
DD58
  8
0
 10
3707.5660354392089175
 20
134.9259735667849043
 30
0.0
 40
0.2000623383163624
 50
357.9738028643959069
 51
70.1768187962973826
  0
LINE
  5
DD59
  8
0
 10
3707.6338802916670829
 20
135.1141809396679037
 30
0.0
 11
3707.7306067853169225
 21
137.6160333291178972
 31
0.0
  0
ARC
  5
DD5A
  8
0
 10
3707.6068850095030029
 20
137.8867236876928928
 30
0.0
 40
0.2976245084601179
 50
294.5632515395661812
 51
342.4377080674328795
  0
LINE
  5
DD5B
  8
0
 10
3699.5175068845019268
 20
149.8894689645240135
 30
0.0
 11
3699.6292547430170998
 21
149.8899611597933017
 31
0.0
  0
LINE
  5
DD5C
  8
0
 10
3700.5960458853619457
 20
150.9679387618533042
 30
0.0
 11
3700.654845575581021
 21
150.9153281812469061
 31
0.0
  0
LINE
  5
DD5D
  8
0
 10
3700.6699221124390533
 20
151.0624978422804929
 30
0.0
 11
3700.7236673679472005
 21
151.0034160584989991
 31
0.0
  0
LINE
  5
DD5E
  8
0
 10
3701.4127551790838879
 20
152.0132991280522958
 30
0.0
 11
3701.5368471648130253
 21
152.0442387349793876
 31
0.0
  0
LINE
  5
DD5F
  8
0
 10
3701.440897230093924
 20
152.020315729416609
 30
0.0
 11
3701.4639276584539402
 21
151.9509060229893009
 31
0.0
  0
ARC
  5
DD60
  8
0
 10
3700.506796953940011
 20
149.5390692214099033
 30
0.0
 40
0.1100201478797484
 50
49.3554608221636499
 51
82.3420061497929936
  0
ARC
  5
DD61
  8
0
 10
3700.4520326956721874
 20
149.5248537848245007
 30
0.0
 40
0.1597754437108804
 50
1.846036026818106
 51
37.6945122793643677
  0
ARC
  5
DD62
  8
0
 10
3701.8985920287000226
 20
149.4896251104638907
 30
0.0
 40
0.1584828084672386
 50
89.9832084391669156
 51
165.2405020922919903
  0
ENDSEC
  0
EOF
