  0
SECTION
  2
HEADER
  9
$ACADVER
  1
AC1009
  9
$INSBASE
 10
3632.555937590963822
 20
234.4048950945833951
 30
0.0
  9
$EXTMIN
 10
3623.7195287564668433
 20
193.9002301666729124
 30
-0.000000000000013
  9
$EXTMAX
 10
3656.6406171027861092
 20
234.4093816879050962
 30
0.0000000000000023
  9
$LIMMIN
 10
0.0
 20
0.0
  9
$LIMMAX
 10
11.6929133858000007
 20
8.2677165353999982
  9
$ORTHOMODE
 70
     0
  9
$REGENMODE
 70
     1
  9
$FILLMODE
 70
     1
  9
$QTEXTMODE
 70
     0
  9
$MIRRTEXT
 70
     0
  9
$DRAGMODE
 70
     2
  9
$LTSCALE
 40
0.6431102362
  9
$OSMODE
 70
  2039
  9
$ATTMODE
 70
     1
  9
$TEXTSIZE
 40
0.2
  9
$TRACEWID
 40
0.05
  9
$TEXTSTYLE
  7
STANDARD
  9
$CLAYER
  8
0
  9
$CELTYPE
  6
BYLAYER
  9
$CECOLOR
 62
   256
  9
$DIMSCALE
 40
1.0
  9
$DIMASZ
 40
0.1875
  9
$DIMEXO
 40
0.0625
  9
$DIMDLI
 40
0.4443307087
  9
$DIMRND
 40
0.0
  9
$DIMDLE
 40
0.0
  9
$DIMEXE
 40
0.125
  9
$DIMTP
 40
0.01
  9
$DIMTM
 40
0.01
  9
$DIMTXT
 40
2.0
  9
$DIMCEN
 40
0.1052362205
  9
$DIMTSZ
 40
0.0
  9
$DIMTOL
 70
     1
  9
$DIMLIM
 70
     0
  9
$DIMTIH
 70
     1
  9
$DIMTOH
 70
     1
  9
$DIMSE1
 70
     0
  9
$DIMSE2
 70
     0
  9
$DIMTAD
 70
     0
  9
$DIMZIN
 70
     0
  9
$DIMBLK
  1

  9
$DIMASO
 70
     1
  9
$DIMSHO
 70
     1
  9
$DIMPOST
  1
\X
  9
$DIMAPOST
  1

  9
$DIMALT
 70
     1
  9
$DIMALTD
 70
     2
  9
$DIMALTF
 40
25.3999999999999986
  9
$DIMLFAC
 40
1.0
  9
$DIMTOFL
 70
     0
  9
$DIMTVP
 40
0.0
  9
$DIMTIX
 70
     0
  9
$DIMSOXD
 70
     0
  9
$DIMSAH
 70
     0
  9
$DIMBLK1
  1

  9
$DIMBLK2
  1

  9
$DIMSTYLE
  2
STANDARD
  9
$DIMCLRD
 70
     0
  9
$DIMCLRE
 70
     0
  9
$DIMCLRT
 70
     0
  9
$DIMTFAC
 40
1.0
  9
$DIMGAP
 40
0.09
  9
$LUNITS
 70
     2
  9
$LUPREC
 70
     4
  9
$SKETCHINC
 40
0.1
  9
$FILLETRAD
 40
0.0
  9
$AUNITS
 70
     0
  9
$AUPREC
 70
     0
  9
$MENU
  1
.
  9
$ELEVATION
 40
0.0
  9
$PELEVATION
 40
0.0
  9
$THICKNESS
 40
0.0
  9
$LIMCHECK
 70
     0
  9
$BLIPMODE
 70
     0
  9
$CHAMFERA
 40
0.0
  9
$CHAMFERB
 40
0.0
  9
$SKPOLY
 70
     0
  9
$TDCREATE
 40
2458060.468368056230247
  9
$TDUPDATE
 40
2459223.764664351940155
  9
$TDINDWG
 40
0.3312454861
  9
$TDUSRTIMER
 40
0.3312454861
  9
$USRTIMER
 70
     1
  9
$ANGBASE
 50
0.0
  9
$ANGDIR
 70
     0
  9
$PDMODE
 70
     0
  9
$PDSIZE
 40
0.3125
  9
$PLINEWID
 40
0.0
  9
$COORDS
 70
     1
  9
$SPLFRAME
 70
     0
  9
$SPLINETYPE
 70
     6
  9
$SPLINESEGS
 70
     8
  9
$ATTDIA
 70
     1
  9
$ATTREQ
 70
     1
  9
$HANDLING
 70
     1
  9
$HANDSEED
  5
E3B6
  9
$SURFTAB1
 70
     6
  9
$SURFTAB2
 70
     6
  9
$SURFTYPE
 70
     6
  9
$SURFU
 70
     6
  9
$SURFV
 70
     6
  9
$UCSNAME
  2

  9
$UCSORG
 10
0.0
 20
0.0
 30
0.0
  9
$UCSXDIR
 10
1.0
 20
0.0
 30
0.0
  9
$UCSYDIR
 10
0.0
 20
1.0
 30
0.0
  9
$PUCSNAME
  2

  9
$PUCSORG
 10
0.0
 20
0.0
 30
0.0
  9
$PUCSXDIR
 10
1.0
 20
0.0
 30
0.0
  9
$PUCSYDIR
 10
0.0
 20
1.0
 30
0.0
  9
$USERI1
 70
     0
  9
$USERI2
 70
     0
  9
$USERI3
 70
     0
  9
$USERI4
 70
     0
  9
$USERI5
 70
     0
  9
$USERR1
 40
0.0
  9
$USERR2
 40
0.0
  9
$USERR3
 40
0.0
  9
$USERR4
 40
0.0
  9
$USERR5
 40
0.0
  9
$WORLDVIEW
 70
     1
  9
$SHADEDGE
 70
     3
  9
$SHADEDIF
 70
    70
  9
$TILEMODE
 70
     1
  9
$MAXACTVP
 70
    64
  9
$PLIMCHECK
 70
     0
  9
$PEXTMIN
 10
1.0000000000000000E+20
 20
1.0000000000000000E+20
 30
1.0000000000000000E+20
  9
$PEXTMAX
 10
-1.0000000000000000E+20
 20
-1.0000000000000000E+20
 30
-1.0000000000000000E+20
  9
$PLIMMIN
 10
0.0
 20
0.0
  9
$PLIMMAX
 10
12.0
 20
9.0
  9
$UNITMODE
 70
     0
  9
$VISRETAIN
 70
     1
  9
$PLINEGEN
 70
     0
  9
$PSLTSCALE
 70
     1
  0
ENDSEC
  0
SECTION
  2
TABLES
  0
TABLE
  2
VPORT
 70
     1
  0
VPORT
  2
*ACTIVE
 70
     0
 10
0.0
 20
0.0
 11
1.0
 21
1.0
 12
-163.3639944531859953
 22
88.1595437305390988
 13
0.0
 23
0.0
 14
1.0
 24
1.0
 15
0.0
 25
0.0
 16
0.0
 26
0.0
 36
17.1152628219792007
 17
3803.5440673828129547
 27
125.9952621967499056
 37
0.0
 40
40.8462595782743279
 41
2.6486111111111108
 42
50.0
 43
0.0
 44
0.0
 50
0.0
 51
0.0
 71
     0
 72
   100
 73
     1
 74
     1
 75
     0
 76
     0
 77
     0
 78
     0
  0
ENDTAB
  0
TABLE
  2
LTYPE
 70
     2
  0
LTYPE
  2
CONTINUOUS
 70
     0
  3
Solid line
 72
    65
 73
     0
 40
0.0
  0
LTYPE
  2
PHANTOM2
 70
     0
  3
___ _ _ ___ _ _ ___ _ _ ___ _ _
 72
    65
 73
     6
 40
1.25
 49
0.625
 49
-0.125
 49
0.125
 49
-0.125
 49
0.125
 49
-0.125
  0
ENDTAB
  0
TABLE
  2
LAYER
 70
     2
  0
LAYER
  2
0
 70
     0
 62
   255
  6
CONTINUOUS
  0
LAYER
  2
DEFPOINTS
 70
     0
 62
     7
  6
CONTINUOUS
  0
ENDTAB
  0
TABLE
  2
STYLE
 70
     1
  0
STYLE
  2
STANDARD
 70
     0
 40
0.0
 41
0.8
 50
0.0
 71
     0
 42
0.2
  3
txt
  4

  0
ENDTAB
  0
TABLE
  2
VIEW
 70
     0
  0
ENDTAB
  0
TABLE
  2
UCS
 70
     0
  0
ENDTAB
  0
TABLE
  2
APPID
 70
     9
  0
APPID
  2
ACAD
 70
     0
  0
APPID
  2
ACAD_MLEADERVER
 70
     0
  0
APPID
  2
ACAD_EXEMPT_FROM_CAD_STANDARDS
 70
     0
  0
APPID
  2
ACAD_NAV_VCDISPLAY
 70
     0
  0
APPID
  2
ACAECLAYERSTANDARD
 70
     0
  0
APPID
  2
ACCMTRANSPARENCY
 70
     0
  0
APPID
  2
ACAD_DSTYLE_DIMJAG
 70
     0
  0
APPID
  2
ACAD_DSTYLE_DIMTALN
 70
     0
  0
APPID
  2
ACDBATTR
 70
     0
  0
ENDTAB
  0
TABLE
  2
DIMSTYLE
 70
     1
  0
DIMSTYLE
  2
STANDARD
 70
     0
  3

  4

  5

  6

  7

 40
1.0
 41
0.1875
 42
0.0625
 43
0.38
 44
0.125
 45
0.0
 46
0.0
 47
0.01
 48
0.01
140
0.15625
141
0.09
142
0.0
143
25.3999999999999986
144
1.0
145
0.0
146
1.0
147
0.09
 71
     1
 72
     0
 73
     1
 74
     1
 75
     0
 76
     0
 77
     0
 78
     4
170
     0
171
     2
172
     0
173
     0
174
     0
175
     0
176
     0
177
     0
178
     0
  0
ENDTAB
  0
ENDSEC
  0
SECTION
  2
BLOCKS
  0
BLOCK
  8
0
  2
$MODEL_SPACE
 70
     0
 10
0.0
 20
0.0
 30
0.0
  3
$MODEL_SPACE
  1

  0
ENDBLK
  5
21
  8
0
  0
BLOCK
 67
     1
  8
0
  2
$PAPER_SPACE
 70
     0
 10
0.0
 20
0.0
 30
0.0
  3
$PAPER_SPACE
  1

  0
ENDBLK
  5
1D
 67
     1
  8
0
  0
BLOCK
  8
0
  2
_FILLED
 70
     0
 10
0.0
 20
0.0
 30
0.0
  3
_FILLED
  1

  0
SOLID
  5
8BDF
  8
0
  6
BYBLOCK
 62
     0
 10
0.0
 20
0.0
 30
0.0
 11
-1.0
 21
0.1666666667
 31
0.0
 12
-1.0
 22
-0.1666666667
 32
0.0
 13
-1.0
 23
-0.1666666667
 33
0.0
  0
ENDBLK
  5
8BE0
  8
0
  6
BYBLOCK
 62
     0
  0
ENDSEC
  0
SECTION
  2
ENTITIES
  0
ARC
  5
DC8A
  8
0
 10
3632.5339137691871656
 20
221.2412837688293905
 30
0.0
 40
10.8836336091769006
 50
62.9816346782457686
 51
89.8840577565310923
  0
ARC
  5
DC8B
  8
0
 10
3634.4130028126160141
 20
225.19518444422431
 30
0.0
 40
6.5087790625590607
 50
23.4415205185049587
 51
61.9062562354076675
  0
ARC
  5
DC8C
  8
0
 10
3631.0206982397371576
 20
223.905111342845089
 30
0.0
 40
10.1356706807646297
 50
10.6180379515282493
 51
22.5036457741696587
  0
ARC
  5
DC8D
  8
0
 10
3640.9363628302508005
 20
225.7640087192050089
 30
0.0
 40
0.047266261462672
 50
328.9940263409724821
 51
10.6180379515282493
  0
LINE
  5
DC8E
  8
0
 10
3640.9768753856851617
 20
225.7396605709209894
 30
0.0
 11
3640.9407649570930516
 21
225.6795769159741951
 31
0.0
  0
ARC
  5
DC8F
  8
0
 10
3640.9462294754512186
 20
225.613068221267099
 30
0.0
 40
0.0635628743309217
 50
20.2567354168987883
 51
79.8874845645967895
  0
ARC
  5
DC90
  8
0
 10
3640.8357448929327802
 20
225.198581490070211
 30
0.0
 40
0.4923269377320653
 50
75.6951002696397097
 51
85.6055381386402274
  0
ARC
  5
DC91
  8
0
 10
3632.3113925402531095
 20
29.8681935056470707
 30
0.0
 40
196.0083619911139863
 50
87.4963978785219609
 51
89.9285163000224941
  0
ARC
  5
DC92
  8
0
 10
3610.0664612491859771
 20
221.8335991685841861
 30
0.0
 40
31.1720657053225416
 50
4.9544818491543099
 51
7.0047353542784663
  0
ARC
  5
DC93
  8
0
 10
3617.4768315854348657
 20
223.4551980719579944
 30
0.0
 40
23.6817367370922298
 50
357.0789474091596958
 51
359.8353630647894192
  0
ARC
  5
DC94
  8
0
 10
3594.6620990886722211
 20
224.2223751105507006
 30
0.0
 40
46.5076111564629784
 50
351.8183244310594091
 51
357.5673738841765044
  0
ARC
  5
DC95
  8
0
 10
3617.6932265076598014
 20
220.8979444252709072
 30
0.0
 40
23.2377952482357095
 50
335.9141594626441929
 51
351.8503271136386843
  0
ARC
  5
DC96
  8
0
 10
3625.0487956219840271
 20
218.2600612566369023
 30
0.0
 40
15.4575083677206493
 50
316.7640921371911986
 51
333.7132410360504196
  0
ARC
  5
DC97
  8
0
 10
3632.354206822471042
 20
211.4923401255028068
 30
0.0
 40
5.4998066969207837
 50
272.1020584157216717
 51
315.9964596979756948
  0
ARC
  5
DC98
  8
0
 10
3616.5025083589880524
 20
223.1685003164890873
 30
0.0
 40
24.6569316703721704
 50
0.5080864299255314
 51
3.155467982941889
  0
LINE
  5
DC99
  8
0
 10
3656.538300992584027
 20
193.9062974210532104
 30
0.0
 11
3656.538300992584027
 21
199.4269001923333064
 31
0.0
  0
LINE
  5
DC9A
  8
0
 10
3656.538300992584027
 20
199.4269001923333064
 30
0.0
 11
3656.4571427223459068
 21
199.4269001923333064
 31
0.0
  0
LINE
  5
DC9B
  8
0
 10
3656.4571427223459068
 20
199.4269001923333064
 30
0.0
 11
3656.4600429553452159
 21
193.9062974210532104
 31
0.0
  0
LINE
  5
DC9C
  8
0
 10
3656.4571458819891632
 20
199.4208858028206066
 30
0.0
 11
3656.4491766010251013
 21
199.4209262532197044
 31
0.0
  0
LINE
  5
DC9D
  8
0
 10
3656.452168899094886
 20
193.9062974210532104
 30
0.0
 11
3656.4492070542910369
 21
199.4269001923333064
 31
0.0
  0
LINE
  5
DC9E
  8
0
 10
3656.4492070542910369
 20
199.4269001923333064
 30
0.0
 11
3655.5710003531407892
 21
199.4106950887332914
 31
0.0
  0
ARC
  5
DC9F
  8
0
 10
3655.5722195999542237
 20
199.3447151190499085
 30
0.0
 40
0.0659912339801288
 50
91.0586507841729969
 51
118.0556138626243978
  0
LINE
  5
DCA0
  8
0
 10
3655.844700818441197
 20
194.9691236309334101
 30
0.0
 11
3655.8429181826718377
 21
198.3606103133780039
 31
0.0
  0
ARC
  5
DCA1
  8
0
 10
3638.1430922416661815
 20
198.3513069176127885
 30
0.0
 40
17.6998283860339498
 50
0.0301158477594152
 51
1.330361470377557
  0
ARC
  5
DCA2
  8
0
 10
3653.0150405182412214
 20
198.6966835490262042
 30
0.0
 40
2.8238702468538821
 50
1.330361470377557
 51
9.2537054059543067
  0
ARC
  5
DCA3
  8
0
 10
3655.1265311985171138
 20
199.0407018195923001
 30
0.0
 40
0.68453823349621
 50
9.2537054059543067
 51
26.0197764216785785
  0
ARC
  5
DCA4
  8
0
 10
3655.5979005555650474
 20
199.2708054532504036
 30
0.0
 40
0.1600034367604828
 50
26.0197764216785785
 51
45.0397421717948276
  0
ARC
  5
DCA5
  8
0
 10
3655.6625045661699005
 20
199.3250662865067113
 30
0.0
 40
0.0763152950517306
 50
50.583137273225141
 51
105.5347906484344946
  0
LINE
  5
DCA6
  8
0
 10
3655.7004360117298347
 20
196.4466708146333076
 30
0.0
 11
3655.7002640878349666
 21
196.8403714213864077
 31
0.0
  0
ARC
  5
DCA7
  8
0
 10
3655.8289769059770151
 20
196.8348630292707924
 30
0.0
 40
0.1288306327616177
 50
97.8674185424364254
 51
177.5494658725600061
  0
LINE
  5
DCA8
  8
0
 10
3655.8113424057410157
 20
196.9624810387333014
 30
0.0
 11
3655.8436530595008662
 21
196.9624980218833912
 31
0.0
  0
LINE
  5
DCA9
  8
0
 10
3655.6998311523088887
 20
196.4466573757277104
 30
0.0
 11
3655.6994174989999919
 21
196.8403578233260873
 31
0.0
  0
ARC
  5
DCAA
  8
0
 10
3655.8306010664091446
 20
196.8366495329746044
 30
0.0
 40
0.1312359698230087
 50
96.9143002568294492
 51
178.380797042381289
  0
LINE
  5
DCAB
  8
0
 10
3655.8148022748418953
 20
196.9669310664332897
 30
0.0
 11
3655.8436507074129622
 21
196.9669728980018135
 31
0.0
  0
LINE
  5
DCAC
  8
0
 10
3655.7533686056390252
 20
199.3157790053973031
 30
0.0
 11
3655.6683370849418679
 21
199.3867826729332933
 31
0.0
  0
ARC
  5
DCAD
  8
0
 10
3655.6209410011629188
 20
199.3184991150451992
 30
0.0
 40
0.0831205933288046
 50
55.2352210948422311
 51
88.8359241017471248
  0
LINE
  5
DCAE
  8
0
 10
3655.6226296425202236
 20
199.4016025537569021
 30
0.0
 11
3655.3828976387408147
 21
199.4056657664332874
 31
0.0
  0
LINE
  5
DCAF
  8
0
 10
3655.5779408260559649
 20
194.968246782367487
 30
0.0
 11
3655.5764770737569052
 21
198.3186397159674925
 31
0.0
  0
ARC
  5
DCB0
  8
0
 10
3641.6008960452159045
 20
198.3125339279957871
 30
0.0
 40
13.97558236231853
 50
0.0250319366627504
 51
2.377716433786349
  0
ARC
  5
DCB1
  8
0
 10
3653.7906692814340204
 20
198.7917133461156141
 30
0.0
 40
1.77662870574378
 50
3.2469156329454032
 51
12.8230855523160496
  0
ARC
  5
DCB2
  8
0
 10
3653.9001181456919767
 20
198.7425295669441141
 30
0.0
 40
1.6823774516933929
 50
15.2843643906986397
 51
20.0439692690317095
  0
ARC
  5
DCB3
  8
0
 10
3655.3299704792129887
 20
199.2610402698078929
 30
0.0
 40
0.1614437133837499
 50
21.0962313847566989
 51
56.6327643334189901
  0
ARC
  5
DCB4
  8
0
 10
3655.3803730333020212
 20
199.3258010694675875
 30
0.0
 40
0.0798992052969555
 50
61.2815739005086471
 51
122.4707179080878063
  0
ARC
  5
DCB5
  8
0
 10
3655.5781551375380332
 20
199.14151289074141
 30
0.0
 40
0.348248088528508
 50
133.7179789734252893
 51
173.342943336164808
  0
ARC
  5
DCB6
  8
0
 10
3657.0798935521620479
 20
198.7773464904547893
 30
0.0
 40
1.8914065711900021
 50
167.6500643440153908
 51
177.7257015189252911
  0
ARC
  5
DCB7
  8
0
 10
3661.715432073222928
 20
198.527784571849196
 30
0.0
 40
6.5335246107309333
 50
177.1520732977222963
 51
179.6407670542774895
  0
LINE
  5
DCB8
  8
0
 10
3655.8213460106480852
 20
194.9683734463006033
 30
0.0
 11
3655.8207542407822075
 21
196.3200755019929886
 31
0.0
  0
LINE
  5
DCB9
  8
0
 10
3655.8207522909638101
 20
196.3245292142894129
 30
0.0
 11
3655.820472996053013
 21
196.9624858379609975
 31
0.0
  0
LINE
  5
DCBA
  8
0
 10
3655.820471046351031
 20
196.9669392864155952
 30
0.0
 11
3655.8198792222410702
 21
198.3187652453333953
 31
0.0
  0
ARC
  5
DCBB
  8
0
 10
3641.7729102712778513
 20
198.3126155373460051
 30
0.0
 40
14.0469702971225807
 50
0.0250838662518591
 51
2.3596602670651929
  0
ARC
  5
DCBC
  8
0
 10
3654.3254173325080956
 20
198.8298684630549076
 30
0.0
 40
1.483810499070535
 50
2.3596602670651929
 51
17.2498529799064393
  0
ARC
  5
DCBD
  8
0
 10
3655.4788122322452182
 20
199.1880038539837017
 30
0.0
 40
0.2760933331028504
 50
17.2498529799064393
 51
43.1709589929249873
  0
LINE
  5
DCBE
  8
0
 10
3656.538300992584027
 20
193.9062974210532104
 30
0.0
 11
3656.4600437972558211
 21
193.9062974210532104
 31
0.0
  0
LINE
  5
DCBF
  8
0
 10
3656.4600413379389465
 20
193.9093761581567037
 30
0.0
 11
3656.4521672687719729
 21
193.9093361910325939
 31
0.0
  0
LINE
  5
DCC0
  8
0
 10
3656.452168899094886
 20
193.9062974210532104
 30
0.0
 11
3655.5739006929411516
 21
193.9195668970332918
 31
0.0
  0
ARC
  5
DCC1
  8
0
 10
3655.5751199397541313
 20
193.9855468667167884
 30
0.0
 40
0.0659912339801288
 50
241.9443861373756022
 51
268.9413492158270174
  0
ARC
  5
DCC2
  8
0
 10
3644.9315669327079377
 20
194.8678852244242137
 30
0.0
 40
10.9136034572860705
 50
358.4255078229920741
 51
0.5315033328352113
  0
ARC
  5
DCC3
  8
0
 10
3653.0179408580411291
 20
194.6335784367404926
 30
0.0
 40
2.8238702468538821
 50
350.7462945940457075
 51
358.6696385296224889
  0
ARC
  5
DCC4
  8
0
 10
3655.129431538317931
 20
194.2895601661743115
 30
0.0
 40
0.68453823349621
 50
333.980223578321386
 51
350.7462945940457075
  0
ARC
  5
DCC5
  8
0
 10
3655.6008008953649551
 20
194.0594565325162932
 30
0.0
 40
0.1600034367604828
 50
314.960257828205215
 51
333.980223578321386
  0
ARC
  5
DCC6
  8
0
 10
3655.6654049059698082
 20
194.005195699260014
 30
0.0
 40
0.0763152950517306
 50
254.4652093515655054
 51
309.416862726774923
  0
LINE
  5
DCC7
  8
0
 10
3655.8113424057410157
 20
196.3245341603202974
 30
0.0
 11
3655.8439883955629739
 21
196.3245170009107028
 31
0.0
  0
LINE
  5
DCC8
  8
0
 10
3655.8148022748418953
 20
196.320084132620309
 30
0.0
 11
3655.8439907478168607
 21
196.3200418079775034
 31
0.0
  0
LINE
  5
DCC9
  8
0
 10
3655.7562689454389329
 20
194.0144829803693085
 30
0.0
 11
3655.6712374247408661
 21
193.9434793128332899
 31
0.0
  0
ARC
  5
DCCA
  8
0
 10
3655.6238413409628265
 20
194.0117628707214976
 30
0.0
 40
0.0831205933288046
 50
271.1640758982268267
 51
304.7647789051576979
  0
LINE
  5
DCCB
  8
0
 10
3655.6255299823192217
 20
193.9286594320097947
 30
0.0
 11
3655.3857979785411771
 21
193.9245962193332957
 31
0.0
  0
ARC
  5
DCCC
  8
0
 10
3644.762165485496098
 20
194.9190491797473896
 30
0.0
 40
10.8158872322878903
 50
357.4504494782848951
 51
0.2606189073650901
  0
ARC
  5
DCCD
  8
0
 10
3653.793569621233928
 20
194.5385486396509975
 30
0.0
 40
1.77662870574378
 50
347.1769144476838846
 51
356.7530843670513718
  0
ARC
  5
DCCE
  8
0
 10
3653.9030184854918843
 20
194.5877324188226112
 30
0.0
 40
1.6823774516933929
 50
339.9560307309682798
 51
344.7156356093012732
  0
ARC
  5
DCCF
  8
0
 10
3655.3328708190128964
 20
194.069221715958804
 30
0.0
 40
0.1614437133837499
 50
303.3672356665809957
 51
338.9037686152433935
  0
ARC
  5
DCD0
  8
0
 10
3655.3832733731028384
 20
194.0044609162989957
 30
0.0
 40
0.0798992052969555
 50
237.5292820919121937
 51
298.7184260994621923
  0
ARC
  5
DCD1
  8
0
 10
3655.5810554773379408
 20
194.1887490950252015
 30
0.0
 40
0.348248088528508
 50
186.6570566638318951
 51
226.2820210265747107
  0
ARC
  5
DCD2
  8
0
 10
3657.0827938919619555
 20
194.5529154953119075
 30
0.0
 40
1.8914065711900021
 50
182.2742984810745952
 51
192.3499356559846092
  0
ARC
  5
DCD3
  8
0
 10
3668.6060086933380262
 20
195.0172977552705902
 30
0.0
 40
13.4239745355478508
 50
180.3502286359284881
 51
182.303040838489494
  0
ARC
  5
DCD4
  8
0
 10
3644.9717681134579834
 20
194.9185636275560114
 30
0.0
 40
10.8496922336644701
 50
357.468258226928981
 51
0.2630399421421621
  0
ARC
  5
DCD5
  8
0
 10
3654.3283176723080032
 20
194.5003935227117893
 30
0.0
 40
1.483810499070535
 50
342.7501470200934932
 51
357.6403397329315226
  0
ARC
  5
DCD6
  8
0
 10
3655.4817125720442164
 20
194.1422581317829952
 30
0.0
 40
0.2760933331028504
 50
316.8290410070749772
 51
342.7501470200934932
  0
LINE
  5
DCD7
  8
0
 10
3655.1822849464019782
 20
194.9352423045467901
 30
0.0
 11
3655.1820358796840083
 21
198.5687481809414123
 31
0.0
  0
ARC
  5
DCD8
  8
0
 10
3655.8288503975481945
 20
196.4518550174759923
 30
0.0
 40
0.1285189886512449
 50
182.3118261228815129
 51
262.1703166720873242
  0
ARC
  5
DCD9
  8
0
 10
3655.8302407336482247
 20
196.4496103182520983
 30
0.0
 40
0.1304430096810049
 50
181.2971611007579895
 51
263.202880221414091
  0
ARC
  5
DDB6
  8
0
 10
3632.5779635529161169
 20
221.2412749001674968
 30
0.0
 40
10.8836424821517106
 50
90.1159534156858655
 51
117.0183541495361936
  0
ARC
  5
DDB7
  8
0
 10
3630.6988723693120846
 20
225.19518444422431
 30
0.0
 40
6.5087790625590607
 50
118.093743764592304
 51
156.5584794814949987
  0
ARC
  5
DDB8
  8
0
 10
3634.0911769421909412
 20
223.905111342845089
 30
0.0
 40
10.1356706807646297
 50
157.496354225830288
 51
169.3819620484717063
  0
ARC
  5
DDB9
  8
0
 10
3624.1755123516782078
 20
225.7640087192050089
 30
0.0
 40
0.047266261462672
 50
169.3819620484717063
 51
211.0059736590274895
  0
LINE
  5
DDBA
  8
0
 10
3624.1349997962438465
 20
225.7396605709209894
 30
0.0
 11
3624.1711102248359566
 21
225.6795769159741951
 31
0.0
  0
ARC
  5
DDBB
  8
0
 10
3624.1656457064777896
 20
225.613068221267099
 30
0.0
 40
0.0635628743309217
 50
100.1125154354031963
 51
159.7432645831011939
  0
ARC
  5
DDBC
  8
0
 10
3624.2761302889957733
 20
225.198581490070211
 30
0.0
 40
0.4923269377320653
 50
94.3944618613597868
 51
104.3048997303603045
  0
ARC
  5
DDBD
  8
0
 10
3632.8004778065660503
 20
29.8684086322556404
 30
0.0
 40
196.0081468586404867
 50
90.071482365069258
 51
92.5036034564087828
  0
ARC
  5
DDBE
  8
0
 10
3655.0454139327421217
 20
221.8335991685841861
 30
0.0
 40
31.1720657053225416
 50
172.9952646457215053
 51
175.0455181508457088
  0
ARC
  5
DDBF
  8
0
 10
3647.635043596495052
 20
223.4551980719579944
 30
0.0
 40
23.6817367370922298
 50
180.1646369352106092
 51
182.9210525908401905
  0
ARC
  5
DDC0
  8
0
 10
3670.4497760932558776
 20
224.2223751105507006
 30
0.0
 40
46.5076111564629784
 50
182.4326261158234956
 51
188.1816755689405909
  0
ARC
  5
DDC1
  8
0
 10
3647.4186486742692068
 20
220.8979444252709072
 30
0.0
 40
23.2377952482357095
 50
188.1496728863612873
 51
204.0858405373558071
  0
ARC
  5
DDC2
  8
0
 10
3640.0630795599449812
 20
218.2600612566369023
 30
0.0
 40
15.4575083677206493
 50
206.2867589639496941
 51
223.2359078628088866
  0
ARC
  5
DDC3
  8
0
 10
3632.7576371293271222
 20
211.4922701434624059
 30
0.0
 40
5.4997356165384117
 50
224.0032419099842116
 51
267.8982399763035005
  0
ARC
  5
DDC4
  8
0
 10
3648.6093668229409559
 20
223.1685003164890873
 30
0.0
 40
24.6569316703721704
 50
176.8445320170580999
 51
179.4919135700745016
  0
ATTDEF
  5
DDCB
  8
DEFPOINTS
 10
3632.5572721956968962
 20
234.4034117328201035
 30
0.0
 40
0.001
  1
K-5401T-XP3
  3

  2
MODELNUMBER
 70
     0
1001
ACDBATTR
1070
     0
1070
     1
  0
ATTDEF
  5
DDCC
  8
DEFPOINTS
 10
3632.5572721956968962
 20
234.4017450661534951
 30
0.0
 40
0.001
  1
VEIL
  3

  2
TRADENAME
 70
     0
1001
ACDBATTR
1070
     0
1070
     1
  0
ATTDEF
  5
DDCD
  8
DEFPOINTS
 10
3632.5572721956968962
 20
234.4000783994868016
 30
0.0
 40
0.001
  1
TOILET
  3

  2
PRODUCT
 70
     0
1001
ACDBATTR
1070
     0
1070
     1
  0
ENDSEC
  0
EOF
