  0
SECTION
  2
HEADER
  9
$ACADVER
  1
AC1009
  9
$INSBASE
 10
1404.822358036928108
 20
256.5049924043082115
 30
0.0
  9
$EXTMIN
 10
1396.1832687535541027
 20
256.4774307561697242
 30
-0.0015258207003583
  9
$EXTMAX
 10
1430.3880626142110941
 20
279.9257507580707056
 30
0.0000000349246037
  9
$LIMMIN
 10
0.0
 20
0.0
  9
$LIMMAX
 10
11.6929133858000007
 20
8.2677165353999982
  9
$ORTHOMODE
 70
     0
  9
$REGENMODE
 70
     1
  9
$FILLMODE
 70
     1
  9
$QTEXTMODE
 70
     0
  9
$MIRRTEXT
 70
     0
  9
$DRAGMODE
 70
     2
  9
$LTSCALE
 40
0.6431102362
  9
$OSMODE
 70
  4095
  9
$ATTMODE
 70
     1
  9
$TEXTSIZE
 40
0.2
  9
$TRACEWID
 40
0.05
  9
$TEXTSTYLE
  7
STANDARD
  9
$CLAYER
  8
0
  9
$CELTYPE
  6
BYLAYER
  9
$CECOLOR
 62
   256
  9
$DIMSCALE
 40
1.0
  9
$DIMASZ
 40
0.1875
  9
$DIMEXO
 40
0.0625
  9
$DIMDLI
 40
0.4443307087
  9
$DIMRND
 40
0.0
  9
$DIMDLE
 40
0.0
  9
$DIMEXE
 40
0.125
  9
$DIMTP
 40
0.01
  9
$DIMTM
 40
0.01
  9
$DIMTXT
 40
1.0
  9
$DIMCEN
 40
0.1052362205
  9
$DIMTSZ
 40
0.0
  9
$DIMTOL
 70
     1
  9
$DIMLIM
 70
     0
  9
$DIMTIH
 70
     0
  9
$DIMTOH
 70
     1
  9
$DIMSE1
 70
     0
  9
$DIMSE2
 70
     0
  9
$DIMTAD
 70
     0
  9
$DIMZIN
 70
     0
  9
$DIMBLK
  1

  9
$DIMASO
 70
     1
  9
$DIMSHO
 70
     1
  9
$DIMPOST
  1
\X
  9
$DIMAPOST
  1

  9
$DIMALT
 70
     1
  9
$DIMALTD
 70
     2
  9
$DIMALTF
 40
25.3999999999999986
  9
$DIMLFAC
 40
1.0
  9
$DIMTOFL
 70
     0
  9
$DIMTVP
 40
0.0
  9
$DIMTIX
 70
     0
  9
$DIMSOXD
 70
     0
  9
$DIMSAH
 70
     0
  9
$DIMBLK1
  1

  9
$DIMBLK2
  1

  9
$DIMSTYLE
  2
STANDARD
  9
$DIMCLRD
 70
     0
  9
$DIMCLRE
 70
     0
  9
$DIMCLRT
 70
     0
  9
$DIMTFAC
 40
1.0
  9
$DIMGAP
 40
0.09
  9
$LUNITS
 70
     2
  9
$LUPREC
 70
     4
  9
$SKETCHINC
 40
0.1
  9
$FILLETRAD
 40
0.0
  9
$AUNITS
 70
     0
  9
$AUPREC
 70
     0
  9
$MENU
  1
.
  9
$ELEVATION
 40
0.0
  9
$PELEVATION
 40
0.0
  9
$THICKNESS
 40
0.0
  9
$LIMCHECK
 70
     0
  9
$BLIPMODE
 70
     0
  9
$CHAMFERA
 40
0.0
  9
$CHAMFERB
 40
0.0
  9
$SKPOLY
 70
     0
  9
$TDCREATE
 40
2458172.5207638889551163
  9
$TDUPDATE
 40
2459146.727523148059845
  9
$TDINDWG
 40
0.4686465509
  9
$TDUSRTIMER
 40
0.4686465509
  9
$USRTIMER
 70
     1
  9
$ANGBASE
 50
0.0
  9
$ANGDIR
 70
     0
  9
$PDMODE
 70
     0
  9
$PDSIZE
 40
0.3125
  9
$PLINEWID
 40
0.0
  9
$COORDS
 70
     1
  9
$SPLFRAME
 70
     0
  9
$SPLINETYPE
 70
     6
  9
$SPLINESEGS
 70
     8
  9
$ATTDIA
 70
     1
  9
$ATTREQ
 70
     1
  9
$HANDLING
 70
     1
  9
$HANDSEED
  5
D4A5
  9
$SURFTAB1
 70
     6
  9
$SURFTAB2
 70
     6
  9
$SURFTYPE
 70
     6
  9
$SURFU
 70
     6
  9
$SURFV
 70
     6
  9
$UCSNAME
  2

  9
$UCSORG
 10
0.0
 20
0.0
 30
0.0
  9
$UCSXDIR
 10
1.0
 20
0.0
 30
0.0
  9
$UCSYDIR
 10
0.0
 20
1.0
 30
0.0
  9
$PUCSNAME
  2

  9
$PUCSORG
 10
0.0
 20
0.0
 30
0.0
  9
$PUCSXDIR
 10
1.0
 20
0.0
 30
0.0
  9
$PUCSYDIR
 10
0.0
 20
1.0
 30
0.0
  9
$USERI1
 70
     0
  9
$USERI2
 70
     0
  9
$USERI3
 70
     0
  9
$USERI4
 70
     0
  9
$USERI5
 70
     0
  9
$USERR1
 40
0.0
  9
$USERR2
 40
0.0
  9
$USERR3
 40
0.0
  9
$USERR4
 40
0.0
  9
$USERR5
 40
0.0
  9
$WORLDVIEW
 70
     1
  9
$SHADEDGE
 70
     3
  9
$SHADEDIF
 70
    70
  9
$TILEMODE
 70
     1
  9
$MAXACTVP
 70
    64
  9
$PLIMCHECK
 70
     0
  9
$PEXTMIN
 10
1.0000000000000000E+20
 20
1.0000000000000000E+20
 30
1.0000000000000000E+20
  9
$PEXTMAX
 10
-1.0000000000000000E+20
 20
-1.0000000000000000E+20
 30
-1.0000000000000000E+20
  9
$PLIMMIN
 10
0.0
 20
0.0
  9
$PLIMMAX
 10
12.0
 20
9.0
  9
$UNITMODE
 70
     0
  9
$VISRETAIN
 70
     1
  9
$PLINEGEN
 70
     0
  9
$PSLTSCALE
 70
     1
  0
ENDSEC
  0
SECTION
  2
TABLES
  0
TABLE
  2
VPORT
 70
     1
  0
VPORT
  2
*ACTIVE
 70
     0
 10
0.0
 20
0.0
 11
1.0
 21
1.0
 12
946.5434639760525215
 22
179.0684436371903985
 13
0.0
 23
0.0
 14
1.0
 24
1.0
 15
0.0
 25
0.0
 16
0.0
 26
0.0
 36
24.1179433675886514
 17
466.74220170783002
 27
89.133147119929788
 37
0.0
 40
23.7252686633406711
 41
2.6055226824457591
 42
50.0
 43
0.0
 44
0.0
 50
0.0
 51
0.0
 71
     0
 72
   100
 73
     1
 74
     1
 75
     0
 76
     0
 77
     0
 78
     0
  0
ENDTAB
  0
TABLE
  2
LTYPE
 70
     2
  0
LTYPE
  2
CONTINUOUS
 70
     0
  3
Solid line
 72
    65
 73
     0
 40
0.0
  0
LTYPE
  2
PHANTOM2
 70
     0
  3
___ _ _ ___ _ _ ___ _ _ ___ _ _
 72
    65
 73
     6
 40
1.25
 49
0.625
 49
-0.125
 49
0.125
 49
-0.125
 49
0.125
 49
-0.125
  0
ENDTAB
  0
TABLE
  2
LAYER
 70
     2
  0
LAYER
  2
0
 70
     0
 62
   255
  6
CONTINUOUS
  0
LAYER
  2
DEFPOINTS
 70
     0
 62
     7
  6
CONTINUOUS
  0
ENDTAB
  0
TABLE
  2
STYLE
 70
     1
  0
STYLE
  2
STANDARD
 70
     0
 40
0.0
 41
0.8
 50
0.0
 71
     0
 42
0.2
  3
txt
  4

  0
ENDTAB
  0
TABLE
  2
VIEW
 70
     0
  0
ENDTAB
  0
TABLE
  2
UCS
 70
     0
  0
ENDTAB
  0
TABLE
  2
APPID
 70
    11
  0
APPID
  2
ACAD
 70
     0
  0
APPID
  2
ACAD_MLEADERVER
 70
     0
  0
APPID
  2
ACAD_EXEMPT_FROM_CAD_STANDARDS
 70
     0
  0
APPID
  2
ACAD_DSTYLE_DIMJAG
 70
     0
  0
APPID
  2
ACAD_DSTYLE_DIMTALN
 70
     0
  0
APPID
  2
ACAD_NAV_VCDISPLAY
 70
     0
  0
APPID
  2
ACAECLAYERSTANDARD
 70
     0
  0
APPID
  2
ACCMTRANSPARENCY
 70
     0
  0
APPID
  2
DCO15
 70
     0
  0
APPID
  2
ACDBATTR
 70
     0
  0
APPID
  2
ACADANNOTATIVE
 70
     0
  0
ENDTAB
  0
TABLE
  2
DIMSTYLE
 70
     1
  0
DIMSTYLE
  2
STANDARD
 70
     0
  3

  4

  5

  6

  7

 40
1.0
 41
0.1875
 42
0.0625
 43
0.38
 44
0.125
 45
0.0
 46
0.0
 47
0.01
 48
0.01
140
0.15625
141
0.09
142
0.0
143
25.3999999999999986
144
1.0
145
0.0
146
1.0
147
0.09
 71
     1
 72
     0
 73
     1
 74
     1
 75
     0
 76
     0
 77
     0
 78
     4
170
     0
171
     2
172
     0
173
     0
174
     0
175
     0
176
     0
177
     0
178
     0
  0
ENDTAB
  0
ENDSEC
  0
SECTION
  2
BLOCKS
  0
BLOCK
  8
0
  2
$MODEL_SPACE
 70
     0
 10
0.0
 20
0.0
 30
0.0
  3
$MODEL_SPACE
  1

  0
ENDBLK
  5
21
  8
0
  0
BLOCK
 67
     1
  8
0
  2
$PAPER_SPACE
 70
     0
 10
0.0
 20
0.0
 30
0.0
  3
$PAPER_SPACE
  1

  0
ENDBLK
  5
1D
 67
     1
  8
0
  0
ENDSEC
  0
SECTION
  2
ENTITIES
  0
ATTDEF
  5
829
  8
DEFPOINTS
 10
1404.8152999199940041
 20
256.5019451113091122
 30
0.0
 40
0.001
  1
K-5401T
  3

  2
MODELNUMBER
 70
     0
1001
ACDBATTR
1070
     0
1070
     1
  0
ATTDEF
  5
82A
  8
DEFPOINTS
 10
1404.8152999199940041
 20
256.5002784446423902
 30
0.0
 40
0.001
  1
VELI
  3

  2
TRADENAME
 70
     0
1001
ACDBATTR
1070
     0
1070
     1
  0
ATTDEF
  5
82B
  8
DEFPOINTS
 10
1404.8152999199940041
 20
256.4986117779757819
 30
0.0
 40
0.001
  1
TOILET
  3

  2
PRODUCT
 70
     0
1001
ACDBATTR
1070
     0
1070
     1
  0
ARC
  5
D376
  8
0
 10
1404.8286769868150259
 20
232.4001144611304994
 30
0.0
 40
45.5689471451824986
 50
90.0079450850482061
 51
90.5021152598913829
  0
ARC
  5
D377
  8
0
 10
1404.7163146865859744
 20
245.22131565322141
 30
0.0
 40
32.7472536028072909
 50
90.5021152598913829
 51
94.2850963928689936
  0
ARC
  5
D378
  8
0
 10
1403.5506038800649549
 20
260.7788967329436787
 30
0.0
 40
17.1460609965808999
 50
94.2850963928689936
 51
105.5231273110615007
  0
ARC
  5
D379
  8
0
 10
1400.4625588093169881
 20
271.8965991544595795
 30
0.0
 40
5.607459283532922
 50
105.5231273110615007
 51
128.697224515453712
  0
ARC
  5
D37A
  8
0
 10
1398.3462777162910697
 20
274.5384120087027213
 30
0.0
 40
2.2225189854565031
 50
128.697224515453712
 51
151.4046979496895915
  0
ARC
  5
D37B
  8
0
 10
1405.6658634156860899
 20
897.2384564351750669
 30
0.0
 40
623.2156615796741335
 50
269.6381300718210809
 51
269.922451703423576
  0
ARC
  5
D37C
  8
0
 10
1414.1207859016290058
 20
2235.9098838147319839
 30
0.0
 40
1961.9137889394849026
 50
269.5458349625174037
 51
269.6381300718210809
  0
ARC
  5
D37D
  8
0
 10
1398.8588809281809517
 20
310.5647874727322915
 30
0.0
 40
36.5082041985442416
 50
267.2689187858927085
 51
269.5458349625174037
  0
ARC
  5
D37E
  8
0
 10
1397.1611886743648938
 20
275.6128573990333166
 30
0.0
 40
1.5153854861748379
 50
241.1967747387093084
 51
268.4170219129657085
  0
ARC
  5
D37F
  8
0
 10
1396.8497033805779211
 20
274.7470660348657816
 30
0.0
 40
0.623536971339505
 50
190.600019456065894
 51
227.8261220087140941
  0
ARC
  5
D380
  8
0
 10
1397.5103731039830564
 20
274.9225810216333912
 30
0.0
 40
1.306214390986272
 50
148.650222989181799
 51
192.8371499424515889
  0
ARC
  5
D381
  8
0
 10
1313.1788546212710571
 20
250.1950514093599907
 30
0.0
 40
86.5528940331109737
 50
4.5333130612756669
 51
14.9100031659468808
  0
LINE
  5
D382
  8
0
 10
1396.2589207019539117
 20
274.5476313807416204
 30
0.0
 11
1396.7270227584649547
 21
272.7598522651042003
 31
0.0
  0
ARC
  5
D383
  8
0
 10
1396.7460803199169277
 20
272.7648421901063784
 30
0.0
 40
0.0197
 50
194.6726199475083092
 51
269.9999999999869829
  0
LINE
  5
D384
  8
0
 10
1396.7721927186150879
 20
272.6664097271082028
 30
0.0
 11
1396.751794679069917
 21
272.7451421901063782
 31
0.0
  0
ARC
  5
D385
  8
0
 10
1396.9722271611960878
 20
272.5064097271081778
 30
0.0
 40
0.16
 50
90.0
 51
194.9100031659421006
  0
LINE
  5
D386
  8
0
 10
1399.6384732947949487
 20
256.5049924043082115
 30
0.0
 11
1399.6384732947949487
 21
257.0360807346190768
 31
0.0
  0
LINE
  5
D387
  8
0
 10
1399.4609720227228991
 20
257.0360807346190768
 30
0.0
 11
1410.1837440511339992
 21
257.0360807346190768
 31
0.0
  0
LINE
  5
D388
  8
0
 10
1399.6384732947949487
 20
256.5049924043082115
 30
0.0
 11
1410.00624277906104
 21
256.5049924043082115
 31
0.0
  0
LINE
  5
D389
  8
0
 10
1396.7721927186150879
 20
272.6664097271082028
 30
0.0
 11
1412.8725233552420377
 21
272.6664097271082028
 31
0.0
  0
LINE
  5
D38A
  8
0
 10
1396.7460803199169277
 20
272.7451421901063782
 30
0.0
 11
1412.8986357539399705
 21
272.7451421901063782
 31
0.0
  0
ARC
  5
D38B
  8
0
 10
1404.8160390870420997
 20
232.4001144611304994
 30
0.0
 40
45.5689471451824986
 50
89.4978847401086028
 51
89.9920549149517939
  0
ARC
  5
D38C
  8
0
 10
1404.9284013872700143
 20
245.22131565322141
 30
0.0
 40
32.7472536028072909
 50
85.7149036071310206
 51
89.4978847401086028
  0
ARC
  5
D38D
  8
0
 10
1406.0941121937910339
 20
260.7788967329436787
 30
0.0
 40
17.1460609965808999
 50
74.4768726889384709
 51
85.7149036071310206
  0
ARC
  5
D38E
  8
0
 10
1409.1821572645390006
 20
271.8965991544595795
 30
0.0
 40
5.607459283532922
 50
51.3027754845463022
 51
74.4768726889384709
  0
ARC
  5
D38F
  8
0
 10
1411.298438357564919
 20
274.5384120087027213
 30
0.0
 40
2.2225189854565031
 50
28.5953020503103907
 51
51.3027754845463022
  0
ARC
  5
D390
  8
0
 10
1403.9788526581698989
 20
897.2384564351750669
 30
0.0
 40
623.2156615796741335
 50
270.0775482965763103
 51
270.3618699281789191
  0
ARC
  5
D391
  8
0
 10
1395.5239301722269829
 20
2235.9098838147319839
 30
0.0
 40
1961.9137889394849026
 50
270.3618699281789191
 51
270.4541650374825963
  0
ARC
  5
D392
  8
0
 10
1410.785835145675037
 20
310.5647874727322915
 30
0.0
 40
36.5082041985442416
 50
270.4541650374825963
 51
272.7310812141074052
  0
ARC
  5
D393
  8
0
 10
1412.4835273994910949
 20
275.6128573990333166
 30
0.0
 40
1.5153854861748379
 50
271.5829780870342915
 51
298.80322526129072
  0
ARC
  5
D394
  8
0
 10
1412.7950126932789772
 20
274.7470660348657816
 30
0.0
 40
0.623536971339505
 50
312.1738779912859059
 51
349.399980543935726
  0
ARC
  5
D395
  8
0
 10
1412.1343429698729324
 20
274.9225810216333912
 30
0.0
 40
1.306214390986272
 50
347.1628500575483258
 51
31.3497770108182117
  0
ARC
  5
D396
  8
0
 10
1496.4658614525849316
 20
250.1950514093599907
 30
0.0
 40
86.5528940331104337
 50
165.0899968340530961
 51
175.4666869387243082
  0
LINE
  5
D397
  8
0
 10
1413.385795371902077
 20
274.5476313807416204
 30
0.0
 11
1412.917693315391034
 21
272.7598522651042003
 31
0.0
  0
ARC
  5
D398
  8
0
 10
1412.8986357539399705
 20
272.7648421901063784
 30
0.0
 40
0.0197
 50
270.0
 51
345.3273800524917192
  0
LINE
  5
D399
  8
0
 10
1412.8725233552420377
 20
272.6664097271082028
 30
0.0
 11
1412.8929213947860717
 21
272.7451421901063782
 31
0.0
  0
ARC
  5
D39A
  8
0
 10
1412.6724889126610378
 20
272.5064097271081778
 30
0.0
 40
0.16
 50
345.0899968340577857
 51
90.0
  0
LINE
  5
D39B
  8
0
 10
1410.00624277906104
 20
256.5049924043082115
 30
0.0
 11
1410.00624277906104
 21
257.0360807346190768
 31
0.0
  0
LINE
  5
D39C
  8
0
 10
1425.8694091665670385
 20
279.9110275878871903
 30
0.0
 11
1429.3014867255531044
 21
279.9110275878871903
 31
0.0
  0
LINE
  5
D39D
  8
0
 10
1425.8484814011560502
 20
276.8669796074855753
 30
0.0
 11
1429.3874327612109028
 21
276.8669796074855753
 31
0.0
  0
LINE
  5
D39E
  8
0
 10
1424.8555586661459529
 20
278.7284447486279078
 30
0.0
 11
1424.8555586661459529
 21
277.9962545767710935
 31
0.0
  0
ARC
  5
D39F
  8
0
 10
1425.8213083565040051
 20
278.6667809124847963
 30
0.0
 40
1.800006419942044
 50
260.8561550301599254
 51
270.8649746456603111
  0
ARC
  5
D3A0
  8
0
 10
1425.6380899414270971
 20
277.528488578887675
 30
0.0
 40
0.6470630456389984
 50
222.3008687370285941
 51
260.8561550301599254
  0
ARC
  5
D3A1
  8
0
 10
1425.894774679891043
 20
277.7620608343748927
 30
0.0
 40
0.9941121106047409
 50
195.0730129718087937
 51
222.3008687370285941
  0
ARC
  5
D3A2
  8
0
 10
1426.5721241728329005
 20
278.0198112820327196
 30
0.0
 40
1.7167271353112581
 50
180.7862298686636962
 51
197.5013727739658975
  0
ARC
  5
D3A3
  8
0
 10
1426.5108401268450962
 20
278.7369060555532769
 30
0.0
 40
1.6553030864020659
 50
165.3640481692177957
 51
180.2928764473348906
  0
ARC
  5
D3A4
  8
0
 10
1426.4064767485870107
 20
278.764160619745212
 30
0.0
 40
1.547439626458903
 50
151.5272348492198091
 51
165.3640481692177957
  0
ARC
  5
D3A5
  8
0
 10
1425.7869772237040706
 20
279.1001402340468758
 30
0.0
 40
0.8426971468567639
 50
131.7838229207785901
 51
151.5272348492198091
  0
ARC
  5
D3A6
  8
0
 10
1425.6179066807249001
 20
279.3072633219401268
 30
0.0
 40
0.575721310454065
 50
105.717684316034493
 51
132.9722582388467913
  0
ARC
  5
D3A7
  8
0
 10
1425.7601370077859428
 20
278.8803692324688086
 30
0.0
 40
1.0254034769083471
 50
94.3934780719080351
 51
106.906119634092903
  0
ARC
  5
D3A8
  8
0
 10
1425.9019183016910119
 20
277.0350108207226754
 30
0.0
 40
2.8762004952502251
 50
90.6476168484091289
 51
94.3934780719080351
  0
LINE
  5
D3A9
  8
0
 10
1425.8113663664260002
 20
277.3590985910925042
 30
0.0
 11
1429.4245477959409527
 21
277.3590985910925042
 31
0.0
  0
LINE
  5
D3AA
  8
0
 10
1425.9626929099611061
 20
277.3922243674628021
 30
0.0
 11
1429.2732212524060742
 21
277.3922243674628021
 31
0.0
  0
ARC
  5
D3AB
  8
0
 10
1425.8745891311280047
 20
279.0800408873586775
 30
0.0
 40
1.7221032213704111
 50
258.3831323163778961
 51
267.8960542244607268
  0
ARC
  5
D3AC
  8
0
 10
1425.6583679938019031
 20
278.0282657395102888
 30
0.0
 40
0.648332975061549
 50
224.327888083115198
 51
258.3831323163778961
  0
ARC
  5
D3AD
  8
0
 10
1425.9383809371829557
 20
278.2573621436271765
 30
0.0
 40
1.0092256420074111
 50
203.9392200439031058
 51
222.5234823705218901
  0
ARC
  5
D3AE
  8
0
 10
1426.2802042942980734
 20
278.4068569241504747
 30
0.0
 40
1.3823057679891779
 50
190.380105736904909
 51
203.8535837287124082
  0
ARC
  5
D3AF
  8
0
 10
1427.5572974905389856
 20
278.6376372516684796
 30
0.0
 40
2.6800814166365452
 50
180.4485893419079048
 51
190.3138282201497873
  0
ARC
  5
D3B0
  8
0
 10
1432.3944925771500039
 20
278.4412793781791038
 30
0.0
 40
7.519239812861505
 50
176.1226338717218027
 51
178.6635424277444031
  0
ARC
  5
D3B1
  8
0
 10
1426.2584744068299187
 20
278.8571559853917279
 30
0.0
 40
1.3691445014928609
 50
147.2351768364225961
 51
176.1226338717218027
  0
ARC
  5
D3B2
  8
0
 10
1426.0037409157530419
 20
281.3180516921449907
 30
0.0
 40
3.9260419154666759
 50
263.9544296800187908
 51
269.4009436499184176
  0
ARC
  5
D3B3
  8
0
 10
1425.6595023937738915
 20
278.0588228400860089
 30
0.0
 40
0.6486851197100524
 50
221.733997039476094
 51
263.8717486062633952
  0
ARC
  5
D3B4
  8
0
 10
1425.9602405206690037
 20
278.3078246865509868
 30
0.0
 40
1.038962295626388
 50
202.3582350611982861
 51
220.941101540580604
  0
ARC
  5
D3B5
  8
0
 10
1427.0012481904009292
 20
278.5952702092096729
 30
0.0
 40
2.1150626818212719
 50
182.1458733925109073
 51
198.8300733992751077
  0
ARC
  5
D3B6
  8
0
 10
1431.9946196340790721
 20
278.7095227937949176
 30
0.0
 40
7.1095832177928644
 50
178.8550249620734007
 51
181.559184895285
  0
LINE
  5
D3B7
  8
0
 10
1425.6323598751680493
 20
276.9669729219340866
 30
0.0
 11
1429.5783027999100341
 21
276.9669729219340866
 31
0.0
  0
ARC
  5
D3B8
  8
0
 10
1425.644985618813962
 20
277.1899147816426989
 30
0.0
 40
0.2232990869058127
 50
116.5204635347467956
 51
266.7586619361673002
  0
LINE
  5
D3B9
  8
0
 10
1430.3803554962219096
 20
278.7284447486279078
 30
0.0
 11
1430.3803554962219096
 21
277.9962545767710935
 31
0.0
  0
ARC
  5
D3BA
  8
0
 10
1429.4146058058629478
 20
278.6667809124847963
 30
0.0
 40
1.800006419942044
 50
269.1350253543396889
 51
279.1438449698400746
  0
ARC
  5
D3BB
  8
0
 10
1429.5978242209400833
 20
277.528488578887675
 30
0.0
 40
0.6470630456389984
 50
279.1438449698400746
 51
317.6991312629713207
  0
ARC
  5
D3BC
  8
0
 10
1429.34113948247591
 20
277.7620608343748927
 30
0.0
 40
0.9941121106047409
 50
317.6991312629713207
 51
344.9269870281912063
  0
ARC
  5
D3BD
  8
0
 10
1428.6637899895340524
 20
278.0198112820327196
 30
0.0
 40
1.7167271353112581
 50
342.4986272260341025
 51
359.2137701313362186
  0
ARC
  5
D3BE
  8
0
 10
1428.7250740355220842
 20
278.7369060555532769
 30
0.0
 40
1.6553030864020659
 50
359.7071235526651094
 51
14.6359518307822096
  0
ARC
  5
D3BF
  8
0
 10
1428.8294374137810792
 20
278.764160619745212
 30
0.0
 40
1.547439626458903
 50
14.6359518307822096
 51
28.4727651507801411
  0
ARC
  5
D3C0
  8
0
 10
1429.4489369386631097
 20
279.1001402340468758
 30
0.0
 40
0.8426971468567639
 50
28.4727651507801411
 51
48.2161770792213602
  0
ARC
  5
D3C1
  8
0
 10
1429.6180074816420529
 20
279.3072633219401268
 30
0.0
 40
0.575721310454065
 50
47.0277417611532087
 51
74.2823156839654359
  0
ARC
  5
D3C2
  8
0
 10
1429.4757771545810101
 20
278.8803692324688086
 30
0.0
 40
1.0254034769083471
 50
73.0938803659070686
 51
85.6065219280919507
  0
ARC
  5
D3C3
  8
0
 10
1429.3339958606770779
 20
277.0350108207226754
 30
0.0
 40
2.8762004952502251
 50
85.6065219280919507
 51
90.6476168484091289
  0
ARC
  5
D3C4
  8
0
 10
1429.3613250312400851
 20
279.0800408873586775
 30
0.0
 40
1.7221032213704111
 50
272.1039457755392732
 51
281.6168676836221039
  0
ARC
  5
D3C5
  8
0
 10
1429.5775461685659593
 20
278.0282657395102888
 30
0.0
 40
0.648332975061549
 50
281.6168676836221039
 51
315.6721119168847736
  0
ARC
  5
D3C6
  8
0
 10
1429.2975332251839973
 20
278.2573621436271765
 30
0.0
 40
1.0092256420074111
 50
317.4765176294779963
 51
336.0607799560970079
  0
ARC
  5
D3C7
  8
0
 10
1428.9557098680700165
 20
278.4068569241504747
 30
0.0
 40
1.3823057679891779
 50
336.1464162712877055
 51
349.6198942630949773
  0
ARC
  5
D3C8
  8
0
 10
1427.6786166718291042
 20
278.6376372516684796
 30
0.0
 40
2.6800814166365452
 50
349.686171779850099
 51
359.5514106580920952
  0
ARC
  5
D3C9
  8
0
 10
1422.841421585218086
 20
278.4412793781791038
 30
0.0
 40
7.519239812861505
 50
1.336457572255553
 51
3.8773661282781879
  0
ARC
  5
D3CA
  8
0
 10
1428.9774397555370342
 20
278.8571559853917279
 30
0.0
 40
1.3691445014928609
 50
3.8773661282781879
 51
32.7648231635774323
  0
ARC
  5
D3CB
  8
0
 10
1429.232173246613911
 20
281.3180516921449907
 30
0.0
 40
3.9260419154666759
 50
270.5990563500816961
 51
276.0455703199812092
  0
ARC
  5
D3CC
  8
0
 10
1429.5764117685939709
 20
278.0588228400860089
 30
0.0
 40
0.6486851197100524
 50
276.1282513937366048
 51
318.2660029605237924
  0
ARC
  5
D3CD
  8
0
 10
1429.2756736416990861
 20
278.3078246865509868
 30
0.0
 40
1.038962295626388
 50
319.0588984594194244
 51
337.6417649388018276
  0
ARC
  5
D3CE
  8
0
 10
1428.2346659719660238
 20
278.5952702092096729
 30
0.0
 40
2.1150626818212719
 50
341.1699266007249207
 51
357.8541266074889791
  0
ARC
  5
D3CF
  8
0
 10
1423.2412945282881083
 20
278.7095227937949176
 30
0.0
 40
7.1095832177928644
 50
358.4408151047134083
 51
1.1449750379265899
  0
ARC
  5
D3D0
  8
0
 10
1429.5909285435539005
 20
277.1899147816426989
 30
0.0
 40
0.2232990869058127
 50
266.7586619367414187
 51
63.4795364652531831
  0
ARC
  5
D3D1
  8
0
 10
1464.1717820193650823
 20
286.0029009336490731
 30
0.0
 40
52.878736729644892
 50
188.8506277365893027
 51
190.1646205945569079
  0
ARC
  5
D3D2
  8
0
 10
1408.9920737644440578
 20
156.1266518573550002
 30
0.0
 40
121.7756483459961032
 50
88.6210074764859002
 51
90.8400069577937757
  0
ARC
  5
D3D3
  8
0
 10
1404.884835182813049
 20
220.0759154105579114
 30
0.0
 40
56.2741809047021917
 50
90.0636113658673452
 51
92.7768588281057731
  0
ARC
  5
D3D4
  8
0
 10
1404.599949464869951
 20
225.9494466865355093
 30
0.0
 40
50.3937447370208602
 50
92.7768588281057731
 51
99.2412385097165668
  0
ARC
  5
D3D5
  8
0
 10
1396.5311314146060795
 20
275.5416456903683979
 30
0.0
 40
0.1494214082702048
 50
99.2412385097165668
 51
144.7623495053138072
  0
ARC
  5
D3D6
  8
0
 10
1396.5161686967740025
 20
275.4931902315130969
 30
0.0
 40
0.160811266593546
 50
101.1655661487485958
 51
143.6302411602648874
  0
ARC
  5
D3D7
  8
0
 10
1404.357750572751911
 20
228.7520563037599004
 30
0.0
 40
47.5550911905204785
 50
92.6490366935992569
 51
99.5291582145597005
  0
ARC
  5
D3D8
  8
0
 10
1404.9093673075828974
 20
219.8597402265691869
 30
0.0
 40
56.4635730201088322
 50
90.0882917196542081
 51
92.7911436200944877
  0
ARC
  5
D3D9
  8
0
 10
1404.7598808910429398
 20
220.0759154105579114
 30
0.0
 40
56.2741809047021917
 50
87.2231411718942269
 51
89.9363886341326548
  0
ARC
  5
D3DA
  8
0
 10
1405.0447666089860377
 20
225.9494466865355093
 30
0.0
 40
50.3937447370208602
 50
80.7587614902834332
 51
87.2231411718942269
  0
ARC
  5
D3DB
  8
0
 10
1413.1135846592510461
 20
275.5416456903683979
 30
0.0
 40
0.1494214082702048
 50
35.2376504946861999
 51
80.7587614902834332
  0
ARC
  5
D3DC
  8
0
 10
1413.1285473770819863
 20
275.4931902315130969
 30
0.0
 40
0.160811266593546
 50
36.3697588397351197
 51
78.8344338512513758
  0
ARC
  5
D3DD
  8
0
 10
1405.2869655011040777
 20
228.7520563037599004
 30
0.0
 40
47.5550911905204785
 50
80.4708417854402853
 51
87.3509633064007289
  0
ARC
  5
D3DE
  8
0
 10
1404.7353487662730913
 20
219.8597402265691869
 30
0.0
 40
56.4635730201088322
 50
87.2088563799055123
 51
89.9117082803457777
  0
ENDSEC
  0
EOF
