  0
SECTION
  2
HEADER
  9
$ACADVER
  1
AC1009
  9
$INSBASE
 10
1444.8866368543729095
 20
290.5563095746397266
 30
0.0
  9
$EXTMIN
 10
1436.1857087652499558
 20
264.0569823514688892
 30
-0.0000000349181948
  9
$EXTMAX
 10
1470.4459654302540912
 20
290.5592895852367974
 30
0.0000000814935746
  9
$LIMMIN
 10
0.0
 20
0.0
  9
$LIMMAX
 10
11.6929133858000007
 20
8.2677165353999982
  9
$ORTHOMODE
 70
     0
  9
$REGENMODE
 70
     1
  9
$FILLMODE
 70
     1
  9
$QTEXTMODE
 70
     0
  9
$MIRRTEXT
 70
     0
  9
$DRAGMODE
 70
     2
  9
$LTSCALE
 40
0.6431102362
  9
$OSMODE
 70
  4095
  9
$ATTMODE
 70
     1
  9
$TEXTSIZE
 40
0.2
  9
$TRACEWID
 40
0.05
  9
$TEXTSTYLE
  7
STANDARD
  9
$CLAYER
  8
0
  9
$CELTYPE
  6
BYLAYER
  9
$CECOLOR
 62
   256
  9
$DIMSCALE
 40
1.0
  9
$DIMASZ
 40
0.1875
  9
$DIMEXO
 40
0.0625
  9
$DIMDLI
 40
0.4443307087
  9
$DIMRND
 40
0.0
  9
$DIMDLE
 40
0.0
  9
$DIMEXE
 40
0.125
  9
$DIMTP
 40
0.01
  9
$DIMTM
 40
0.01
  9
$DIMTXT
 40
1.0
  9
$DIMCEN
 40
0.1052362205
  9
$DIMTSZ
 40
0.0
  9
$DIMTOL
 70
     1
  9
$DIMLIM
 70
     0
  9
$DIMTIH
 70
     0
  9
$DIMTOH
 70
     1
  9
$DIMSE1
 70
     0
  9
$DIMSE2
 70
     0
  9
$DIMTAD
 70
     0
  9
$DIMZIN
 70
     0
  9
$DIMBLK
  1

  9
$DIMASO
 70
     1
  9
$DIMSHO
 70
     1
  9
$DIMPOST
  1
\X
  9
$DIMAPOST
  1

  9
$DIMALT
 70
     1
  9
$DIMALTD
 70
     2
  9
$DIMALTF
 40
25.3999999999999986
  9
$DIMLFAC
 40
1.0
  9
$DIMTOFL
 70
     0
  9
$DIMTVP
 40
0.0
  9
$DIMTIX
 70
     0
  9
$DIMSOXD
 70
     0
  9
$DIMSAH
 70
     0
  9
$DIMBLK1
  1

  9
$DIMBLK2
  1

  9
$DIMSTYLE
  2
STANDARD
  9
$DIMCLRD
 70
     0
  9
$DIMCLRE
 70
     0
  9
$DIMCLRT
 70
     0
  9
$DIMTFAC
 40
1.0
  9
$DIMGAP
 40
0.09
  9
$LUNITS
 70
     2
  9
$LUPREC
 70
     4
  9
$SKETCHINC
 40
0.1
  9
$FILLETRAD
 40
0.0
  9
$AUNITS
 70
     0
  9
$AUPREC
 70
     0
  9
$MENU
  1
.
  9
$ELEVATION
 40
0.0
  9
$PELEVATION
 40
0.0
  9
$THICKNESS
 40
0.0
  9
$LIMCHECK
 70
     0
  9
$BLIPMODE
 70
     0
  9
$CHAMFERA
 40
0.0
  9
$CHAMFERB
 40
0.0
  9
$SKPOLY
 70
     0
  9
$TDCREATE
 40
2458172.5207638889551163
  9
$TDUPDATE
 40
2459146.7268171301111579
  9
$TDINDWG
 40
0.4675122917
  9
$TDUSRTIMER
 40
0.4675122917
  9
$USRTIMER
 70
     1
  9
$ANGBASE
 50
0.0
  9
$ANGDIR
 70
     0
  9
$PDMODE
 70
     0
  9
$PDSIZE
 40
0.3125
  9
$PLINEWID
 40
0.0
  9
$COORDS
 70
     1
  9
$SPLFRAME
 70
     0
  9
$SPLINETYPE
 70
     6
  9
$SPLINESEGS
 70
     8
  9
$ATTDIA
 70
     1
  9
$ATTREQ
 70
     1
  9
$HANDLING
 70
     1
  9
$HANDSEED
  5
D687
  9
$SURFTAB1
 70
     6
  9
$SURFTAB2
 70
     6
  9
$SURFTYPE
 70
     6
  9
$SURFU
 70
     6
  9
$SURFV
 70
     6
  9
$UCSNAME
  2

  9
$UCSORG
 10
0.0
 20
0.0
 30
0.0
  9
$UCSXDIR
 10
1.0
 20
0.0
 30
0.0
  9
$UCSYDIR
 10
0.0
 20
1.0
 30
0.0
  9
$PUCSNAME
  2

  9
$PUCSORG
 10
0.0
 20
0.0
 30
0.0
  9
$PUCSXDIR
 10
1.0
 20
0.0
 30
0.0
  9
$PUCSYDIR
 10
0.0
 20
1.0
 30
0.0
  9
$USERI1
 70
     0
  9
$USERI2
 70
     0
  9
$USERI3
 70
     0
  9
$USERI4
 70
     0
  9
$USERI5
 70
     0
  9
$USERR1
 40
0.0
  9
$USERR2
 40
0.0
  9
$USERR3
 40
0.0
  9
$USERR4
 40
0.0
  9
$USERR5
 40
0.0
  9
$WORLDVIEW
 70
     1
  9
$SHADEDGE
 70
     3
  9
$SHADEDIF
 70
    70
  9
$TILEMODE
 70
     1
  9
$MAXACTVP
 70
    64
  9
$PLIMCHECK
 70
     0
  9
$PEXTMIN
 10
1.0000000000000000E+20
 20
1.0000000000000000E+20
 30
1.0000000000000000E+20
  9
$PEXTMAX
 10
-1.0000000000000000E+20
 20
-1.0000000000000000E+20
 30
-1.0000000000000000E+20
  9
$PLIMMIN
 10
0.0
 20
0.0
  9
$PLIMMAX
 10
12.0
 20
9.0
  9
$UNITMODE
 70
     0
  9
$VISRETAIN
 70
     1
  9
$PLINEGEN
 70
     0
  9
$PSLTSCALE
 70
     1
  0
ENDSEC
  0
SECTION
  2
TABLES
  0
TABLE
  2
VPORT
 70
     1
  0
VPORT
  2
*ACTIVE
 70
     0
 10
0.0
 20
0.0
 11
1.0
 21
1.0
 12
986.5736353899220603
 22
188.1749888484231121
 13
0.0
 23
0.0
 14
1.0
 24
1.0
 15
0.0
 25
0.0
 16
0.0
 26
0.0
 36
24.1179433675886514
 17
466.74220170783002
 27
89.133147119929788
 37
0.0
 40
26.81532661054462
 41
2.6055226824457591
 42
50.0
 43
0.0
 44
0.0
 50
0.0
 51
0.0
 71
     0
 72
   100
 73
     1
 74
     1
 75
     0
 76
     0
 77
     0
 78
     0
  0
ENDTAB
  0
TABLE
  2
LTYPE
 70
     2
  0
LTYPE
  2
CONTINUOUS
 70
     0
  3
Solid line
 72
    65
 73
     0
 40
0.0
  0
LTYPE
  2
PHANTOM2
 70
     0
  3
___ _ _ ___ _ _ ___ _ _ ___ _ _
 72
    65
 73
     6
 40
1.25
 49
0.625
 49
-0.125
 49
0.125
 49
-0.125
 49
0.125
 49
-0.125
  0
ENDTAB
  0
TABLE
  2
LAYER
 70
     2
  0
LAYER
  2
0
 70
     0
 62
   255
  6
CONTINUOUS
  0
LAYER
  2
DEFPOINTS
 70
     0
 62
     7
  6
CONTINUOUS
  0
ENDTAB
  0
TABLE
  2
STYLE
 70
     1
  0
STYLE
  2
STANDARD
 70
     0
 40
0.0
 41
0.8
 50
0.0
 71
     0
 42
0.2
  3
txt
  4

  0
ENDTAB
  0
TABLE
  2
VIEW
 70
     0
  0
ENDTAB
  0
TABLE
  2
UCS
 70
     0
  0
ENDTAB
  0
TABLE
  2
APPID
 70
    11
  0
APPID
  2
ACAD
 70
     0
  0
APPID
  2
ACAD_MLEADERVER
 70
     0
  0
APPID
  2
ACAD_EXEMPT_FROM_CAD_STANDARDS
 70
     0
  0
APPID
  2
ACAD_DSTYLE_DIMJAG
 70
     0
  0
APPID
  2
ACAD_DSTYLE_DIMTALN
 70
     0
  0
APPID
  2
ACAD_NAV_VCDISPLAY
 70
     0
  0
APPID
  2
ACAECLAYERSTANDARD
 70
     0
  0
APPID
  2
ACCMTRANSPARENCY
 70
     0
  0
APPID
  2
DCO15
 70
     0
  0
APPID
  2
ACDBATTR
 70
     0
  0
APPID
  2
ACADANNOTATIVE
 70
     0
  0
ENDTAB
  0
TABLE
  2
DIMSTYLE
 70
     1
  0
DIMSTYLE
  2
STANDARD
 70
     0
  3

  4

  5

  6

  7

 40
1.0
 41
0.1875
 42
0.0625
 43
0.38
 44
0.125
 45
0.0
 46
0.0
 47
0.01
 48
0.01
140
0.15625
141
0.09
142
0.0
143
25.3999999999999986
144
1.0
145
0.0
146
1.0
147
0.09
 71
     1
 72
     0
 73
     1
 74
     1
 75
     0
 76
     0
 77
     0
 78
     4
170
     0
171
     2
172
     0
173
     0
174
     0
175
     0
176
     0
177
     0
178
     0
  0
ENDTAB
  0
ENDSEC
  0
SECTION
  2
BLOCKS
  0
BLOCK
  8
0
  2
$MODEL_SPACE
 70
     0
 10
0.0
 20
0.0
 30
0.0
  3
$MODEL_SPACE
  1

  0
ENDBLK
  5
21
  8
0
  0
BLOCK
 67
     1
  8
0
  2
$PAPER_SPACE
 70
     0
 10
0.0
 20
0.0
 30
0.0
  3
$PAPER_SPACE
  1

  0
ENDBLK
  5
1D
 67
     1
  8
0
  0
ENDSEC
  0
SECTION
  2
ENTITIES
  0
ATTDEF
  5
829
  8
DEFPOINTS
 10
1444.8815722050051136
 20
290.5530311828184722
 30
0.0
 40
0.001
  1
K-5401T
  3

  2
MODELNUMBER
 70
     0
1001
ACDBATTR
1070
     0
1070
     1
  0
ATTDEF
  5
82A
  8
DEFPOINTS
 10
1444.8815722050051136
 20
290.5513645161519207
 30
0.0
 40
0.001
  1
VELI
  3

  2
TRADENAME
 70
     0
1001
ACDBATTR
1070
     0
1070
     1
  0
ATTDEF
  5
82B
  8
DEFPOINTS
 10
1444.8815722050051136
 20
290.5496978494851987
 30
0.0
 40
0.001
  1
TOILET
  3

  2
PRODUCT
 70
     0
1001
ACDBATTR
1070
     0
1070
     1
  0
ARC
  5
D539
  8
0
 10
1445.5319652711020808
 20
269.9310867399470908
 30
0.0
 40
5.8960080277361877
 50
254.2642209399145088
 51
263.7162874697779102
  0
ARC
  5
D53A
  8
0
 10
1447.61333503388596
 20
274.1952592085365268
 30
0.0
 40
10.59873253442675
 50
239.4391462917247111
 51
249.6809886000656036
  0
ARC
  5
D53B
  8
0
 10
1446.9497482396179748
 20
272.2595375414272212
 30
0.0
 40
8.6044084712070745
 50
215.2251220782800942
 51
236.6891944159426089
  0
ARC
  5
D53C
  8
0
 10
1453.3284175659259745
 20
276.7633836304194119
 30
0.0
 40
16.4128687527039503
 50
201.7549833364618053
 51
215.2251220782800942
  0
ARC
  5
D53D
  8
0
 10
1461.2341847670058996
 20
279.5303579522267228
 30
0.0
 40
24.7837312370443215
 50
186.6452930856760872
 51
200.9220559178440055
  0
ARC
  5
D53E
  8
0
 10
1500.8467156630360932
 20
283.5210396473382843
 30
0.0
 40
64.5949176818992612
 50
181.3005245607587881
 51
186.0951787854965005
  0
ARC
  5
D53F
  8
0
 10
1449.0659227264870879
 20
281.9396289783962857
 30
0.0
 40
12.7980048851998696
 50
171.1830019895652129
 51
179.4836552202999087
  0
ARC
  5
D540
  8
0
 10
1436.4552733859400178
 20
283.8943011575486821
 30
0.0
 40
0.0367916556413748
 50
140.3373375084032091
 51
169.0426066047243125
  0
ARC
  5
D541
  8
0
 10
1436.4741106724750352
 20
283.8786828663280062
 30
0.0
 40
0.0612615225123561
 50
107.0583339967651995
 51
140.337337508401987
  0
ARC
  5
D542
  8
0
 10
1436.5583055492379572
 20
283.6567742204007914
 30
0.0
 40
0.2985030689002868
 50
91.289322134349689
 51
110.0146232161513069
  0
ARC
  5
D543
  8
0
 10
1444.3614896654460154
 20
109.0313830263525006
 30
0.0
 40
175.0980779275714951
 50
91.3584483588278147
 51
92.5564121475261459
  0
ARC
  5
D544
  8
0
 10
1444.9122595966189238
 20
83.676658624480055
 30
0.0
 40
200.4587398218563123
 50
90.007323576884815
 51
91.3440217812049724
  0
ARC
  5
D545
  8
0
 10
1444.9397758229010833
 20
78.5569033067193914
 30
0.0
 40
205.6450721185042028
 50
90.0148053081279329
 51
91.3587712925420448
  0
ARC
  5
D546
  8
0
 10
1444.0380224381729022
 20
116.5743218392772036
 30
0.0
 40
167.6169605292267022
 50
91.3587712925420448
 51
92.5511804421536652
  0
ARC
  5
D547
  8
0
 10
1436.5900060250889965
 20
283.7353122634596048
 30
0.0
 40
0.2901256578195742
 50
92.5511804421536652
 51
105.974250393667603
  0
ARC
  5
D548
  8
0
 10
1436.5286635905958974
 20
283.9496021799056962
 30
0.0
 40
0.067228680361311
 50
105.974250393667603
 51
131.1670361002124139
  0
ARC
  5
D549
  8
0
 10
1436.4913288246420962
 20
283.9922988792088177
 30
0.0
 40
0.0105110210283867
 50
131.1670361002124139
 51
209.8574349889896951
  0
ARC
  5
D54A
  8
0
 10
1436.4911758497730716
 20
284.0301628169734727
 30
0.0
 40
0.0497526763669613
 50
169.3143736412228009
 51
213.6322690870645999
  0
ARC
  5
D54B
  8
0
 10
1444.8621360345950961
 20
282.6277884337827118
 30
0.0
 40
8.537358445479386
 50
155.9956850477227874
 51
170.4827912656662079
  0
ARC
  5
D54C
  8
0
 10
1443.007748295239935
 20
283.4645862647394097
 30
0.0
 40
6.5029416153001511
 50
124.0665485326208994
 51
156.0842524890902894
  0
ARC
  5
D54D
  8
0
 10
1444.2161761593879419
 20
281.3777264712034025
 30
0.0
 40
8.9101600943430181
 50
105.7596679287827044
 51
122.9866983495335973
  0
ARC
  5
D54E
  8
0
 10
1444.879580360538057
 20
279.026990985143982
 30
0.0
 40
11.3527125419932702
 50
92.9348931216818244
 51
105.7596679287827044
  0
ARC
  5
D54F
  8
0
 10
1444.8490446762639294
 20
279.6225954220549852
 30
0.0
 40
10.7563258609865695
 50
89.799757132604995
 51
92.9348931216818244
  0
LINE
  5
D550
  8
0
 10
1436.4837456312520771
 20
283.9458155682610823
 30
0.0
 11
1436.4497513018889094
 21
284.0026067715700719
 31
0.0
  0
LINE
  5
D551
  8
0
 10
1436.5039930694999839
 20
283.9502946399420011
 30
0.0
 11
1436.4822129646909161
 21
283.9870660348178149
 31
0.0
  0
ARC
  5
D552
  8
0
 10
1444.8082891880130774
 20
267.0139513423437734
 30
0.0
 40
2.944492589297834
 50
271.5247178751949946
 51
290.5175089604528011
  0
ARC
  5
D553
  8
0
 10
1442.1705886743359315
 20
274.1752673529583149
 30
0.0
 40
10.5761027754294492
 50
290.3028836364421181
 51
300.5662404081601835
  0
ARC
  5
D554
  8
0
 10
1442.8235254691269347
 20
272.2595375414272212
 30
0.0
 40
8.6044084712070745
 50
303.3108055840575048
 51
324.7748779217197921
  0
ARC
  5
D555
  8
0
 10
1436.444856142818935
 20
276.7633836304194119
 30
0.0
 40
16.4128687527039503
 50
324.7748779217197921
 51
338.2450166635383084
  0
ARC
  5
D556
  8
0
 10
1428.5390889417390099
 20
279.5303579522267228
 30
0.0
 40
24.7837312370443215
 50
339.0779440821559092
 51
353.3547069143239128
  0
ARC
  5
D557
  8
0
 10
1388.9265580457090437
 20
283.5210396473382843
 30
0.0
 40
64.5949176818992612
 50
353.9048212145033858
 51
358.6994754392412119
  0
ARC
  5
D558
  8
0
 10
1440.707350982258049
 20
281.9396289783962857
 30
0.0
 40
12.7980048851998696
 50
0.5163447797001089
 51
8.816998010434812
  0
ARC
  5
D559
  8
0
 10
1453.3180003228048918
 20
283.8943011575486821
 30
0.0
 40
0.0367916556413748
 50
10.9573933952756395
 51
39.6626624915967625
  0
ARC
  5
D55A
  8
0
 10
1453.2991630362701017
 20
283.8786828663280062
 30
0.0
 40
0.0612615225123561
 50
39.6626624915980202
 51
72.9416660032347863
  0
ARC
  5
D55B
  8
0
 10
1453.2149681595069524
 20
283.6567742204007914
 30
0.0
 40
0.2985030689002868
 50
69.9853767838486363
 51
88.7106778656503252
  0
ARC
  5
D55C
  8
0
 10
1445.4117840432988942
 20
109.0313830263525006
 30
0.0
 40
175.0980779275714951
 50
87.4435878524738541
 51
88.6415516411722137
  0
ARC
  5
D55D
  8
0
 10
1444.8610141121259858
 20
83.676658624480055
 30
0.0
 40
200.4587398218563123
 50
88.6559782187950418
 51
89.9926764231151992
  0
ARC
  5
D55E
  8
0
 10
1444.8334978858440536
 20
78.5569033067193914
 30
0.0
 40
205.6450721185042028
 50
88.6412287074579694
 51
89.9851946918720671
  0
ARC
  5
D55F
  8
0
 10
1445.7352512705720073
 20
116.5743218392772036
 30
0.0
 40
167.6169605292267022
 50
87.4488195578463632
 51
88.6412287074579694
  0
ARC
  5
D560
  8
0
 10
1453.1832676836559131
 20
283.7353122634596048
 30
0.0
 40
0.2901256578195742
 50
74.0257496063323686
 51
87.4488195578463632
  0
ARC
  5
D561
  8
0
 10
1453.2446101181490121
 20
283.9496021799056962
 30
0.0
 40
0.067228680361311
 50
48.8329638997876216
 51
74.0257496063323686
  0
ARC
  5
D562
  8
0
 10
1453.2819448841030407
 20
283.9922988792088177
 30
0.0
 40
0.0105110210283867
 50
330.1425650110102765
 51
48.8329638997876216
  0
ARC
  5
D563
  8
0
 10
1453.2820978589720653
 20
284.0301628169734727
 30
0.0
 40
0.0497526763669613
 50
326.3677309129353716
 51
10.6856263587771991
  0
ARC
  5
D564
  8
0
 10
1444.9111376741500408
 20
282.6277884337827118
 30
0.0
 40
8.537358445479386
 50
9.5172087343337868
 51
24.0043149522771913
  0
ARC
  5
D565
  8
0
 10
1446.7655254135049745
 20
283.4645862647394097
 30
0.0
 40
6.5029416153001511
 50
23.9157475109097106
 51
33.3626557343684595
  0
ARC
  5
D566
  8
0
 10
1444.8936933482070799
 20
279.026990985143982
 30
0.0
 40
11.3527125419932702
 50
80.8502008069699656
 51
87.0651068783181756
  0
ARC
  5
D567
  8
0
 10
1444.9242290324809801
 20
279.6225954220549852
 30
0.0
 40
10.7563258609865695
 50
87.0651068783181756
 51
90.200242867395005
  0
LINE
  5
D568
  8
0
 10
1453.2895280774930598
 20
283.9458155682610823
 30
0.0
 11
1453.3235224068560001
 21
284.0026067715700719
 31
0.0
  0
LINE
  5
D569
  8
0
 10
1453.2692806392449256
 20
283.9502946399420011
 30
0.0
 11
1453.2910607440539934
 21
283.9870660348178149
 31
0.0
  0
LINE
  5
D56A
  8
0
 10
1464.9357014075490042
 20
289.5916123984243882
 30
0.0
 11
1464.9198374835900722
 21
290.4675889180625745
 31
0.0
  0
LINE
  5
D56B
  8
0
 10
1464.9198374835900722
 20
290.4745665367125866
 30
0.0
 11
1464.9211955380260406
 21
290.5563095746397266
 31
0.0
  0
LINE
  5
D56C
  8
0
 10
1464.9211955380260406
 20
290.5563095746397266
 30
0.0
 11
1470.4432762592300605
 21
290.5563095746397266
 31
0.0
  0
LINE
  5
D56D
  8
0
 10
1465.7425234779439052
 20
289.1994607336687864
 30
0.0
 11
1469.6219483193131055
 21
289.1994607336687864
 31
0.0
  0
ARC
  5
D56E
  8
0
 10
1465.7358373533741087
 20
292.9310307017279911
 30
0.0
 40
3.7315759580616472
 50
263.6675781425793161
 51
270.1026608940629785
  0
ARC
  5
D56F
  8
0
 10
1465.4629330062170993
 20
290.4718531640793913
 30
0.0
 40
1.2573021364377981
 50
251.8137086418767865
 51
263.6675781425793161
  0
ARC
  5
D570
  8
0
 10
1465.1632139525659113
 20
289.5595168504621029
 30
0.0
 40
0.2969953832247423
 50
231.0734857897529082
 51
251.8137086418763033
  0
ARC
  5
D571
  8
0
 10
1465.0350284033420394
 20
289.4014140921481157
 30
0.0
 40
0.0934577898353161
 50
180.6716059255552977
 51
231.3080726969699015
  0
ARC
  5
D572
  8
0
 10
1465.0268714808589721
 20
289.3974566951908969
 30
0.0
 40
0.0853424474989354
 50
127.9085932930183986
 51
178.0782420722441088
  0
ARC
  5
D573
  8
0
 10
1465.2776123442490643
 20
289.0057051081390114
 30
0.0
 40
0.5501594878396326
 50
98.1465824245599663
 51
123.4403476543400018
  0
ARC
  5
D574
  8
0
 10
1465.6386584113049594
 20
287.132954511680623
 30
0.0
 40
2.4568981091398552
 50
90.7194164235871199
 51
100.293083575517997
  0
LINE
  5
D575
  8
0
 10
1465.8495464121629084
 20
289.5950247851815789
 30
0.0
 11
1469.5149253850941022
 21
289.5950247851815789
 31
0.0
  0
ARC
  5
D576
  8
0
 10
1464.6330138750190599
 20
338.9531479874809179
 30
0.0
 40
49.3731129003153484
 50
271.1312904353491149
 51
271.4118865643835079
  0
LINE
  5
D577
  8
0
 10
1467.3909510189619141
 20
289.8382117366566035
 30
0.0
 11
1467.9735207782939597
 21
289.8382117366566035
 31
0.0
  0
LINE
  5
D578
  8
0
 10
1467.3728858549500274
 20
289.8382117366566035
 30
0.0
 11
1465.8661451093419146
 21
289.8382117366566035
 31
0.0
  0
LINE
  5
D579
  8
0
 10
1465.9026057816261073
 20
289.8634697751161866
 30
0.0
 11
1469.4618660156299939
 21
289.8634697751161866
 31
0.0
  0
ARC
  5
D57A
  8
0
 10
1465.9499797967910126
 20
279.5149914998582972
 30
0.0
 40
10.3235606411868908
 50
90.4652877752178028
 51
92.2823231360995635
  0
ARC
  5
D57B
  8
0
 10
1465.6473190513841018
 20
287.1090127146080135
 30
0.0
 40
2.7235105270837558
 50
92.2823231360995635
 51
97.3803170133730873
  0
ARC
  5
D57C
  8
0
 10
1465.4537904267649537
 20
288.6031190643628861
 30
0.0
 40
1.2169226229358141
 50
97.3803170133730873
 51
108.2239077807044936
  0
ARC
  5
D57D
  8
0
 10
1465.1691754172270521
 20
289.4675646766306158
 30
0.0
 40
0.3068281661771681
 50
108.2239077807044936
 51
126.9279759658861053
  0
ARC
  5
D57E
  8
0
 10
1465.0472735083490079
 20
289.6297577770920952
 30
0.0
 40
0.1039324362428944
 50
126.9279759658841016
 51
156.7320375769849079
  0
ARC
  5
D57F
  8
0
 10
1465.0230305764780496
 20
289.6294362469895987
 30
0.0
 40
0.0823819029783401
 50
149.8495451785531998
 51
171.390286168700186
  0
LINE
  5
D580
  8
0
 10
1464.9415770339398932
 20
289.6417690628268247
 30
0.0
 11
1464.9415770339398932
 21
289.4003186298185142
 31
0.0
  0
ARC
  5
D581
  8
0
 10
1465.0496679886969105
 20
289.6014925917227174
 30
0.0
 40
0.1143940550818482
 50
184.9547991653608108
 51
199.1085441312634998
  0
ARC
  5
D582
  8
0
 10
1465.0269086263720055
 20
289.6863210573774836
 30
0.0
 40
0.0795117041059302
 50
163.0752046738043077
 51
185.7547772887874942
  0
ARC
  5
D583
  8
0
 10
1464.9980260975698911
 20
289.6951098953531982
 30
0.0
 40
0.0493215709012553
 50
124.9346171578108056
 51
163.0752046738058993
  0
ARC
  5
D584
  8
0
 10
1465.2214205456700711
 20
289.3752934206261216
 30
0.0
 40
0.4394339354173162
 50
113.8715138009097956
 51
124.9346171578108056
  0
ARC
  5
D585
  8
0
 10
1465.2755823053150834
 20
289.2529062231831745
 30
0.0
 40
0.5732701125362047
 50
96.8375130026439024
 51
113.8715138009097956
  0
ARC
  5
D586
  8
0
 10
1465.5887251468470822
 20
287.593019565564191
 30
0.0
 40
2.2614721339597601
 50
91.7753723440891918
 51
99.709226006183215
  0
ARC
  5
D587
  8
0
 10
1466.6140617963039858
 20
255.3912923894199025
 30
0.0
 40
34.479518316991232
 50
91.1823343865122666
 51
91.8205688687950641
  0
LINE
  5
D588
  8
0
 10
1464.9477976484399733
 20
289.6783483376125901
 30
0.0
 11
1464.9477976484399733
 21
289.6630038575262915
 31
0.0
  0
LINE
  5
D589
  8
0
 10
1464.9198523819429738
 20
290.4754632876652067
 30
0.0
 11
1470.4446194153140368
 21
290.4754632876652067
 31
0.0
  0
LINE
  5
D58A
  8
0
 10
1464.9198374835900722
 20
290.4675889180625745
 30
0.0
 11
1464.9257368443040832
 21
290.4675889180625745
 31
0.0
  0
LINE
  5
D58B
  8
0
 10
1464.9198374835900722
 20
290.4745665367125866
 30
0.0
 11
1464.9258549713620141
 21
290.4745665367125866
 31
0.0
  0
LINE
  5
D58C
  8
0
 10
1464.9198536169581075
 20
290.4666980633433013
 30
0.0
 11
1470.4446181802979936
 21
290.4666980633433013
 31
0.0
  0
LINE
  5
D58D
  8
0
 10
1464.925721762647072
 20
290.4666980633433013
 30
0.0
 11
1464.9258701528390247
 21
290.4754632876652067
 31
0.0
  0
LINE
  5
D58E
  8
0
 10
1467.4837590524639381
 20
289.7217505656444132
 30
0.0
 11
1467.8807127447919356
 21
289.7217505656444132
 31
0.0
  0
LINE
  5
D58F
  8
0
 10
1467.4817187723399456
 20
289.7181655107021925
 30
0.0
 11
1467.8827530249159281
 21
289.7181655107021925
 31
0.0
  0
LINE
  5
D590
  8
0
 10
1467.3842590524639036
 20
289.8212505656443909
 30
0.0
 11
1467.3842590524639036
 21
289.8634697751161866
 31
0.0
  0
LINE
  5
D591
  8
0
 10
1467.3803187723399333
 20
289.8195655107022048
 30
0.0
 11
1467.3803187723399333
 21
289.8634697751161866
 31
0.0
  0
ARC
  5
D592
  8
0
 10
1467.4837590524639381
 20
289.8212505656443909
 30
0.0
 40
0.0995
 50
179.9999999999951115
 51
270.0
  0
ARC
  5
D593
  8
0
 10
1467.4817187723399456
 20
289.8195655107022048
 30
0.0
 40
0.1014
 50
180.0
 51
270.0
  0
ARC
  5
D594
  8
0
 10
1467.3733265153059619
 20
289.8309487741652219
 30
0.0
 40
0.0072763181274503
 50
16.0624120887632102
 51
93.4720083680527267
  0
ARC
  5
D595
  8
0
 10
1467.3908447128319494
 20
289.8314307866422155
 30
0.0
 40
0.0067817832673916
 50
89.1018377012795213
 51
166.1871899652869899
  0
LINE
  5
D596
  8
0
 10
1470.4287703897070969
 20
289.5916123984243882
 30
0.0
 11
1470.4446343136660289
 21
290.4675889180625745
 31
0.0
  0
LINE
  5
D597
  8
0
 10
1470.4446343136660289
 20
290.4745665367125866
 30
0.0
 11
1470.4432762592300605
 21
290.5563095746397266
 31
0.0
  0
ARC
  5
D598
  8
0
 10
1469.6286344438819924
 20
292.9310307017279911
 30
0.0
 40
3.7315759580616472
 50
269.8973391059370215
 51
276.3324218574206839
  0
ARC
  5
D599
  8
0
 10
1469.9015387910390018
 20
290.4718531640793913
 30
0.0
 40
1.2573021364377981
 50
276.3324218574206839
 51
288.1862913581231851
  0
ARC
  5
D59A
  8
0
 10
1470.2012578446910993
 20
289.5595168504621029
 30
0.0
 40
0.2969953832247423
 50
288.1862913581231851
 51
308.9265142102469781
  0
ARC
  5
D59B
  8
0
 10
1470.3294433939140617
 20
289.4014140921481157
 30
0.0
 40
0.0934577898353161
 50
308.691927303030127
 51
359.3283940744445886
  0
ARC
  5
D59C
  8
0
 10
1470.3376003163969017
 20
289.3974566951908969
 30
0.0
 40
0.0853424474989354
 50
1.9217579277558869
 51
52.0914067069816227
  0
ARC
  5
D59D
  8
0
 10
1470.0868594530070368
 20
289.0057051081390114
 30
0.0
 40
0.5501594878396326
 50
56.5596523456599627
 51
81.8534175754400479
  0
ARC
  5
D59E
  8
0
 10
1469.7258133859520512
 20
287.132954511680623
 30
0.0
 40
2.4568981091398552
 50
79.7069164244819461
 51
89.2805835764128943
  0
ARC
  5
D59F
  8
0
 10
1470.7314579222370412
 20
338.9531479874809179
 30
0.0
 40
49.3731129003153484
 50
268.5881134356164921
 51
268.8687095646509988
  0
LINE
  5
D5A0
  8
0
 10
1467.9915859423060738
 20
289.8382117366566035
 30
0.0
 11
1469.4983266879130497
 21
289.8382117366566035
 31
0.0
  0
ARC
  5
D5A1
  8
0
 10
1469.4144920004639516
 20
279.5149914998582972
 30
0.0
 40
10.3235606411868908
 50
87.7176768639004223
 51
89.5347122247821829
  0
ARC
  5
D5A2
  8
0
 10
1469.7171527458729088
 20
287.1090127146080135
 30
0.0
 40
2.7235105270837558
 50
82.6196829866269269
 51
87.7176768639004223
  0
ARC
  5
D5A3
  8
0
 10
1469.91068137049092
 20
288.6031190643628861
 30
0.0
 40
1.2169226229358141
 50
71.7760922192954638
 51
82.6196829866267137
  0
ARC
  5
D5A4
  8
0
 10
1470.195296380029049
 20
289.4675646766306158
 30
0.0
 40
0.3068281661771681
 50
53.0720240341139231
 51
71.7760922192954638
  0
ARC
  5
D5A5
  8
0
 10
1470.3171982889070932
 20
289.6297577770920952
 30
0.0
 40
0.1039324362428944
 50
23.2679624230150601
 51
53.0720240341158771
  0
ARC
  5
D5A6
  8
0
 10
1470.3414412207780515
 20
289.6294362469895987
 30
0.0
 40
0.0823819029783401
 50
8.6097138312997341
 51
30.1504548214468109
  0
LINE
  5
D5A7
  8
0
 10
1470.4228947633159805
 20
289.6417690628268247
 30
0.0
 11
1470.4228947633159805
 21
289.4003186298185142
 31
0.0
  0
ARC
  5
D5A8
  8
0
 10
1470.3148038085589633
 20
289.6014925917227174
 30
0.0
 40
0.1143940550818482
 50
340.8914558687365002
 51
355.045200834639104
  0
ARC
  5
D5A9
  8
0
 10
1470.3375631708840956
 20
289.6863210573774836
 30
0.0
 40
0.0795117041059302
 50
354.2452227112124206
 51
16.9247953261956212
  0
ARC
  5
D5AA
  8
0
 10
1470.3664456996850731
 20
289.6951098953531982
 30
0.0
 40
0.0493215709012553
 50
16.9247953261940616
 51
55.0653828421891802
  0
ARC
  5
D5AB
  8
0
 10
1470.14305125158603
 20
289.3752934206261216
 30
0.0
 40
0.4394339354173162
 50
55.0653828421891802
 51
66.128486199090176
  0
ARC
  5
D5AC
  8
0
 10
1470.0888894919410177
 20
289.2529062231831745
 30
0.0
 40
0.5732701125362047
 50
66.128486199090176
 51
83.1624869973561118
  0
ARC
  5
D5AD
  8
0
 10
1469.7757466504090189
 20
287.593019565564191
 30
0.0
 40
2.2614721339597601
 50
80.2907739938167992
 51
88.2246276559108082
  0
ARC
  5
D5AE
  8
0
 10
1468.7504100009530248
 20
255.3912923894199025
 30
0.0
 40
34.479518316991232
 50
88.1794311312049359
 51
88.8176656134877334
  0
LINE
  5
D5AF
  8
0
 10
1470.4166741488159005
 20
289.6783483376125901
 30
0.0
 11
1470.4166741488159005
 21
289.6630038575262915
 31
0.0
  0
LINE
  5
D5B0
  8
0
 10
1470.4446343136660289
 20
290.4675889180625745
 30
0.0
 11
1470.4387349529520179
 21
290.4675889180625745
 31
0.0
  0
LINE
  5
D5B1
  8
0
 10
1470.4446343136660289
 20
290.4745665367125866
 30
0.0
 11
1470.438616825894087
 21
290.4745665367125866
 31
0.0
  0
LINE
  5
D5B2
  8
0
 10
1470.4387500346090292
 20
290.4666980633433013
 30
0.0
 11
1470.4386016444170764
 21
290.4754632876652067
 31
0.0
  0
LINE
  5
D5B3
  8
0
 10
1467.9802127447919702
 20
289.8212505656443909
 30
0.0
 11
1467.9802127447919702
 21
289.8634697751161866
 31
0.0
  0
LINE
  5
D5B4
  8
0
 10
1467.9841530249159405
 20
289.8195655107022048
 30
0.0
 11
1467.9841530249159405
 21
289.8634697751161866
 31
0.0
  0
ARC
  5
D5B5
  8
0
 10
1467.8807127447919356
 20
289.8212505656443909
 30
0.0
 40
0.0995
 50
270.0
 51
0.0000000000048853
  0
ARC
  5
D5B6
  8
0
 10
1467.8827530249159281
 20
289.8195655107022048
 30
0.0
 40
0.1014
 50
269.9999999999869829
 51
0.0
  0
ARC
  5
D5B7
  8
0
 10
1467.9911452819499118
 20
289.8309487741652219
 30
0.0
 40
0.0072763181274503
 50
86.5279916319473017
 51
163.9375879112367898
  0
ARC
  5
D5B8
  8
0
 10
1467.9736270844239243
 20
289.8314307866422155
 30
0.0
 40
0.0067817832673916
 50
13.8128100347129692
 51
90.8981622987204929
  0
ARC
  5
D5B9
  8
0
 10
10026.9070940346391581
 20
797.5032953413917767
 30
0.0
 40
8589.8910073161387118
 50
183.3833735717028901
 51
183.4078490841260987
  0
ARC
  5
D5BA
  8
0
 10
1465.7368461204680443
 20
18.5111995788143986
 30
0.0
 40
272.3922985473992071
 50
92.8931373750624658
 51
94.4717781417504767
  0
ARC
  5
D5BB
  8
0
 10
1444.8504922313579755
 20
275.4059151933075213
 30
0.0
 40
14.6725942203487598
 50
89.8588568310209013
 51
95.5628432977083691
  0
ARC
  5
D5BC
  8
0
 10
1444.3914343740309505
 20
279.6759622420410096
 30
0.0
 40
10.3782461135201807
 50
95.3256246983210644
 51
107.1474101628932942
  0
ARC
  5
D5BD
  8
0
 10
1443.4746972748630469
 20
282.6309631806225866
 30
0.0
 40
7.284315739977508
 50
107.1099589931942972
 51
152.1911885979307897
  0
ARC
  5
D5BE
  8
0
 10
1444.9227814773869341
 20
275.4059151933075213
 30
0.0
 40
14.6725942203487598
 50
84.4371567022916452
 51
90.1411431689791129
  0
ARC
  5
D5BF
  8
0
 10
1445.381839334713959
 20
279.6759622420410096
 30
0.0
 40
10.3782461135201807
 50
72.8525898371066347
 51
84.6743753016789356
  0
ARC
  5
D5C0
  8
0
 10
1446.2985764338829995
 20
282.6309631806225866
 30
0.0
 40
7.284315739977508
 50
27.8088114020691606
 51
72.8900410068056885
  0
ENDSEC
  0
EOF
