  0
SECTION
  2
HEADER
  9
$ACADVER
  1
AC1009
  9
$INSBASE
 10
4506.7452303532736551
 20
392.2337676087125828
 30
0.0
  9
$EXTMIN
 10
4497.8682202621539545
 20
392.20375733622501
 30
-0.0015258207003583
  9
$EXTMAX
 10
4515.6766717360951588
 20
413.1731788285609923
 30
0.0000000349246037
  9
$LIMMIN
 10
0.0
 20
0.0
  9
$LIMMAX
 10
11.6929133858000007
 20
8.2677165353999982
  9
$ORTHOMODE
 70
     0
  9
$REGENMODE
 70
     1
  9
$FILLMODE
 70
     1
  9
$QTEXTMODE
 70
     0
  9
$MIRRTEXT
 70
     0
  9
$DRAGMODE
 70
     2
  9
$LTSCALE
 40
0.6431102362
  9
$OSMODE
 70
    19
  9
$ATTMODE
 70
     1
  9
$TEXTSIZE
 40
0.2
  9
$TRACEWID
 40
0.05
  9
$TEXTSTYLE
  7
STANDARD
  9
$CLAYER
  8
0
  9
$CELTYPE
  6
BYLAYER
  9
$CECOLOR
 62
   256
  9
$DIMSCALE
 40
1.0
  9
$DIMASZ
 40
0.1875
  9
$DIMEXO
 40
0.0625
  9
$DIMDLI
 40
0.4443307087
  9
$DIMRND
 40
0.0
  9
$DIMDLE
 40
0.0
  9
$DIMEXE
 40
0.125
  9
$DIMTP
 40
0.01
  9
$DIMTM
 40
0.01
  9
$DIMTXT
 40
2.0
  9
$DIMCEN
 40
0.1052362205
  9
$DIMTSZ
 40
0.0
  9
$DIMTOL
 70
     1
  9
$DIMLIM
 70
     0
  9
$DIMTIH
 70
     1
  9
$DIMTOH
 70
     1
  9
$DIMSE1
 70
     0
  9
$DIMSE2
 70
     0
  9
$DIMTAD
 70
     0
  9
$DIMZIN
 70
     0
  9
$DIMBLK
  1

  9
$DIMASO
 70
     1
  9
$DIMSHO
 70
     1
  9
$DIMPOST
  1
\X
  9
$DIMAPOST
  1

  9
$DIMALT
 70
     1
  9
$DIMALTD
 70
     2
  9
$DIMALTF
 40
25.3999999999999986
  9
$DIMLFAC
 40
1.0
  9
$DIMTOFL
 70
     0
  9
$DIMTVP
 40
0.0
  9
$DIMTIX
 70
     0
  9
$DIMSOXD
 70
     0
  9
$DIMSAH
 70
     0
  9
$DIMBLK1
  1

  9
$DIMBLK2
  1

  9
$DIMSTYLE
  2
STANDARD
  9
$DIMCLRD
 70
     0
  9
$DIMCLRE
 70
     0
  9
$DIMCLRT
 70
     0
  9
$DIMTFAC
 40
1.0
  9
$DIMGAP
 40
0.09
  9
$LUNITS
 70
     2
  9
$LUPREC
 70
     4
  9
$SKETCHINC
 40
0.1
  9
$FILLETRAD
 40
0.0
  9
$AUNITS
 70
     0
  9
$AUPREC
 70
     0
  9
$MENU
  1
.
  9
$ELEVATION
 40
0.0
  9
$PELEVATION
 40
0.0
  9
$THICKNESS
 40
0.0
  9
$LIMCHECK
 70
     0
  9
$BLIPMODE
 70
     0
  9
$CHAMFERA
 40
0.0
  9
$CHAMFERB
 40
0.0
  9
$SKPOLY
 70
     0
  9
$TDCREATE
 40
2458060.468368056230247
  9
$TDUPDATE
 40
2459265.6323032411746681
  9
$TDINDWG
 40
1.1420672454
  9
$TDUSRTIMER
 40
1.1420672454
  9
$USRTIMER
 70
     1
  9
$ANGBASE
 50
0.0
  9
$ANGDIR
 70
     0
  9
$PDMODE
 70
     0
  9
$PDSIZE
 40
0.3125
  9
$PLINEWID
 40
0.0
  9
$COORDS
 70
     1
  9
$SPLFRAME
 70
     0
  9
$SPLINETYPE
 70
     6
  9
$SPLINESEGS
 70
     8
  9
$ATTDIA
 70
     1
  9
$ATTREQ
 70
     1
  9
$HANDLING
 70
     1
  9
$HANDSEED
  5
18624
  9
$SURFTAB1
 70
     6
  9
$SURFTAB2
 70
     6
  9
$SURFTYPE
 70
     6
  9
$SURFU
 70
     6
  9
$SURFV
 70
     6
  9
$UCSNAME
  2

  9
$UCSORG
 10
0.0
 20
0.0
 30
0.0
  9
$UCSXDIR
 10
1.0
 20
0.0
 30
0.0
  9
$UCSYDIR
 10
0.0
 20
1.0
 30
0.0
  9
$PUCSNAME
  2

  9
$PUCSORG
 10
0.0
 20
0.0
 30
0.0
  9
$PUCSXDIR
 10
1.0
 20
0.0
 30
0.0
  9
$PUCSYDIR
 10
0.0
 20
1.0
 30
0.0
  9
$USERI1
 70
     0
  9
$USERI2
 70
     0
  9
$USERI3
 70
     0
  9
$USERI4
 70
     0
  9
$USERI5
 70
     0
  9
$USERR1
 40
0.0
  9
$USERR2
 40
0.0
  9
$USERR3
 40
0.0
  9
$USERR4
 40
0.0
  9
$USERR5
 40
0.0
  9
$WORLDVIEW
 70
     1
  9
$SHADEDGE
 70
     3
  9
$SHADEDIF
 70
    70
  9
$TILEMODE
 70
     1
  9
$MAXACTVP
 70
    64
  9
$PLIMCHECK
 70
     0
  9
$PEXTMIN
 10
1.0000000000000000E+20
 20
1.0000000000000000E+20
 30
1.0000000000000000E+20
  9
$PEXTMAX
 10
-1.0000000000000000E+20
 20
-1.0000000000000000E+20
 30
-1.0000000000000000E+20
  9
$PLIMMIN
 10
0.0
 20
0.0
  9
$PLIMMAX
 10
12.0
 20
9.0
  9
$UNITMODE
 70
     0
  9
$VISRETAIN
 70
     1
  9
$PLINEGEN
 70
     0
  9
$PSLTSCALE
 70
     1
  0
ENDSEC
  0
SECTION
  2
TABLES
  0
TABLE
  2
VPORT
 70
     1
  0
VPORT
  2
*ACTIVE
 70
     0
 10
0.0
 20
0.0
 11
1.0
 21
1.0
 12
595.4070895538125114
 22
270.1088629798538818
 13
0.0
 23
0.0
 14
1.0
 24
1.0
 15
0.0
 25
0.0
 16
0.0
 26
0.0
 36
60.4960186965801583
 17
3911.3653564453120453
 27
132.5796051025390057
 37
0.0
 40
21.1034114060250886
 41
1.7238805970149249
 42
50.0
 43
0.0
 44
0.0
 50
0.0
 51
0.0
 71
     0
 72
   100
 73
     1
 74
     1
 75
     0
 76
     0
 77
     0
 78
     0
  0
ENDTAB
  0
TABLE
  2
LTYPE
 70
     2
  0
LTYPE
  2
CONTINUOUS
 70
     0
  3
Solid line
 72
    65
 73
     0
 40
0.0
  0
LTYPE
  2
PHANTOM2
 70
     0
  3
___ _ _ ___ _ _ ___ _ _ ___ _ _
 72
    65
 73
     6
 40
1.25
 49
0.625
 49
-0.125
 49
0.125
 49
-0.125
 49
0.125
 49
-0.125
  0
ENDTAB
  0
TABLE
  2
LAYER
 70
     2
  0
LAYER
  2
0
 70
     0
 62
   255
  6
CONTINUOUS
  0
LAYER
  2
DEFPOINTS
 70
     0
 62
     7
  6
CONTINUOUS
  0
ENDTAB
  0
TABLE
  2
STYLE
 70
     1
  0
STYLE
  2
STANDARD
 70
     0
 40
0.0
 41
0.8
 50
0.0
 71
     0
 42
0.2
  3
txt
  4

  0
ENDTAB
  0
TABLE
  2
VIEW
 70
     0
  0
ENDTAB
  0
TABLE
  2
UCS
 70
     0
  0
ENDTAB
  0
TABLE
  2
APPID
 70
    11
  0
APPID
  2
ACAD
 70
     0
  0
APPID
  2
ACAD_MLEADERVER
 70
     0
  0
APPID
  2
ACAD_EXEMPT_FROM_CAD_STANDARDS
 70
     0
  0
APPID
  2
ACAD_NAV_VCDISPLAY
 70
     0
  0
APPID
  2
ACAECLAYERSTANDARD
 70
     0
  0
APPID
  2
ACCMTRANSPARENCY
 70
     0
  0
APPID
  2
ACAD_DSTYLE_DIMJAG
 70
     0
  0
APPID
  2
ACAD_DSTYLE_DIMTALN
 70
     0
  0
APPID
  2
ACDBATTR
 70
     0
  0
APPID
  2
ACADANNOTATIVE
 70
     0
  0
APPID
  2
DCO15
 70
     0
  0
ENDTAB
  0
TABLE
  2
DIMSTYLE
 70
     1
  0
DIMSTYLE
  2
STANDARD
 70
     0
  3

  4

  5

  6

  7

 40
1.0
 41
0.1875
 42
0.0625
 43
0.38
 44
0.125
 45
0.0
 46
0.0
 47
0.01
 48
0.01
140
0.15625
141
0.09
142
0.0
143
25.3999999999999986
144
1.0
145
0.0
146
1.0
147
0.09
 71
     1
 72
     0
 73
     1
 74
     1
 75
     0
 76
     0
 77
     0
 78
     4
170
     0
171
     2
172
     0
173
     0
174
     0
175
     0
176
     0
177
     0
178
     0
  0
ENDTAB
  0
ENDSEC
  0
SECTION
  2
BLOCKS
  0
BLOCK
  8
0
  2
$MODEL_SPACE
 70
     0
 10
0.0
 20
0.0
 30
0.0
  3
$MODEL_SPACE
  1

  0
ENDBLK
  5
21
  8
0
  0
BLOCK
 67
     1
  8
0
  2
$PAPER_SPACE
 70
     0
 10
0.0
 20
0.0
 30
0.0
  3
$PAPER_SPACE
  1

  0
ENDBLK
  5
1D
 67
     1
  8
0
  0
ENDSEC
  0
SECTION
  2
ENTITIES
  0
ATTDEF
  5
159BF
  8
DEFPOINTS
 10
4506.7452273861754293
 20
392.2371011949584272
 30
0.0
 40
0.001
  1
K-5401TW
  3

  2
MODELNUMBER
 70
     0
1001
ACDBATTR
1070
     0
1070
     1
  0
ATTDEF
  5
159C0
  8
DEFPOINTS
 10
4506.7451015765182092
 20
392.2354343545791835
 30
0.0
 40
0.001
  1
VEIL
  3

  2
TRADENAME
 70
     0
1001
ACDBATTR
1070
     0
1070
     1
  0
ATTDEF
  5
159C1
  8
DEFPOINTS
 10
4506.7452273861754293
 20
392.2337678616249832
 30
0.0
 40
0.001
  1
TOILET
  3

  2
PRODUCT
 70
     0
1001
ACDBATTR
1070
     0
1070
     1
  0
LINE
  5
18567
  8
0
 10
4512.1066130376721048
 20
392.2337676087125828
 30
0.0
 11
4501.3838476688770243
 21
392.2337676087125828
 31
0.0
  0
ARC
  5
18568
  8
0
 10
4499.3034570583558889
 20
410.1174463198756825
 30
0.0
 40
1.1793741283796511
 50
165.1357025604872888
 51
194.8642974395125975
  0
ARC
  5
18569
  8
0
 10
4506.7452309669370152
 20
383.2539789612055756
 30
0.0
 40
29.9128410596224512
 50
81.2991407855026722
 51
98.7008592144973278
  0
ARC
  5
1856A
  8
0
 10
4500.0217789560620076
 20
409.8956402421263192
 30
0.0
 40
1.9307930496282559
 50
133.1290435518087065
 51
164.2420987892894004
  0
ARC
  5
1856B
  8
0
 10
4501.7278952958722584
 20
408.1309202076718066
 30
0.0
 40
4.3852603980372296
 50
115.0307387552979037
 51
133.6348272509112007
  0
ARC
  5
1856C
  8
0
 10
4503.8358442976323204
 20
403.3455708028034223
 30
0.0
 40
9.6137413884670462
 50
99.6751164861679513
 51
114.3469561664982024
  0
ARC
  5
1856D
  8
0
 10
4506.7452303532736551
 20
359.4687104484885936
 30
0.0
 40
52.0521634466453733
 50
80.7830374504958115
 51
99.2169625495041743
  0
LINE
  5
1856E
  8
0
 10
4498.4078570719766503
 20
410.8488226150125229
 30
0.0
 11
4498.4078570719766503
 21
410.8488226173984117
 31
0.0
  0
ARC
  5
1856F
  8
0
 10
4498.4374117670849955
 20
410.6958187444773216
 30
0.0
 40
0.1558321674165214
 50
100.9327804252492058
 51
152.7102519961148914
  0
ARC
  5
18570
  8
0
 10
4498.4545770091035592
 20
410.7383741136807203
 30
0.0
 40
0.150460962067283
 50
99.3962022095905269
 51
159.9435866309403877
  0
ARC
  5
18571
  8
0
 10
4515.0358836974455699
 20
410.7383741136807203
 30
0.0
 40
0.150460962067283
 50
20.056413369059559
 51
80.6037977904094731
  0
ARC
  5
18572
  8
0
 10
4506.7452303532736551
 20
358.9096275172618107
 30
0.0
 40
52.6381135961544615
 50
80.9109403330301831
 51
99.0890596669698169
  0
ARC
  5
18573
  8
0
 10
4498.7740026421852235
 20
409.9584581505324081
 30
0.0
 40
0.6271059825365133
 50
193.2335188986808987
 51
240.5763197586794888
  0
ARC
  5
18574
  8
0
 10
4499.0255150068260264
 20
410.7606389146739048
 30
0.0
 40
1.459901212276177
 50
247.4614731924656894
 51
267.901667629120027
  0
ARC
  5
18575
  8
0
 10
4500.1851094285766521
 20
426.693296643203098
 30
0.0
 40
17.4338332377808314
 50
266.0101291177351754
 51
269.7581826989622868
  0
ARC
  5
18576
  8
0
 10
4506.7465079140310991
 20
977.5203231343417656
 30
0.0
 40
568.2994379393701365
 50
269.3310483127249881
 51
270.6689516872750119
  0
ARC
  5
18577
  8
0
 10
-14965.1023715636092675
 20
-4687.6403240420058864
 30
0.0
 40
20119.710983961889724
 50
14.6707414714276592
 51
14.6762091092483509
  0
LINE
  5
18578
  8
0
 10
4514.8215147166720271
 20
407.9428307803125904
 30
0.0
 11
4498.6689459898780115
 21
407.9428307803125904
 31
0.0
  0
LINE
  5
18579
  8
0
 10
4514.7953899241729232
 20
407.8640945228125929
 30
0.0
 11
4498.6950707823771154
 21
407.8640945228125929
 31
0.0
  0
ARC
  5
1857A
  8
0
 10
4417.5979744792666679
 20
385.8204248004715851
 30
0.0
 40
84.0309675781578136
 50
4.3771380916072218
 51
15.0668114479490693
  0
ARC
  5
1857B
  8
0
 10
4498.8950958883779094
 20
407.7040993652856855
 30
0.0
 40
0.1599951578584047
 50
89.9963111146803243
 51
194.5617831121876975
  0
LINE
  5
1857C
  8
0
 10
4498.6746717597516181
 20
407.9428307803125904
 30
0.0
 11
4498.6950707823771154
 21
407.8640945228125929
 31
0.0
  0
ARC
  5
1857D
  8
0
 10
4498.6689459898780115
 20
407.96251616830898
 30
0.0
 40
0.0196853879964628
 50
194.6677511928650972
 51
270.0001667734052262
  0
LINE
  5
1857E
  8
0
 10
4499.0286958987326216
 20
407.9428307803125904
 30
0.0
 11
4499.0286958741762646
 21
407.8640945228125929
 31
0.0
  0
LINE
  5
1857F
  8
0
 10
4499.5129474690766074
 20
407.922090765812527
 30
0.0
 11
4501.9129897226766843
 21
407.9220900541125161
 31
0.0
  0
LINE
  5
18580
  8
0
 10
4501.9129897226766843
 20
407.9220900541125161
 30
0.0
 11
4501.9379426939358382
 21
407.9428307803125904
 31
0.0
  0
LINE
  5
18581
  8
0
 10
4501.8144606927344284
 20
407.9428307803125904
 30
0.0
 11
4501.7993456580770726
 21
407.9220900878125917
 31
0.0
  0
LINE
  5
18582
  8
0
 10
4499.5129474690766074
 20
407.922090765812527
 30
0.0
 11
4499.4922074664646061
 21
407.9428307803125904
 31
0.0
  0
LINE
  5
18583
  8
0
 10
4502.1364547778703127
 20
407.9428307803125904
 30
0.0
 11
4502.192121284678251
 21
407.8871642405125044
 31
0.0
  0
ARC
  5
18584
  8
0
 10
4502.2477990008956112
 20
407.942841923808885
 30
0.0
 40
0.0787401581187904
 50
224.9999830604805027
 51
269.9968051383160059
  0
LINE
  5
18585
  8
0
 10
4503.5916767053704461
 20
407.9428307803125904
 30
0.0
 11
4503.5360097340771972
 21
407.887163842012626
 31
0.0
  0
ARC
  5
18586
  8
0
 10
4503.4803320512401115
 20
407.9428415577374949
 30
0.0
 40
0.0787401574447516
 50
270.0031605296031216
 51
314.9999830780267871
  0
ARC
  5
18587
  8
0
 10
4505.5567492384989237
 20
464.243820592062491
 30
0.0
 40
56.3810942380651667
 50
267.9576091959522159
 51
269.6008449741319168
  0
ARC
  5
18588
  8
0
 10
4514.1870036481932402
 20
410.1174463198756825
 30
0.0
 40
1.1793741283796511
 50
345.1357025604872888
 51
14.8642974395126899
  0
ARC
  5
18589
  8
0
 10
4513.4686817504871215
 20
409.8956402421263192
 30
0.0
 40
1.9307930496282559
 50
15.75790121071058
 51
46.870956448191329
  0
ARC
  5
1858A
  8
0
 10
4511.7625654106759612
 20
408.1309202076718066
 30
0.0
 40
4.3852603980372296
 50
46.3651727490888135
 51
64.9692612447021247
  0
ARC
  5
1858B
  8
0
 10
4509.6546119504473609
 20
403.3455589907139824
 30
0.0
 40
9.6137539881103642
 50
65.6530486472562842
 51
80.3248619408651336
  0
LINE
  5
1858C
  8
0
 10
4515.0826036345733883
 20
410.8488226150125229
 30
0.0
 11
4515.0826036345733883
 21
410.8488226173984117
 31
0.0
  0
ARC
  5
1858D
  8
0
 10
4515.0530489394641336
 20
410.6958187444773216
 30
0.0
 40
0.1558321674165214
 50
27.2897480038851015
 51
79.0672195747507942
  0
ARC
  5
1858E
  8
0
 10
4515.0358836974455699
 20
410.7383741136807203
 30
0.0
 40
0.150460962067283
 50
20.056413369059559
 51
80.6037977904094731
  0
ARC
  5
1858F
  8
0
 10
4514.7164580643639056
 20
409.9584581505324081
 30
0.0
 40
0.6271059825365133
 50
299.4236802413204828
 51
346.7664811013190729
  0
ARC
  5
18590
  8
0
 10
4514.4649456997231027
 20
410.7606389146739048
 30
0.0
 40
1.459901212276177
 50
272.098332370879973
 51
292.5385268075343106
  0
ARC
  5
18591
  8
0
 10
4513.3048009763497248
 20
426.7036148833720972
 30
0.0
 40
17.4441647611887483
 50
270.2518740126088801
 51
273.9893158749570716
  0
ARC
  5
18592
  8
0
 10
23978.5928322701583966
 20
-4687.6403240420058864
 30
0.0
 40
20119.710983961889724
 50
165.32379089075161
 51
165.3292585285722964
  0
ARC
  5
18593
  8
0
 10
4595.8924862272815517
 20
385.8204248004715851
 30
0.0
 40
84.0309675781578136
 50
164.9331885520508933
 51
175.6228619083927924
  0
ARC
  5
18594
  8
0
 10
4514.5953648181721292
 20
407.7040993652856855
 30
0.0
 40
0.1599951578584017
 50
345.4382168878091761
 51
90.0036888853718153
  0
LINE
  5
18595
  8
0
 10
4514.8157889467729547
 20
407.9428307802126028
 30
0.0
 11
4514.7953899241729232
 21
407.8640945228125929
 31
0.0
  0
ARC
  5
18596
  8
0
 10
4514.8215147166720271
 20
407.9625161683088095
 30
0.0
 40
0.0196853879962742
 50
269.999999999530985
 51
345.3322488073151248
  0
LINE
  5
18597
  8
0
 10
4514.461764807815598
 20
407.9428307803125904
 30
0.0
 11
4514.4617648323728645
 21
407.8640944443125136
 31
0.0
  0
LINE
  5
18598
  8
0
 10
4513.9775132374716122
 20
407.922090765812527
 30
0.0
 11
4511.5774709838724448
 21
407.9220900541125161
 31
0.0
  0
LINE
  5
18599
  8
0
 10
4511.5774709838724448
 20
407.9220900541125161
 30
0.0
 11
4511.5525180126132909
 21
407.9428307803125904
 31
0.0
  0
LINE
  5
1859A
  8
0
 10
4511.6760000138147007
 20
407.9428307803125904
 30
0.0
 11
4511.691115048471147
 21
407.9220900878125917
 31
0.0
  0
LINE
  5
1859B
  8
0
 10
4513.9775132374716122
 20
407.922090765812527
 30
0.0
 11
4513.9982532400854325
 21
407.9428307803125904
 31
0.0
  0
LINE
  5
1859C
  8
0
 10
4511.3540059286788164
 20
407.9428307803125904
 30
0.0
 11
4511.2983394218717876
 21
407.8871642405125044
 31
0.0
  0
ARC
  5
1859D
  8
0
 10
4511.2426617056544274
 20
407.942841923808885
 30
0.0
 40
0.0787401581187904
 50
270.0031948616839941
 51
315.0000169395195257
  0
LINE
  5
1859E
  8
0
 10
4509.898784001178683
 20
407.9428307803125904
 30
0.0
 11
4509.9544509724728414
 21
407.887163842012626
 31
0.0
  0
ARC
  5
1859F
  8
0
 10
4510.0101286553081081
 20
407.9428415577374949
 30
0.0
 40
0.0787401574447516
 50
225.0000169219732129
 51
269.9968394703968784
  0
ARC
  5
185A0
  8
0
 10
4507.9337114680511149
 20
464.243820592062491
 30
0.0
 40
56.3810942380651667
 50
270.3991550258680263
 51
272.0423908040477841
  0
ENDSEC
  0
EOF
