  0
SECTION
  2
HEADER
  9
$ACADVER
  1
AC1009
  9
$INSBASE
 10
479.9918061393917128
 20
1.3321658241482259
 30
0.0
  9
$EXTMIN
 10
441.9693382151588139
 20
1.328559608597458
 30
-0.0015258207003583
  9
$EXTMAX
 10
480.0189988634899123
 20
51.2786406979509621
 30
0.0000000349246037
  9
$LIMMIN
 10
0.0
 20
0.0
  9
$LIMMAX
 10
22.0
 20
17.0
  9
$ORTHOMODE
 70
     0
  9
$REGENMODE
 70
     1
  9
$FILLMODE
 70
     1
  9
$QTEXTMODE
 70
     0
  9
$MIRRTEXT
 70
     0
  9
$DRAGMODE
 70
     2
  9
$LTSCALE
 40
1.2099999999999991
  9
$OSMODE
 70
  2039
  9
$ATTMODE
 70
     1
  9
$TEXTSIZE
 40
0.2
  9
$TRACEWID
 40
0.05
  9
$TEXTSTYLE
  7
STANDARD
  9
$CLAYER
  8
0
  9
$CELTYPE
  6
BYLAYER
  9
$CECOLOR
 62
   256
  9
$DIMSCALE
 40
1.0
  9
$DIMASZ
 40
0.1875
  9
$DIMEXO
 40
0.0625
  9
$DIMDLI
 40
0.38
  9
$DIMRND
 40
0.0
  9
$DIMDLE
 40
0.0
  9
$DIMEXE
 40
0.125
  9
$DIMTP
 40
1.5
  9
$DIMTM
 40
1.5
  9
$DIMTXT
 40
1.5
  9
$DIMCEN
 40
0.09
  9
$DIMTSZ
 40
0.0
  9
$DIMTOL
 70
     0
  9
$DIMLIM
 70
     0
  9
$DIMTIH
 70
     1
  9
$DIMTOH
 70
     1
  9
$DIMSE1
 70
     0
  9
$DIMSE2
 70
     0
  9
$DIMTAD
 70
     0
  9
$DIMZIN
 70
     4
  9
$DIMBLK
  1

  9
$DIMASO
 70
     1
  9
$DIMSHO
 70
     1
  9
$DIMPOST
  1

  9
$DIMAPOST
  1

  9
$DIMALT
 70
     0
  9
$DIMALTD
 70
     2
  9
$DIMALTF
 40
25.3999999999999986
  9
$DIMLFAC
 40
1.0
  9
$DIMTOFL
 70
     0
  9
$DIMTVP
 40
0.0
  9
$DIMTIX
 70
     0
  9
$DIMSOXD
 70
     0
  9
$DIMSAH
 70
     0
  9
$DIMBLK1
  1

  9
$DIMBLK2
  1

  9
$DIMSTYLE
  2
STANDARD
  9
$DIMCLRD
 70
     0
  9
$DIMCLRE
 70
     0
  9
$DIMCLRT
 70
     0
  9
$DIMTFAC
 40
1.0
  9
$DIMGAP
 40
0.09
  9
$LUNITS
 70
     2
  9
$LUPREC
 70
     4
  9
$SKETCHINC
 40
0.1
  9
$FILLETRAD
 40
0.0
  9
$AUNITS
 70
     0
  9
$AUPREC
 70
     0
  9
$MENU
  1
.
  9
$ELEVATION
 40
0.0
  9
$PELEVATION
 40
0.0
  9
$THICKNESS
 40
0.0
  9
$LIMCHECK
 70
     0
  9
$BLIPMODE
 70
     0
  9
$CHAMFERA
 40
0.0
  9
$CHAMFERB
 40
0.0
  9
$SKPOLY
 70
     0
  9
$TDCREATE
 40
2457827.4934837957844138
  9
$TDUPDATE
 40
2459140.3952083331532776
  9
$TDINDWG
 40
0.3277548843
  9
$TDUSRTIMER
 40
0.3277548843
  9
$USRTIMER
 70
     1
  9
$ANGBASE
 50
0.0
  9
$ANGDIR
 70
     0
  9
$PDMODE
 70
     0
  9
$PDSIZE
 40
0.3125
  9
$PLINEWID
 40
0.0
  9
$COORDS
 70
     1
  9
$SPLFRAME
 70
     0
  9
$SPLINETYPE
 70
     6
  9
$SPLINESEGS
 70
     8
  9
$ATTDIA
 70
     1
  9
$ATTREQ
 70
     1
  9
$HANDLING
 70
     1
  9
$HANDSEED
  5
4BB8
  9
$SURFTAB1
 70
     6
  9
$SURFTAB2
 70
     6
  9
$SURFTYPE
 70
     6
  9
$SURFU
 70
     6
  9
$SURFV
 70
     6
  9
$UCSNAME
  2

  9
$UCSORG
 10
0.0
 20
0.0
 30
0.0
  9
$UCSXDIR
 10
1.0
 20
0.0
 30
0.0
  9
$UCSYDIR
 10
0.0
 20
1.0
 30
0.0
  9
$PUCSNAME
  2

  9
$PUCSORG
 10
0.0
 20
0.0
 30
0.0
  9
$PUCSXDIR
 10
1.0
 20
0.0
 30
0.0
  9
$PUCSYDIR
 10
0.0
 20
1.0
 30
0.0
  9
$USERI1
 70
     0
  9
$USERI2
 70
     0
  9
$USERI3
 70
     0
  9
$USERI4
 70
     0
  9
$USERI5
 70
     0
  9
$USERR1
 40
0.0
  9
$USERR2
 40
0.0
  9
$USERR3
 40
0.0
  9
$USERR4
 40
0.0
  9
$USERR5
 40
0.0
  9
$WORLDVIEW
 70
     1
  9
$SHADEDGE
 70
     3
  9
$SHADEDIF
 70
    70
  9
$TILEMODE
 70
     1
  9
$MAXACTVP
 70
    48
  9
$PLIMCHECK
 70
     0
  9
$PEXTMIN
 10
1.0000000000000000E+20
 20
1.0000000000000000E+20
 30
1.0000000000000000E+20
  9
$PEXTMAX
 10
-1.0000000000000000E+20
 20
-1.0000000000000000E+20
 30
-1.0000000000000000E+20
  9
$PLIMMIN
 10
0.0
 20
0.0
  9
$PLIMMAX
 10
12.0
 20
9.0
  9
$UNITMODE
 70
     0
  9
$VISRETAIN
 70
     1
  9
$PLINEGEN
 70
     0
  9
$PSLTSCALE
 70
     1
  0
ENDSEC
  0
SECTION
  2
TABLES
  0
TABLE
  2
VPORT
 70
     1
  0
VPORT
  2
*ACTIVE
 70
     0
 10
0.0
 20
0.0
 11
1.0
 21
1.0
 12
0.0009959062538201
 22
0.0002181118574214
 13
0.0
 23
0.0
 14
1.0
 24
1.0
 15
0.0
 25
0.0
 16
-0.0000000000000568
 26
0.0
 36
169.8168563224930949
 17
460.9931726330706283
 27
26.3033820414167891
 37
0.0
 40
50.3657544409986002
 41
2.6486111111111108
 42
50.0
 43
0.0
 44
0.0
 50
0.0
 51
0.0
 71
     0
 72
   100
 73
     1
 74
     1
 75
     0
 76
     0
 77
     0
 78
     0
  0
ENDTAB
  0
TABLE
  2
LTYPE
 70
     2
  0
LTYPE
  2
CONTINUOUS
 70
     0
  3
Solid line
 72
    65
 73
     0
 40
0.0
  0
LTYPE
  2
PHANTOM2
 70
     0
  3
___ _ _ ___ _ _ ___ _ _ ___ _ _
 72
    65
 73
     6
 40
1.25
 49
0.625
 49
-0.125
 49
0.125
 49
-0.125
 49
0.125
 49
-0.125
  0
ENDTAB
  0
TABLE
  2
LAYER
 70
     2
  0
LAYER
  2
0
 70
     0
 62
     7
  6
CONTINUOUS
  0
LAYER
  2
DEFPOINTS
 70
     0
 62
     7
  6
CONTINUOUS
  0
ENDTAB
  0
TABLE
  2
STYLE
 70
     1
  0
STYLE
  2
STANDARD
 70
     0
 40
0.0
 41
0.8
 50
0.0
 71
     0
 42
0.2
  3
txt
  4

  0
ENDTAB
  0
TABLE
  2
VIEW
 70
     0
  0
ENDTAB
  0
TABLE
  2
UCS
 70
     0
  0
ENDTAB
  0
TABLE
  2
APPID
 70
     8
  0
APPID
  2
ACAD
 70
     0
  0
APPID
  2
ACAD_MLEADERVER
 70
     0
  0
APPID
  2
ACAD_EXEMPT_FROM_CAD_STANDARDS
 70
     0
  0
APPID
  2
ACAD_NAV_VCDISPLAY
 70
     0
  0
APPID
  2
ACADANNOMONITORALERTICONDI
 70
     0
  0
APPID
  2
ACAD_DSTYLE_DIMJAG
 70
     0
  0
APPID
  2
ACAD_DSTYLE_DIMTALN
 70
     0
  0
APPID
  2
ACDBATTR
 70
     0
  0
ENDTAB
  0
TABLE
  2
DIMSTYLE
 70
     1
  0
DIMSTYLE
  2
STANDARD
 70
     0
  3

  4

  5

  6

  7

 40
1.0
 41
0.1875
 42
0.0625
 43
0.38
 44
0.125
 45
0.0
 46
0.0
 47
1.5
 48
1.5
140
1.5
141
0.09
142
0.0
143
25.3999999999999986
144
1.0
145
0.0
146
1.0
147
0.09
 71
     0
 72
     0
 73
     1
 74
     1
 75
     0
 76
     0
 77
     0
 78
     4
170
     0
171
     2
172
     0
173
     0
174
     0
175
     0
176
     0
177
     0
178
     0
  0
ENDTAB
  0
ENDSEC
  0
SECTION
  2
BLOCKS
  0
BLOCK
  8
0
  2
$MODEL_SPACE
 70
     0
 10
0.0
 20
0.0
 30
0.0
  3
$MODEL_SPACE
  1

  0
ENDBLK
  5
21
  8
0
  0
BLOCK
 67
     1
  8
0
  2
$PAPER_SPACE
 70
     0
 10
0.0
 20
0.0
 30
0.0
  3
$PAPER_SPACE
  1

  0
ENDBLK
  5
1D
 67
     1
  8
0
  0
BLOCK
  8
0
  2
_FILLED
 70
     0
 10
0.0
 20
0.0
 30
0.0
  3
_FILLED
  1

  0
SOLID
  5
468F
  8
0
  6
BYBLOCK
 62
     0
 10
0.0
 20
0.0
 30
0.0
 11
-1.0
 21
0.1666666667
 31
0.0
 12
-1.0
 22
-0.1666666667
 32
0.0
 13
-1.0
 23
-0.1666666667
 33
0.0
  0
ENDBLK
  5
4690
  8
0
  6
BYBLOCK
 62
     0
  0
ENDSEC
  0
SECTION
  2
ENTITIES
  0
ATTDEF
  5
4643
  8
DEFPOINTS
 10
479.9936825089826016
 20
1.333021689771051
 30
0.0
 40
0.001
  1
K-5402W
  3

  2
MODELNUMBER
 70
     0
1001
ACDBATTR
1070
     0
1070
     1
  0
ATTDEF
  5
4644
  8
DEFPOINTS
 10
479.9936825089826016
 20
1.331355023104372
 30
0.0
 40
0.001
  1
VEIL
  3

  2
TRADENAME
 70
     0
1001
ACDBATTR
1070
     0
1070
     1
  0
ATTDEF
  5
4645
  8
DEFPOINTS
 10
479.9936825089826016
 20
1.329688356437692
 30
0.0
 40
0.001
  1
TOILET
  3

  2
PRODUCT
 70
     0
1001
ACDBATTR
1070
     0
1070
     1
  0
ARC
  5
493A
  8
0
 10
444.6433759228701206
 20
14.0970713998134904
 30
0.0
 40
11.6536020373283993
 50
8.924499233168234
 51
30.7787385827114193
  0
ARC
  5
493B
  8
0
 10
387.8450352231901093
 20
3.2542748250794058
 30
0.0
 40
69.4723872056961369
 50
4.4077725644010997
 51
10.4918771697713797
  0
ARC
  5
493C
  8
0
 10
457.1936836187408062
 20
8.6034099007427862
 30
0.0
 40
0.0823326913214777
 50
186.895288668107213
 51
267.705456274905373
  0
ARC
  5
493D
  8
0
 10
454.8054881662480966
 20
20.15496497551894
 30
0.0
 40
0.1772008486408146
 50
90.0006534534382183
 51
212.2147522984616046
  0
LINE
  5
493E
  8
0
 10
454.8054861452876025
 20
20.3321658241482304
 30
0.0
 11
479.9918061393917128
 21
20.3321658241482304
 31
0.0
  0
LINE
  5
493F
  8
0
 10
479.9918061393917128
 20
20.3321658241482304
 30
0.0
 11
479.9918061393917128
 21
6.5526388170482077
 31
0.0
  0
LINE
  5
4940
  8
0
 10
479.9918061393917128
 20
6.5526388170482077
 30
0.0
 11
478.2595226189916957
 21
6.5526388170482122
 31
0.0
  0
LINE
  5
4941
  8
0
 10
478.0233021465916181
 20
6.7888592910482108
 30
0.0
 11
478.0233021153916866
 21
7.9035491586580227
 31
0.0
  0
ARC
  5
4942
  8
0
 10
478.2595226189916957
 20
6.7888592894481858
 30
0.0
 40
0.2362204723999639
 50
179.9999996119103969
 51
270.0000000000064801
  0
LINE
  5
4943
  8
0
 10
457.1903872944916998
 20
8.5211432227578321
 30
0.0
 11
479.9527016393657846
 21
8.5211437151837153
 31
0.0
  0
ARC
  5
4944
  8
0
 10
479.9525549282166139
 20
8.5603964871912304
 30
0.0
 40
0.0392530461803316
 50
270.2141476915385283
 51
359.4459852802909268
  0
ARC
  5
4945
  8
0
 10
469.1046184805023245
 20
10.0808256798548204
 30
0.0
 40
3.4182346758332578
 50
207.1475131098439135
 51
251.1220618604629067
  0
ARC
  5
4946
  8
0
 10
373.3182856700145749
 20
-302.3790065735331041
 30
0.0
 40
323.3956662410274134
 50
72.8570340204420859
 51
72.9761715961868589
  0
ARC
  5
4947
  8
0
 10
468.7374378945460194
 20
6.8295901204610336
 30
0.0
 40
0.2046036054807748
 50
242.0115354523591122
 51
251.7512504291617006
  0
ARC
  5
4948
  8
0
 10
468.9158030178323884
 20
7.3440814547664672
 30
0.0
 40
0.7491187126472726
 50
251.1175640348619993
 51
258.9177113928465133
  0
ARC
  5
4949
  8
0
 10
469.0354903209063764
 20
7.9207498279618562
 30
0.0
 40
1.338055899004853
 50
258.6347099504266112
 51
263.6953843514615983
  0
ARC
  5
494A
  8
0
 10
469.2115074751621933
 20
9.7018828273590145
 30
0.0
 40
3.1278141311903478
 50
264.0734993943369773
 51
268.563068608840581
  0
ARC
  5
494B
  8
0
 10
468.8969959425616025
 20
-2.2932039331332699
 30
0.0
 40
8.8713978959644937
 50
86.2319932623471317
 51
88.4751222603701422
  0
ARC
  5
494C
  8
0
 10
467.5222274120259272
 20
-74.3107615890540103
 30
0.0
 40
80.8934726352019169
 50
88.3604928291674838
 51
88.6132034978591463
  0
ARC
  5
494D
  8
0
 10
469.717788420597401
 20
10.5540447349534894
 30
0.0
 40
4.0062134997443106
 50
271.7003463465849791
 51
275.4544857192861969
  0
ARC
  5
494E
  8
0
 10
469.96019083169341
 20
7.6613728629999249
 30
0.0
 40
1.1041111632225611
 50
277.2013815306921742
 51
286.0982091412304271
  0
ARC
  5
494F
  8
0
 10
470.1546106462753869
 20
6.9676492059577022
 30
0.0
 40
0.383719872514289
 50
286.9211216032986158
 51
293.1970437848070219
  0
ARC
  5
4950
  8
0
 10
470.5569459250755813
 20
9.827604413591672
 30
0.0
 40
2.636188490411091
 50
318.0370681792475125
 51
330.2915320972844029
  0
ARC
  5
4951
  8
0
 10
469.387191619607222
 20
10.3546084616145802
 30
0.0
 40
3.8780618629557968
 50
308.6574303006527771
 51
323.8130845845577142
  0
ARC
  5
4952
  8
0
 10
469.6146134236723242
 20
10.0322909369704991
 30
0.0
 40
3.4843848241035489
 50
290.8749334990682769
 51
309.0479228604245918
  0
ARC
  5
4953
  8
0
 10
484.1254752880375918
 20
-39.4202255339845919
 30
0.0
 40
48.0647700239598308
 50
106.0258296878329958
 51
106.7097104380118964
  0
CIRCLE
  5
4954
  8
0
 10
473.2345542667916902
 20
20.7300933984482114
 30
0.0
 40
0.0846456693
  0
CIRCLE
  5
4955
  8
0
 10
473.2345542667916902
 20
20.7300933984482114
 30
0.0
 40
0.2070274396660018
  0
CIRCLE
  5
4956
  8
0
 10
477.9589637000917151
 20
20.7300934947482105
 30
0.0
 40
0.0846456693
  0
CIRCLE
  5
4957
  8
0
 10
477.9589637000917151
 20
20.7300934947482105
 30
0.0
 40
0.2070274396660018
  0
ARC
  5
4958
  8
0
 10
473.7364344370325853
 20
22.2380146600181092
 30
0.0
 40
0.1301781740331314
 50
91.3875286482655724
 51
178.8414576957393081
  0
ARC
  5
4959
  8
0
 10
473.7373410611272107
 20
20.7672674687526602
 30
0.0
 40
0.1311708197522698
 50
181.584624660681186
 51
268.4193271028892127
  0
LINE
  5
495A
  8
0
 10
473.6062204047917135
 20
20.7636401506482109
 30
0.0
 11
473.6062828746560172
 21
22.2406467325012898
 31
0.0
  0
LINE
  5
495B
  8
0
 10
473.7332822276916886
 20
22.3681546637482107
 30
0.0
 11
475.7448915799174074
 21
22.379177880706461
 31
0.0
  0
ARC
  5
495C
  8
0
 10
475.7421424587652155
 20
22.2481168062781016
 30
0.0
 40
0.1310899038728911
 50
359.3391621606074864
 51
88.7983469163797849
  0
ARC
  5
495D
  8
0
 10
473.7866659423157216
 20
22.19003168863917
 30
0.0
 40
0.1112386340702705
 50
90.4582080753584279
 51
179.4966574636929124
  0
ARC
  5
495E
  8
0
 10
473.7837373627493207
 20
20.7531485680038905
 30
0.0
 40
0.1099176834715342
 50
180.0361795967122021
 51
264.3551426024649231
  0
LINE
  5
495F
  8
0
 10
473.7337227865916134
 20
20.636146562548209
 30
0.0
 11
475.7725204812301172
 21
20.6365632483712389
 31
0.0
  0
LINE
  5
4960
  8
0
 10
473.7729256348919193
 20
20.6437639087481806
 30
0.0
 11
475.7964056765794112
 21
20.6458338566665986
 31
0.0
  0
ARC
  5
4961
  8
0
 10
475.7623544318058748
 20
20.7940082858580411
 30
0.0
 40
0.1577729013174183
 50
273.6943957443789941
 51
294.3977456904830206
  0
ARC
  5
4962
  8
0
 10
475.796292904428185
 20
20.7566918734354893
 30
0.0
 40
0.1108580781350352
 50
269.6976174689585264
 51
0.6060331121498543
  0
LINE
  5
4963
  8
0
 10
475.9071447812917199
 20
20.7578644277482098
 30
0.0
 11
475.8818558686112965
 21
22.1959385373057607
 31
0.0
  0
ARC
  5
4964
  8
0
 10
475.7698724470799903
 20
22.2029662268742101
 30
0.0
 40
0.1122037215000208
 50
356.4090256706670061
 51
90.5987906550187745
  0
LINE
  5
4965
  8
0
 10
475.768699842091678
 20
22.3151638209482108
 30
0.0
 11
473.7857763497917176
 21
22.3012667655482097
 31
0.0
  0
LINE
  5
4966
  8
0
 10
473.6754316006915815
 20
22.1910089057482089
 30
0.0
 11
473.6738201048917176
 21
20.753080387248211
 31
0.0
  0
LINE
  5
4967
  8
0
 10
473.7072827792326279
 20
22.267956954944399
 30
0.0
 11
473.6442008096440759
 21
22.3298804043048804
 31
0.0
  0
LINE
  5
4968
  8
0
 10
470.7004699932916196
 20
8.5888480642482108
 30
0.0
 11
470.700446487691579
 21
18.9684294599482115
 31
0.0
  0
ARC
  5
4969
  8
0
 10
471.0490316894790226
 20
19.0010632216626689
 30
0.0
 40
0.3501094190517507
 50
82.176332073157397
 51
185.3483135101820949
  0
LINE
  5
496A
  8
0
 10
471.0966909046172191
 20
19.3479132167478909
 30
0.0
 11
479.9918061393917128
 21
19.3479132167478909
 31
0.0
  0
ARC
  5
496B
  8
0
 10
471.2556396795936848
 20
18.7948705982658311
 30
0.0
 40
0.3976961642877913
 50
84.0634111100589081
 51
179.7316666981766105
  0
LINE
  5
496C
  8
0
 10
470.8579478766916964
 20
18.7967331217482112
 30
0.0
 11
470.8579478336583861
 21
8.5211442842513812
 31
0.0
  0
ARC
  5
496D
  8
0
 10
470.7583927456266224
 20
8.5937368951607951
 30
0.0
 40
0.0581287012219633
 50
184.8244782540452888
 51
239.9617538001658943
  0
ARC
  5
496E
  8
0
 10
470.7879650247868994
 20
8.6299373323442392
 30
0.0
 40
0.1045382444163414
 50
235.8589457874610957
 51
250.805350428735693
  0
ARC
  5
496F
  8
0
 10
470.8129364181671122
 20
8.705207219517046
 30
0.0
 40
0.183837399499232
 50
251.1681180411173955
 51
263.9886261972307011
  0
ARC
  5
4970
  8
0
 10
470.7511560505158172
 20
7.6565097751129576
 30
0.0
 40
0.8669147034589476
 50
85.8434690845747355
 51
87.1881357581456342
  0
LINE
  5
4971
  8
0
 10
471.2967724909448748
 20
19.1904339066243992
 30
0.0
 11
479.9918061393917128
 21
19.1904339066243992
 31
0.0
  0
LINE
  5
4972
  8
0
 10
479.9918061393917128
 20
51.2770757263958927
 30
0.0
 11
479.657158602323193
 21
51.2770757263958927
 31
0.0
  0
ARC
  5
4973
  8
0
 10
479.6571706602557015
 20
51.2376964855568175
 30
0.0
 40
0.0393792426851282
 50
90.0175439801587345
 51
179.9869559930581886
  0
LINE
  5
4974
  8
0
 10
479.6177914185910822
 20
51.2377054506673986
 30
0.0
 11
479.6164548604911033
 21
49.4426423579693406
 31
0.0
  0
ARC
  5
4975
  8
0
 10
477.143332156766121
 20
49.452744860318731
 30
0.0
 40
2.4731433375835228
 50
342.8908316589038918
 51
359.7659527662179926
  0
ARC
  5
4976
  8
0
 10
482.1039840169851232
 20
47.9527384413679272
 30
0.0
 40
2.7093938899002521
 50
163.4357009885873993
 51
178.9163836766813063
  0
ARC
  5
4977
  8
0
 10
487.4427378650938181
 20
47.6115131569649819
 30
0.0
 40
8.0572272481991654
 50
177.2080421828113117
 51
181.6152611681883116
  0
ARC
  5
4978
  8
0
 10
488.566748333055898
 20
47.7331795167611617
 30
0.0
 40
9.1846609220895399
 50
182.1762999881532892
 51
184.7576374678390891
  0
ARC
  5
4979
  8
0
 10
481.3619537164772737
 20
47.1430768898308301
 30
0.0
 40
1.9557701078826359
 50
185.0360600424272093
 51
190.685849684053494
  0
ARC
  5
497A
  8
0
 10
481.7186897524454139
 20
47.1882658950025871
 30
0.0
 40
2.3148010810705841
 50
190.147685861216786
 51
194.9879890161425919
  0
ARC
  5
497B
  8
0
 10
480.302194810816502
 20
46.7833829060688373
 30
0.0
 40
0.8421504157268136
 50
193.3018424518043901
 51
200.2192400846188036
  0
ARC
  5
497C
  8
0
 10
478.827649879764806
 20
46.2166550907171185
 30
0.0
 40
0.7377309030845907
 50
12.3249029081734598
 51
21.9422602126752402
  0
ARC
  5
497D
  8
0
 10
471.9956671455589117
 20
44.8943724504563519
 30
0.0
 40
7.6963055716570272
 50
9.3469480918873185
 51
11.0851846076117102
  0
ARC
  5
497E
  8
0
 10
476.688747152486485
 20
45.740288898062289
 30
0.0
 40
2.9290451044046519
 50
359.9564072561171884
 51
7.9291836337453621
  0
LINE
  5
497F
  8
0
 10
479.6177914091189223
 20
45.7380603726486612
 30
0.0
 11
479.6177914188911018
 21
45.4109339874081996
 31
0.0
  0
ARC
  5
4980
  8
0
 10
479.6571614977618196
 20
45.4109339940400432
 30
0.0
 40
0.0393700788706962
 50
180.0000335112636947
 51
269.9999997515776045
  0
LINE
  5
4981
  8
0
 10
479.6571614977618196
 20
45.3715639151693324
 30
0.0
 11
479.9918061393917128
 21
45.3715639151693324
 31
0.0
  0
LINE
  5
4982
  8
0
 10
479.9918061393917128
 20
45.3715639151693324
 30
0.0
 11
479.9918061393917128
 21
51.2770757263958927
 31
0.0
  0
LINE
  5
4983
  8
0
 10
479.6148520452911157
 20
45.8613530464693326
 30
0.0
 11
479.614460027348116
 21
49.3529199362427775
 31
0.0
  0
LINE
  5
4984
  8
0
 10
476.2362039630079948
 20
8.2261634601469282
 30
0.0
 11
477.8418964255918127
 21
8.0997927227482087
 31
0.0
  0
ARC
  5
4985
  8
0
 10
477.8264517217488105
 20
7.9035491531705233
 30
0.0
 40
0.1968503936429471
 50
0.0000015972043344
 51
85.5000000104963931
  0
ARC
  5
4986
  8
0
 10
476.2516486739122001
 20
8.4224070441042471
 30
0.0
 40
0.1968504085322809
 50
179.9993716122910996
 51
265.4999982852054927
  0
LINE
  5
4987
  8
0
 10
476.0547982653918098
 20
8.4224092030482076
 30
0.0
 11
476.0547982653918098
 21
8.5211436308588731
 31
0.0
  0
LINE
  5
4988
  8
0
 10
478.0233021153916866
 20
7.9035491517261738
 30
0.0
 11
478.0230725142416759
 21
8.4035683690482088
 31
0.0
  0
ARC
  5
4989
  8
0
 10
477.8888640603295812
 20
8.3859148543478526
 30
0.0
 40
0.1353645288942067
 50
7.4935527397345307
 51
87.4259613951245029
  0
ARC
  5
498A
  8
0
 10
454.4799422707408212
 20
20.4102577262336204
 30
0.0
 40
0.0218681029710086
 50
218.3016706729044927
 51
267.1749773836696136
  0
LINE
  5
498B
  8
0
 10
454.4627810954680172
 20
20.3967038341429898
 30
0.0
 11
453.5129350041707994
 21
21.6646454914890398
 31
0.0
  0
ARC
  5
498C
  8
0
 10
453.6264037940979961
 20
21.7482898624497594
 30
0.0
 40
0.1409664750248747
 50
81.4435434434534358
 51
216.3960624728192954
  0
ARC
  5
498D
  8
0
 10
449.2581339344325215
 20
248.5422453919555039
 30
0.0
 40
226.6970536676813026
 50
271.1094137886568092
 51
271.9449445904602953
  0
ARC
  5
498E
  8
0
 10
454.2265276791844144
 20
111.3120813197300976
 30
0.0
 40
89.3778555534118624
 50
271.7474659016538112
 51
281.1720989508356183
  0
ARC
  5
498F
  8
0
 10
455.0673832494849762
 20
106.0691653374306043
 30
0.0
 40
84.0715902528201156
 50
281.3022192411914943
 51
282.5536076477260963
  0
ARC
  5
4990
  8
0
 10
473.3458353939612948
 20
23.9887755112597389
 30
0.0
 40
0.0194141442844067
 50
343.6448044324960165
 51
105.6655515401432979
  0
ARC
  5
4991
  8
0
 10
52.335011000597369
 20
135.3206023906342921
 30
0.0
 40
435.5017717683285241
 50
345.0609734812949796
 51
345.1877236383140826
  0
ARC
  5
4992
  8
0
 10
472.8127278875065258
 20
23.1330346831353388
 30
0.0
 40
0.3149606414859449
 50
322.1242876467202905
 51
345.1243456325383931
  0
ARC
  5
4993
  8
0
 10
47219.4662742092914414
 20
-36337.0216693558832048
 30
0.0
 40
59222.2353718246886274
 50
142.1237590454379074
 51
142.1260042570459916
  0
ARC
  5
4994
  8
0
 10
470.0680479754565226
 20
22.3825524009712602
 30
0.0
 40
2.0211854076197171
 50
285.8461668852311846
 51
320.8991427086564272
  0
ARC
  5
4995
  8
0
 10
470.5124415727680116
 20
20.8169149845429615
 30
0.0
 40
0.3937007873999701
 50
270.1243461908005088
 51
285.8461662452991163
  0
LINE
  5
4996
  8
0
 10
470.5132960014050241
 20
20.4232151243054112
 30
0.0
 11
454.4788637652678744
 21
20.38841631174299
 31
0.0
  0
LINE
  5
4997
  8
0
 10
473.3901390015680022
 20
23.9876101564429902
 30
0.0
 11
473.2162366319681155
 21
23.3338767380429886
 31
0.0
  0
LINE
  5
4998
  8
0
 10
473.2162366319681155
 20
23.3338767380429886
 30
0.0
 11
473.1144318392932178
 21
22.9586567751501001
 31
0.0
  0
ARC
  5
4999
  8
0
 10
472.8056526875628265
 20
23.0424348270475292
 30
0.0
 40
0.319942692560961
 50
322.1827041991497822
 51
344.8199407512937
  0
LINE
  5
499A
  8
0
 10
473.0583978032678942
 20
22.8462633892429885
 30
0.0
 11
471.7708752745680272
 21
21.1983091476429912
 31
0.0
  0
ARC
  5
499B
  8
0
 10
469.7706923254859248
 20
22.7610448254121813
 30
0.0
 40
2.538281826033435
 50
295.0087288348531729
 51
321.9996177596340772
  0
ARC
  5
499C
  8
0
 10
470.8595569629579813
 20
20.4256087196363012
 30
0.0
 40
0.0385199718721189
 50
114.1995179479982028
 51
180.8075716403695026
  0
LINE
  5
499D
  8
0
 10
470.8210408172678854
 20
20.4250658069268916
 30
0.0
 11
470.8210409381679824
 21
20.3321679747429904
 31
0.0
  0
LINE
  5
499E
  8
0
 10
470.8210409381679824
 20
20.3321679747429904
 30
0.0
 11
479.5587281482916069
 21
20.3321682588482098
 31
0.0
  0
ARC
  5
499F
  8
0
 10
343.5218197682855816
 20
20.0213173221675618
 30
0.0
 40
136.0372635342793899
 50
0.1309234085287356
 51
2.3093734781475921
  0
ARC
  5
49A0
  8
0
 10
479.3107453480927234
 20
25.4968585042119216
 30
0.0
 40
0.137986285221402
 50
2.5401528572753889
 51
106.0647055536678067
  0
ARC
  5
49A1
  8
0
 10
460.843177744780121
 20
81.0546801296121373
 30
0.0
 40
58.4088829528537588
 50
282.4341252871370784
 51
288.3924286596815136
  0
ARC
  5
49A2
  8
0
 10
473.4294747398193977
 20
23.9760615198522693
 30
0.0
 40
0.0409693497038397
 50
103.9431171180539053
 51
163.6375345560956873
  0
ARC
  5
49A3
  8
0
 10
472.8693950299680751
 20
22.7348921072431196
 30
0.0
 40
0.1968503936998195
 50
27.9042857840446388
 51
44.5736986943957305
  0
LINE
  5
49A4
  8
0
 10
472.9081585482608148
 20
22.7427211668351106
 30
0.0
 11
472.9283192239481082
 21
22.6797703440705298
 31
0.0
  0
LINE
  5
49A5
  8
0
 10
456.3051085929315036
 20
20.3923797293754312
 30
0.0
 11
456.561238782211376
 21
20.3321658241482304
 31
0.0
  0
LINE
  5
49A6
  8
0
 10
457.346725530167987
 20
20.3946403141429897
 30
0.0
 11
457.3861331966281227
 21
20.3552326494429892
 31
0.0
  0
ARC
  5
49A7
  8
0
 10
457.4418271537792862
 20
20.4109346833564693
 30
0.0
 40
0.0787688608859325
 50
225.0041542283661045
 51
269.9881746049779281
  0
ARC
  5
49A8
  8
0
 10
458.0226935163537973
 20
20.3832060692540793
 30
0.0
 40
0.0513101358977461
 50
275.8792324414517907
 51
326.9628408913898738
  0
LINE
  5
49A9
  8
0
 10
458.0657076840976174
 20
20.355232663684621
 30
0.0
 11
458.092382312574216
 21
20.3962585697516694
 31
0.0
  0
LINE
  5
49AA
  8
0
 10
469.7776922878456958
 20
20.4216186764005982
 30
0.0
 11
469.7446307646608261
 21
20.3321658241482304
 31
0.0
  0
LINE
  5
49AB
  8
0
 10
469.5850338807003936
 20
20.4212005584591516
 30
0.0
 11
469.4488336716905792
 21
20.3321658241482304
 31
0.0
  0
LINE
  5
49AD
  8
0
 10
446.4190040165469213
 20
41.3206926512094199
 30
0.0
 11
443.0686103003906169
 21
41.3206925405094196
 31
0.0
  0
LINE
  5
49AE
  8
0
 10
441.9819960904916911
 20
40.1657887548922403
 30
0.0
 11
441.9819960904916911
 21
39.538332918148221
 31
0.0
  0
ARC
  5
49AF
  8
0
 10
444.507745454246276
 20
39.5412178181971825
 30
0.0
 40
2.5257510113142621
 50
180.0654429642204093
 51
193.3302701988077104
  0
ARC
  5
49B0
  8
0
 10
443.1525981090875916
 20
39.2560477770725171
 30
0.0
 40
1.141900554017196
 50
195.0847521105308999
 51
221.2868028862503991
  0
ARC
  5
49B1
  8
0
 10
443.0306103841037952
 20
39.2824306456858494
 30
0.0
 40
1.0723476267292169
 50
226.6545317276064964
 51
244.4973850489450058
  0
ARC
  5
49B2
  8
0
 10
443.0118731532912193
 20
39.2804042338305308
 30
0.0
 40
1.062572358219029
 50
245.3622747491237988
 51
263.0779858430103104
  0
LINE
  5
49B3
  8
0
 10
442.8838137744261871
 20
38.2255768489301104
 30
0.0
 11
446.6518082779286942
 21
38.2255768489301104
 31
0.0
  0
LINE
  5
49B4
  8
0
 10
446.4190039992917036
 20
41.3461064984094193
 30
0.0
 11
443.0686102980916985
 21
41.3461064984094193
 31
0.0
  0
ARC
  5
49B5
  8
0
 10
443.7557480393967921
 20
9.1323664979274497
 30
0.0
 40
32.2210676901647517
 50
91.2219668719897641
 51
91.6917073573575152
  0
ARC
  5
49B6
  8
0
 10
442.8316194724804973
 20
40.5206774564931322
 30
0.0
 40
0.8191609623637178
 50
91.8950049921553358
 51
124.1785744887150997
  0
ARC
  5
49B7
  8
0
 10
442.9299049207480721
 20
40.5241874184017732
 30
0.0
 40
0.8754418303779411
 50
129.6374859100972117
 51
152.4263969128851954
  0
ARC
  5
49B8
  8
0
 10
443.2715999669889015
 20
40.3346289940495595
 30
0.0
 40
1.2661087722498441
 50
151.9801317990362008
 51
166.5367472719499915
  0
ARC
  5
49B9
  8
0
 10
444.2311323556623961
 20
40.1184885385486325
 30
0.0
 40
2.2496335812243031
 50
166.872917371890793
 51
178.7952249156905964
  0
ARC
  5
49BA
  8
0
 10
442.9958658448787787
 20
39.3893118659929868
 30
0.0
 40
1.9327501301818071
 50
87.8430036516863169
 51
100.9006101953963963
  0
ARC
  5
49BB
  8
0
 10
442.7396161210747891
 20
40.7199214971127788
 30
0.0
 40
0.5776907545903047
 50
100.9006101953963963
 51
134.9513323748537914
  0
ARC
  5
49BC
  8
0
 10
442.9400718304726752
 20
40.5191249598425927
 30
0.0
 40
0.8614190415302758
 50
134.9513323748537914
 51
155.1489311638162008
  0
ARC
  5
49BD
  8
0
 10
443.4244107516095141
 20
40.2948048728787569
 30
0.0
 40
1.39518274575101
 50
155.1489311638162008
 51
168.5309171483411035
  0
ARC
  5
49BE
  8
0
 10
444.4568477678320733
 20
40.0853332938643234
 30
0.0
 40
2.4486553533120521
 50
168.5309171483411035
 51
183.6885674993187934
  0
ARC
  5
49BF
  8
0
 10
443.7629469623273053
 20
39.993179011432801
 30
0.0
 40
1.750903023684153
 50
182.1398172227146972
 51
202.3246194291834001
  0
ARC
  5
49C0
  8
0
 10
443.0408351984186197
 20
39.7346021932934335
 30
0.0
 40
0.9853200716320433
 50
204.3661658283791098
 51
226.473532757618301
  0
ARC
  5
49C1
  8
0
 10
442.7550712502729198
 20
39.4893897447268216
 30
0.0
 40
0.6119255802899839
 50
230.0638294334191016
 51
247.3773449280029126
  0
ARC
  5
49C2
  8
0
 10
442.7879534003618005
 20
39.5682960817068121
 30
0.0
 40
0.6974091799454877
 50
247.377344928002799
 51
263.0451916749378256
  0
ARC
  5
49C3
  8
0
 10
443.0238094275136973
 20
41.5017957224196579
 30
0.0
 40
2.645241032591044
 50
263.0451916749378256
 51
270.9704334849021734
  0
LINE
  5
49C4
  8
0
 10
443.0686104191906907
 20
38.8569341019094168
 30
0.0
 11
446.4190041171892744
 21
38.8569320706479786
 31
0.0
  0
LINE
  5
49C5
  8
0
 10
446.4189596090906207
 20
38.796108702309418
 30
0.0
 11
443.0686602216907204
 21
38.7961085959094234
 31
0.0
  0
ARC
  5
49C6
  8
0
 10
443.0686601181183164
 20
42.0573716686528414
 30
0.0
 40
3.2612630727434229
 50
263.0363846457826185
 51
270.0000018196200813
  0
ARC
  5
49C7
  8
0
 10
442.7470678402386852
 20
39.4243909615489017
 30
0.0
 40
0.6087154299717835
 50
234.023660578101186
 51
263.0363846457826185
  0
ARC
  5
49C8
  8
0
 10
442.7993086428563743
 20
39.4963567350652625
 30
0.0
 40
0.6976433446890252
 50
210.5004559780157933
 51
234.023660578101186
  0
ARC
  5
49C9
  8
0
 10
443.6236718728027881
 20
39.9819526243099617
 30
0.0
 40
1.654397285124567
 50
201.766906268715303
 51
210.5004559780157933
  0
ARC
  5
49CA
  8
0
 10
443.0043274120778278
 20
39.7346473764239434
 30
0.0
 40
0.9875034055135417
 50
189.7007472176935039
 51
201.766906268715303
  0
ARC
  5
49CB
  8
0
 10
447.2386884320852118
 20
40.4584967962374122
 30
0.0
 40
5.2832886923175684
 50
187.1345870135494067
 51
189.7007472176935039
  0
ARC
  5
49CC
  8
0
 10
444.2711914028865863
 20
40.0870562223762974
 30
0.0
 40
2.2926354663128801
 50
183.1391595147462965
 51
187.1345870135494067
  0
ARC
  5
49CD
  8
0
 10
442.7779877400125201
 20
38.6132588045101528
 30
0.0
 40
0.2318982152831287
 50
116.8449248650650958
 51
269.8731668130291723
  0
LINE
  5
49CE
  8
0
 10
442.7774743973906197
 20
38.3813611574094224
 30
0.0
 11
446.7080986245906047
 21
38.3813606904094229
 31
0.0
  0
LINE
  5
49CF
  8
0
 10
447.5035769314895902
 20
40.1657887548922403
 30
0.0
 11
447.5035769314895902
 21
39.538332918148221
 31
0.0
  0
ARC
  5
49D0
  8
0
 10
444.9778275677350052
 20
39.5412178181971825
 30
0.0
 40
2.5257510113142621
 50
346.6697298011919202
 51
359.9345570357796191
  0
ARC
  5
49D1
  8
0
 10
445.6503135685942993
 20
6.2392697013018292
 30
0.0
 40
35.1152513144501626
 50
88.3179716058017732
 51
88.7456665112126757
  0
ARC
  5
49D2
  8
0
 10
446.653953549500784
 20
40.5206774564931322
 30
0.0
 40
0.8191609623637178
 50
55.8214255112848292
 51
88.1049950078446642
  0
ARC
  5
49D3
  8
0
 10
446.5556681012332092
 20
40.5241874184017732
 30
0.0
 40
0.8754418303779411
 50
27.573603087114769
 51
50.3625140899028096
  0
ARC
  5
49D4
  8
0
 10
446.2139730549923229
 20
40.3346289940495595
 30
0.0
 40
1.2661087722498441
 50
13.4632527280499499
 51
28.0198682009637601
  0
ARC
  5
49D5
  8
0
 10
445.2544406663188283
 20
40.1184885385486325
 30
0.0
 40
2.2496335812243031
 50
1.2047750843093721
 51
13.1270826281087594
  0
ARC
  5
49D6
  8
0
 10
446.4904918981226842
 20
39.3951648589863268
 30
0.0
 40
1.92685437847174
 50
79.0893905801005843
 51
92.1262084925593712
  0
ARC
  5
49D7
  8
0
 10
446.7459569009063785
 20
40.7199214971127788
 30
0.0
 40
0.5776907545903047
 50
45.0486676251461589
 51
79.0993898046036179
  0
ARC
  5
49D8
  8
0
 10
446.5455011915087198
 20
40.5191249598425927
 30
0.0
 40
0.8614190415302758
 50
24.8510688361838206
 51
45.0486676251461589
  0
ARC
  5
49D9
  8
0
 10
446.061162270371824
 20
40.2948048728787569
 30
0.0
 40
1.39518274575101
 50
11.4690828516585004
 51
24.8510688361838206
  0
ARC
  5
49DA
  8
0
 10
445.028725254149208
 20
40.0853332938643234
 30
0.0
 40
2.4486553533120521
 50
356.3114325006811214
 51
11.4690828516589001
  0
ARC
  5
49DB
  8
0
 10
445.7226260596539191
 20
39.993179011432801
 30
0.0
 40
1.750903023684153
 50
337.6753805708166283
 51
357.8601827772852744
  0
ARC
  5
49DC
  8
0
 10
446.444737823562491
 20
39.7346021932934335
 30
0.0
 40
0.9853200716320433
 50
313.5264672423816137
 51
335.633834171620606
  0
ARC
  5
49DD
  8
0
 10
446.7305017717083047
 20
39.4893897447268216
 30
0.0
 40
0.6119255802899839
 50
292.6226550719970874
 51
309.9361705665809268
  0
ARC
  5
49DE
  8
0
 10
446.6976196216194808
 20
39.5682960817068121
 30
0.0
 40
0.6974091799454877
 50
276.9548083250621744
 51
292.622655071997201
  0
ARC
  5
49DF
  8
0
 10
446.4623480402127029
 20
41.4950796992770279
 30
0.0
 40
2.6385036680103742
 50
269.0587333278223241
 51
276.9598695856715267
  0
ARC
  5
49E0
  8
0
 10
446.4168994778827937
 20
42.0575185502722491
 30
0.0
 40
3.261410498623186
 50
270.0361919578498942
 51
276.9635366357142061
  0
ARC
  5
49E1
  8
0
 10
446.7385051817425961
 20
39.4243909615489017
 30
0.0
 40
0.6087154299717835
 50
276.9636153542173815
 51
305.9763394218986718
  0
ARC
  5
49E2
  8
0
 10
446.6862643791247933
 20
39.4963567350652625
 30
0.0
 40
0.6976433446890252
 50
305.9763394218986718
 51
329.4995440219839224
  0
ARC
  5
49E3
  8
0
 10
445.8619011491783795
 20
39.9819526243099617
 30
0.0
 40
1.654397285124567
 50
329.4995440219839224
 51
338.2330937312846117
  0
ARC
  5
49E4
  8
0
 10
446.4812456099033966
 20
39.7346473764239434
 30
0.0
 40
0.9875034055135417
 50
338.2330937312846117
 51
350.2992527823063824
  0
ARC
  5
49E5
  8
0
 10
442.2468845898960126
 20
40.4584967962374122
 30
0.0
 40
5.2832886923175684
 50
350.2992527823063824
 51
352.865412986450508
  0
ARC
  5
49E6
  8
0
 10
445.2143816190945813
 20
40.0870562223762974
 30
0.0
 40
2.2926354663128801
 50
352.865412986450508
 51
356.8608404852536751
  0
ARC
  5
49E7
  8
0
 10
446.7075849302142956
 20
38.6132586412459631
 30
0.0
 40
0.2318985197971274
 50
270.1269199295488761
 51
63.1550158077959907
  0
ARC
  5
49E8
  8
0
 10
446.4321143920936947
 20
39.1169332213050467
 30
0.0
 40
1.015786440230759
 50
322.7857993363211904
 51
351.0480666257606117
  0
ARC
  5
49E9
  8
0
 10
446.5050116682511998
 20
39.2824306456858494
 30
0.0
 40
1.0723476267292169
 50
295.5026149510550795
 51
313.3454682723935889
  0
ARC
  5
49EA
  8
0
 10
446.5237488990637189
 20
39.2804042338305308
 30
0.0
 40
1.062572358219029
 50
276.9220141569896896
 51
294.6377252508762012
  0
ENDSEC
  0
EOF
