  0
SECTION
  2
HEADER
  9
$ACADVER
  1
AC1009
  9
$INSBASE
 10
456.4211918176301879
 20
67.5189096143257643
 30
0.0
  9
$EXTMIN
 10
433.9852723558439038
 20
65.9978497566897317
 30
-0.0015258207003583
  9
$EXTMAX
 10
456.4461146649912848
 20
119.2941437527256028
 30
0.0000000349246037
  9
$LIMMIN
 10
0.0
 20
0.0
  9
$LIMMAX
 10
11.6929133858000007
 20
8.2677165353999982
  9
$ORTHOMODE
 70
     0
  9
$REGENMODE
 70
     1
  9
$FILLMODE
 70
     1
  9
$QTEXTMODE
 70
     0
  9
$MIRRTEXT
 70
     0
  9
$DRAGMODE
 70
     2
  9
$LTSCALE
 40
0.6431102362
  9
$OSMODE
 70
  2047
  9
$ATTMODE
 70
     1
  9
$TEXTSIZE
 40
0.2
  9
$TRACEWID
 40
0.05
  9
$TEXTSTYLE
  7
STANDARD
  9
$CLAYER
  8
0
  9
$CELTYPE
  6
BYLAYER
  9
$CECOLOR
 62
   256
  9
$DIMSCALE
 40
1.0
  9
$DIMASZ
 40
0.1875
  9
$DIMEXO
 40
0.0625
  9
$DIMDLI
 40
0.4443307087
  9
$DIMRND
 40
0.0
  9
$DIMDLE
 40
0.0
  9
$DIMEXE
 40
0.125
  9
$DIMTP
 40
0.01
  9
$DIMTM
 40
0.01
  9
$DIMTXT
 40
1.0
  9
$DIMCEN
 40
0.1052362205
  9
$DIMTSZ
 40
0.0
  9
$DIMTOL
 70
     1
  9
$DIMLIM
 70
     0
  9
$DIMTIH
 70
     0
  9
$DIMTOH
 70
     1
  9
$DIMSE1
 70
     0
  9
$DIMSE2
 70
     0
  9
$DIMTAD
 70
     0
  9
$DIMZIN
 70
     0
  9
$DIMBLK
  1

  9
$DIMASO
 70
     1
  9
$DIMSHO
 70
     1
  9
$DIMPOST
  1
\X
  9
$DIMAPOST
  1

  9
$DIMALT
 70
     1
  9
$DIMALTD
 70
     2
  9
$DIMALTF
 40
25.3999999999999986
  9
$DIMLFAC
 40
1.0
  9
$DIMTOFL
 70
     0
  9
$DIMTVP
 40
0.0
  9
$DIMTIX
 70
     0
  9
$DIMSOXD
 70
     0
  9
$DIMSAH
 70
     0
  9
$DIMBLK1
  1

  9
$DIMBLK2
  1

  9
$DIMSTYLE
  2
STANDARD
  9
$DIMCLRD
 70
     0
  9
$DIMCLRE
 70
     0
  9
$DIMCLRT
 70
     0
  9
$DIMTFAC
 40
1.0
  9
$DIMGAP
 40
0.09
  9
$LUNITS
 70
     2
  9
$LUPREC
 70
     4
  9
$SKETCHINC
 40
0.1
  9
$FILLETRAD
 40
0.0
  9
$AUNITS
 70
     0
  9
$AUPREC
 70
     0
  9
$MENU
  1
.
  9
$ELEVATION
 40
0.0
  9
$PELEVATION
 40
0.0
  9
$THICKNESS
 40
0.0
  9
$LIMCHECK
 70
     0
  9
$BLIPMODE
 70
     0
  9
$CHAMFERA
 40
0.0
  9
$CHAMFERB
 40
0.0
  9
$SKPOLY
 70
     0
  9
$TDCREATE
 40
2458172.5207638889551163
  9
$TDUPDATE
 40
2459046.43804398085922
  9
$TDINDWG
 40
0.2599971991
  9
$TDUSRTIMER
 40
0.2599971991
  9
$USRTIMER
 70
     1
  9
$ANGBASE
 50
0.0
  9
$ANGDIR
 70
     0
  9
$PDMODE
 70
     0
  9
$PDSIZE
 40
0.3125
  9
$PLINEWID
 40
0.0
  9
$COORDS
 70
     1
  9
$SPLFRAME
 70
     0
  9
$SPLINETYPE
 70
     6
  9
$SPLINESEGS
 70
     8
  9
$ATTDIA
 70
     1
  9
$ATTREQ
 70
     1
  9
$HANDLING
 70
     1
  9
$HANDSEED
  5
C8BC
  9
$SURFTAB1
 70
     6
  9
$SURFTAB2
 70
     6
  9
$SURFTYPE
 70
     6
  9
$SURFU
 70
     6
  9
$SURFV
 70
     6
  9
$UCSNAME
  2

  9
$UCSORG
 10
0.0
 20
0.0
 30
0.0
  9
$UCSXDIR
 10
1.0
 20
0.0
 30
0.0
  9
$UCSYDIR
 10
0.0
 20
1.0
 30
0.0
  9
$PUCSNAME
  2

  9
$PUCSORG
 10
0.0
 20
0.0
 30
0.0
  9
$PUCSXDIR
 10
1.0
 20
0.0
 30
0.0
  9
$PUCSYDIR
 10
0.0
 20
1.0
 30
0.0
  9
$USERI1
 70
     0
  9
$USERI2
 70
     0
  9
$USERI3
 70
     0
  9
$USERI4
 70
     0
  9
$USERI5
 70
     0
  9
$USERR1
 40
0.0
  9
$USERR2
 40
0.0
  9
$USERR3
 40
0.0
  9
$USERR4
 40
0.0
  9
$USERR5
 40
0.0
  9
$WORLDVIEW
 70
     1
  9
$SHADEDGE
 70
     3
  9
$SHADEDIF
 70
    70
  9
$TILEMODE
 70
     1
  9
$MAXACTVP
 70
    64
  9
$PLIMCHECK
 70
     0
  9
$PEXTMIN
 10
1.0000000000000000E+20
 20
1.0000000000000000E+20
 30
1.0000000000000000E+20
  9
$PEXTMAX
 10
-1.0000000000000000E+20
 20
-1.0000000000000000E+20
 30
-1.0000000000000000E+20
  9
$PLIMMIN
 10
0.0
 20
0.0
  9
$PLIMMAX
 10
12.0
 20
9.0
  9
$UNITMODE
 70
     0
  9
$VISRETAIN
 70
     1
  9
$PLINEGEN
 70
     0
  9
$PSLTSCALE
 70
     1
  0
ENDSEC
  0
SECTION
  2
TABLES
  0
TABLE
  2
VPORT
 70
     1
  0
VPORT
  2
*ACTIVE
 70
     0
 10
0.0
 20
0.0
 11
1.0
 21
1.0
 12
15.5864044023638808
 22
22.9434552424889908
 13
0.0
 23
0.0
 14
1.0
 24
1.0
 15
0.0
 25
0.0
 16
0.0
 26
0.0
 36
14.6338572656650907
 17
429.6292891080536833
 27
69.7025415122186871
 37
0.0
 40
53.7398137796367479
 41
2.6486111111111108
 42
50.0
 43
0.0
 44
0.0
 50
0.0
 51
0.0
 71
     0
 72
   100
 73
     1
 74
     1
 75
     0
 76
     0
 77
     0
 78
     0
  0
ENDTAB
  0
TABLE
  2
LTYPE
 70
     2
  0
LTYPE
  2
CONTINUOUS
 70
     0
  3
Solid line
 72
    65
 73
     0
 40
0.0
  0
LTYPE
  2
PHANTOM2
 70
     0
  3
___ _ _ ___ _ _ ___ _ _ ___ _ _
 72
    65
 73
     6
 40
1.25
 49
0.625
 49
-0.125
 49
0.125
 49
-0.125
 49
0.125
 49
-0.125
  0
ENDTAB
  0
TABLE
  2
LAYER
 70
     2
  0
LAYER
  2
0
 70
     0
 62
   255
  6
CONTINUOUS
  0
LAYER
  2
DEFPOINTS
 70
     0
 62
     7
  6
CONTINUOUS
  0
ENDTAB
  0
TABLE
  2
STYLE
 70
     1
  0
STYLE
  2
STANDARD
 70
     0
 40
0.0
 41
0.8
 50
0.0
 71
     0
 42
0.2
  3
txt
  4

  0
ENDTAB
  0
TABLE
  2
VIEW
 70
     0
  0
ENDTAB
  0
TABLE
  2
UCS
 70
     0
  0
ENDTAB
  0
TABLE
  2
APPID
 70
    10
  0
APPID
  2
ACAD
 70
     0
  0
APPID
  2
ACAD_MLEADERVER
 70
     0
  0
APPID
  2
ACAD_EXEMPT_FROM_CAD_STANDARDS
 70
     0
  0
APPID
  2
ACAD_DSTYLE_DIMJAG
 70
     0
  0
APPID
  2
ACAD_DSTYLE_DIMTALN
 70
     0
  0
APPID
  2
ACAD_NAV_VCDISPLAY
 70
     0
  0
APPID
  2
ACAECLAYERSTANDARD
 70
     0
  0
APPID
  2
ACCMTRANSPARENCY
 70
     0
  0
APPID
  2
DCO15
 70
     0
  0
APPID
  2
ACDBATTR
 70
     0
  0
ENDTAB
  0
TABLE
  2
DIMSTYLE
 70
     1
  0
DIMSTYLE
  2
STANDARD
 70
     0
  3

  4

  5

  6

  7

 40
1.0
 41
0.1875
 42
0.0625
 43
0.38
 44
0.125
 45
0.0
 46
0.0
 47
0.01
 48
0.01
140
0.15625
141
0.09
142
0.0
143
25.3999999999999986
144
1.0
145
0.0
146
1.0
147
0.09
 71
     1
 72
     0
 73
     1
 74
     1
 75
     0
 76
     0
 77
     0
 78
     4
170
     0
171
     2
172
     0
173
     0
174
     0
175
     0
176
     0
177
     0
178
     0
  0
ENDTAB
  0
ENDSEC
  0
SECTION
  2
BLOCKS
  0
BLOCK
  8
0
  2
$MODEL_SPACE
 70
     0
 10
0.0
 20
0.0
 30
0.0
  3
$MODEL_SPACE
  1

  0
ENDBLK
  5
21
  8
0
  0
BLOCK
 67
     1
  8
0
  2
$PAPER_SPACE
 70
     0
 10
0.0
 20
0.0
 30
0.0
  3
$PAPER_SPACE
  1

  0
ENDBLK
  5
1D
 67
     1
  8
0
  0
BLOCK
  8
0
  2
_FILLED
 70
     0
 10
0.0
 20
0.0
 30
0.0
  3
_FILLED
  1

  0
SOLID
  5
87E2
  8
0
  6
BYBLOCK
 62
     0
 10
0.0
 20
0.0
 30
0.0
 11
-1.0
 21
0.1666666667
 31
0.0
 12
-1.0
 22
-0.1666666667
 32
0.0
 13
-1.0
 23
-0.1666666667
 33
0.0
  0
ENDBLK
  5
87E3
  8
0
  6
BYBLOCK
 62
     0
  0
ENDSEC
  0
SECTION
  2
ENTITIES
  0
ATTDEF
  5
829
  8
DEFPOINTS
 10
456.4215177307482918
 20
67.5227110518824531
 30
0.0
 40
0.001
  1
K-5428T-C4
  3

  2
MODELNUMBER
 70
     0
1001
ACDBATTR
1070
     0
1070
     1
  0
ATTDEF
  5
82A
  8
DEFPOINTS
 10
456.4215177307482918
 20
67.521044385215788
 30
0.0
 40
0.001
  1
JULY
  3

  2
TRADENAME
 70
     0
1001
ACDBATTR
1070
     0
1070
     1
  0
ATTDEF
  5
82B
  8
DEFPOINTS
 10
456.4215177307482918
 20
67.5193777185491228
 30
0.0
 40
0.001
  1
BATH AND SHOWER FAUCET
  3

  2
PRODUCT
 70
     0
1001
ACDBATTR
1070
     0
1070
     1
  0
LINE
  5
BF9F
  8
0
 10
438.3601682002092161
 20
116.1409567408487931
 30
0.0
 11
438.3601682002092161
 21
116.0228465140487941
 31
0.0
  0
LINE
  5
BFA0
  8
0
 10
438.3601682002092161
 20
116.0228465140487941
 30
0.0
 11
438.4082390770092275
 21
115.9747756384488042
 31
0.0
  0
LINE
  5
BFA1
  8
0
 10
438.4290658690711098
 20
115.1592610090001045
 30
0.0
 11
438.3632779322779243
 21
115.1353163368307975
 31
0.0
  0
ARC
  5
BFA2
  8
0
 10
438.3700105021914055
 20
115.1168186150494961
 30
0.0
 40
0.0196848471861202
 50
109.9998626517653975
 51
180.0011284625940107
  0
LINE
  5
BFA3
  8
0
 10
438.3503256550092146
 20
115.1168182273488014
 30
0.0
 11
438.3503281670879232
 21
114.9892716800896011
 31
0.0
  0
ARC
  5
BFA4
  8
0
 10
438.3700207449448953
 20
114.9892720679425935
 30
0.0
 40
0.0196925778609053
 50
180.0011284625931012
 51
223.4959577082364035
  0
ARC
  5
BFA5
  8
0
 10
437.9949603114146726
 20
114.6334032928051982
 30
0.0
 40
0.4973305492017315
 50
28.4623477569630801
 51
43.4959577082364319
  0
LINE
  5
BFA6
  8
0
 10
438.5235540269092098
 20
114.8703749150487994
 30
0.0
 11
438.5235540269092098
 21
114.8625008992488006
 31
0.0
  0
ARC
  5
BFA7
  8
0
 10
438.6501398231092139
 20
114.8034457806726039
 30
0.0
 40
0.0590551185762038
 50
4.4481648895510109
 51
90.0000000000032543
  0
ARC
  5
BFA8
  8
0
 10
426.5842285284193736
 20
113.8648594736294939
 30
0.0
 40
12.1614168557107192
 50
0.9348942625523982
 51
4.447982120656631
  0
LINE
  5
BFA9
  8
0
 10
437.9959949718091821
 20
114.0632883008487966
 30
0.0
 11
438.7833965466091968
 21
114.0632883008487966
 31
0.0
  0
LINE
  5
BFAA
  8
0
 10
438.7833965466091968
 20
114.0632883008487966
 30
0.0
 11
438.7952075703091737
 21
114.051477277248793
 31
0.0
  0
LINE
  5
BFAB
  8
0
 10
434.0159572929092064
 20
114.051477277248793
 30
0.0
 11
441.9760326507092145
 21
114.051477277248793
 31
0.0
  0
ARC
  5
BFAC
  8
0
 10
441.9760326507092145
 20
114.0357292457487972
 30
0.0
 40
0.0157480314999994
 50
358.999999804693573
 51
90.0
  0
LINE
  5
BFAD
  8
0
 10
441.991778283706708
 20
114.035454404648803
 30
0.0
 11
441.9848242960517837
 21
113.6370607965357067
 31
0.0
  0
ARC
  5
BFAE
  8
0
 10
441.9257781745200759
 20
113.6380914482222977
 30
0.0
 40
0.059055115873492
 50
269.9999991162467268
 51
359.0000021327231821
  0
LINE
  5
BFAF
  8
0
 10
437.9959949718091821
 20
113.5267593788487943
 30
0.0
 11
438.0500971870296212
 21
113.5267593787667977
 31
0.0
  0
LINE
  5
BFB0
  8
0
 10
438.0500971870296212
 20
113.5267593787667977
 30
0.0
 11
438.0574442337090773
 21
113.5790363323488066
 31
0.0
  0
ARC
  5
BFB1
  8
0
 10
438.0422998007333035
 20
113.5278552298841959
 30
0.0
 40
0.0078740156354101
 50
269.9999998243006871
 51
352.0000010109440041
  0
LINE
  5
BFB2
  8
0
 10
438.0422998007092019
 20
113.5199812142488014
 30
0.0
 11
437.9959949718091821
 21
113.5199812143907963
 31
0.0
  0
LINE
  5
BFB3
  8
0
 10
438.2594140522090811
 20
113.5785724626487934
 30
0.0
 11
438.266695906277107
 21
113.5267593788487943
 31
0.0
  0
ARC
  5
BFB4
  8
0
 10
438.274493292695297
 20
113.5278552300478054
 30
0.0
 40
0.0078740157990481
 50
188.0000000241147973
 51
269.9999993734757027
  0
LINE
  5
BFB5
  8
0
 10
438.2744932926091224
 20
113.5199812142488014
 30
0.0
 11
438.3817880774091122
 21
113.5199812130754964
 31
0.0
  0
ARC
  5
BFB6
  8
0
 10
438.381788077496708
 20
113.5279830062555959
 30
0.0
 40
0.0080017931800924
 50
269.9999993734595023
 51
351.2038663700832899
  0
LINE
  5
BFB7
  8
0
 10
438.3896957592090757
 20
113.5267593788487943
 30
0.0
 11
438.396955982258703
 21
113.5790363867786965
 31
0.0
  0
LINE
  5
BFB8
  8
0
 10
438.2740574509090834
 20
113.5790363323488066
 30
0.0
 11
438.2814044976091168
 21
113.5267593788487943
 31
0.0
  0
ARC
  5
BFB9
  8
0
 10
438.2892018840267951
 20
113.5278552300472938
 30
0.0
 40
0.0078740157985337
 50
188.0000000208613073
 51
269.9999991438749021
  0
LINE
  5
BFBA
  8
0
 10
438.5809664250091942
 20
113.5785724626487934
 30
0.0
 11
438.5882482790772201
 21
113.5267593788487943
 31
0.0
  0
ARC
  5
BFBB
  8
0
 10
438.5960456654951827
 20
113.5278552300478054
 30
0.0
 40
0.0078740157990481
 50
188.0000000241147973
 51
269.9999993734757027
  0
LINE
  5
BFBC
  8
0
 10
438.5960456654091786
 20
113.5199812142488014
 30
0.0
 11
438.7033404502092253
 21
113.5199812130754964
 31
0.0
  0
ARC
  5
BFBD
  8
0
 10
438.7033404502965936
 20
113.5279830062555959
 30
0.0
 40
0.0080017931800924
 50
269.9999993734595023
 51
351.2038663700832899
  0
LINE
  5
BFBE
  8
0
 10
438.7112481320091888
 20
113.5267593788487943
 30
0.0
 11
438.7185083550588161
 21
113.5790363867786965
 31
0.0
  0
LINE
  5
BFBF
  8
0
 10
438.5956098237091965
 20
113.5790363323488066
 30
0.0
 11
438.6029568704091162
 21
113.5267593788487943
 31
0.0
  0
ARC
  5
BFC0
  8
0
 10
438.6107542568267945
 20
113.5278552300472938
 30
0.0
 40
0.0078740157985337
 50
188.0000000208613073
 51
269.9999991438749021
  0
LINE
  5
BFC1
  8
0
 10
438.9235992418090859
 20
113.5785724626487934
 30
0.0
 11
438.9308810958771119
 21
113.5267593788487943
 31
0.0
  0
ARC
  5
BFC2
  8
0
 10
438.9386784822953018
 20
113.5278552300478054
 30
0.0
 40
0.0078740157990481
 50
188.0000000241147973
 51
269.9999993734757027
  0
LINE
  5
BFC3
  8
0
 10
438.9386784822091272
 20
113.5199812142488014
 30
0.0
 11
439.0459732670091171
 21
113.5199812130754964
 31
0.0
  0
ARC
  5
BFC4
  8
0
 10
439.0459732670967128
 20
113.5279830062555959
 30
0.0
 40
0.0080017931800924
 50
269.9999993734595023
 51
351.2038663700832899
  0
LINE
  5
BFC5
  8
0
 10
439.0538809488090806
 20
113.5267593788487943
 30
0.0
 11
439.0611411718587078
 21
113.5790363867786965
 31
0.0
  0
LINE
  5
BFC6
  8
0
 10
438.9382426405092019
 20
113.5790363323488066
 30
0.0
 11
438.9455896872091785
 21
113.5267593788487943
 31
0.0
  0
ARC
  5
BFC7
  8
0
 10
438.9533870736268
 20
113.5278552300472938
 30
0.0
 40
0.0078740157985337
 50
188.0000000208613073
 51
269.9999991438749021
  0
LINE
  5
BFC8
  8
0
 10
439.0704121236242941
 20
113.5785724626487934
 30
0.0
 11
439.07769397769232
 21
113.5267593788487943
 31
0.0
  0
ARC
  5
BFC9
  8
0
 10
439.0854913641103963
 20
113.5278552300478054
 30
0.0
 40
0.0078740157990481
 50
188.0000000241147973
 51
269.9999993734757027
  0
LINE
  5
BFCA
  8
0
 10
439.0854913640242785
 20
113.5199812142488014
 30
0.0
 11
439.1927861488243252
 21
113.5199812130754964
 31
0.0
  0
ARC
  5
BFCB
  8
0
 10
439.1927861489118072
 20
113.5279830062555959
 30
0.0
 40
0.0080017931800924
 50
269.9999993734595023
 51
351.2038663700832899
  0
LINE
  5
BFCC
  8
0
 10
439.2006938306242887
 20
113.5267593788487943
 30
0.0
 11
439.207954053673916
 21
113.5790363867786965
 31
0.0
  0
LINE
  5
BFCD
  8
0
 10
439.0850555223241827
 20
113.5790363323488066
 30
0.0
 11
439.0924025690242729
 21
113.5267593788487943
 31
0.0
  0
ARC
  5
BFCE
  8
0
 10
439.1001999554418944
 20
113.5278552300472938
 30
0.0
 40
0.0078740157985337
 50
188.0000000208613073
 51
269.9999991438749021
  0
LINE
  5
BFCF
  8
0
 10
439.2191149097092193
 20
113.5785724626487934
 30
0.0
 11
439.2263967637771884
 21
113.5267593788487943
 31
0.0
  0
ARC
  5
BFD0
  8
0
 10
439.2341941501952078
 20
113.5278552300478054
 30
0.0
 40
0.0078740157990481
 50
188.0000000241147973
 51
269.9999993734757027
  0
LINE
  5
BFD1
  8
0
 10
439.2341941501092037
 20
113.5199812142488014
 30
0.0
 11
439.3414889349091936
 21
113.5199812130754964
 31
0.0
  0
ARC
  5
BFD2
  8
0
 10
439.3414889349966188
 20
113.5279830062555959
 30
0.0
 40
0.0080017931800924
 50
269.9999993734595023
 51
351.2038663700832899
  0
LINE
  5
BFD3
  8
0
 10
439.349396616709214
 20
113.5267593788487943
 30
0.0
 11
439.3566568397587844
 21
113.5790363867786965
 31
0.0
  0
LINE
  5
BFD4
  8
0
 10
439.2337583084091079
 20
113.5790363323488066
 30
0.0
 11
439.2411053551091982
 21
113.5267593788487943
 31
0.0
  0
ARC
  5
BFD5
  8
0
 10
439.2489027415268197
 20
113.5278552300472938
 30
0.0
 40
0.0078740157985337
 50
188.0000000208613073
 51
269.9999991438749021
  0
LINE
  5
BFD6
  8
0
 10
439.4127841984591214
 20
113.5785724626487934
 30
0.0
 11
439.4200660525272042
 21
113.5267593788487943
 31
0.0
  0
ARC
  5
BFD7
  8
0
 10
439.4278634389452236
 20
113.5278552300478054
 30
0.0
 40
0.0078740157990481
 50
188.0000000241147973
 51
269.9999993734757027
  0
LINE
  5
BFD8
  8
0
 10
439.4278634388591058
 20
113.5199812142488014
 30
0.0
 11
439.5351582236592094
 21
113.5199812130754964
 31
0.0
  0
ARC
  5
BFD9
  8
0
 10
439.5351582237465777
 20
113.5279830062555959
 30
0.0
 40
0.0080017931800924
 50
269.9999993734595023
 51
351.2038663700832899
  0
LINE
  5
BFDA
  8
0
 10
439.543065905459116
 20
113.5267593788487943
 30
0.0
 11
439.5503261285088001
 21
113.5790363867786965
 31
0.0
  0
LINE
  5
BFDB
  8
0
 10
439.4274275971591237
 20
113.5790363323488066
 30
0.0
 11
439.4347746438592139
 21
113.5267593788487943
 31
0.0
  0
ARC
  5
BFDC
  8
0
 10
439.4425720302767786
 20
113.5278552300472938
 30
0.0
 40
0.0078740157985337
 50
188.0000000208613073
 51
269.9999991438749021
  0
LINE
  5
BFDD
  8
0
 10
439.5599282989421113
 20
113.5785724626487934
 30
0.0
 11
439.5672101530101941
 21
113.5267593788487943
 31
0.0
  0
ARC
  5
BFDE
  8
0
 10
439.5750075394283272
 20
113.5278552300478054
 30
0.0
 40
0.0078740157990481
 50
188.0000000241147973
 51
269.9999993734757027
  0
LINE
  5
BFDF
  8
0
 10
439.5750075393420957
 20
113.5199812142488014
 30
0.0
 11
439.6823023241421993
 21
113.5199812130754964
 31
0.0
  0
ARC
  5
BFE0
  8
0
 10
439.6823023242296813
 20
113.5279830062555959
 30
0.0
 40
0.0080017931800924
 50
269.9999993734595023
 51
351.2038663700832899
  0
LINE
  5
BFE1
  8
0
 10
439.6902100059421059
 20
113.5267593788487943
 30
0.0
 11
439.69747022899179
 21
113.5790363867786965
 31
0.0
  0
LINE
  5
BFE2
  8
0
 10
439.5745716976422273
 20
113.5790363323488066
 30
0.0
 11
439.5819187443422038
 21
113.5267593788487943
 31
0.0
  0
ARC
  5
BFE3
  8
0
 10
439.5897161307598253
 20
113.5278552300472938
 30
0.0
 40
0.0078740157985337
 50
188.0000000208613073
 51
269.9999991438749021
  0
LINE
  5
BFE4
  8
0
 10
439.7542293575090753
 20
113.5785724626487934
 30
0.0
 11
439.7615112115771012
 21
113.5267593788487943
 31
0.0
  0
ARC
  5
BFE5
  8
0
 10
439.7693085979952912
 20
113.5278552300478054
 30
0.0
 40
0.0078740157990481
 50
188.0000000241147973
 51
269.9999993734757027
  0
LINE
  5
BFE6
  8
0
 10
439.7693085979091165
 20
113.5199812142488014
 30
0.0
 11
439.8766033827091064
 21
113.5199812130754964
 31
0.0
  0
ARC
  5
BFE7
  8
0
 10
439.8766033827967021
 20
113.5279830062555959
 30
0.0
 40
0.0080017931800924
 50
269.9999993734595023
 51
351.2038663700832899
  0
LINE
  5
BFE8
  8
0
 10
439.8845110645091268
 20
113.5267593788487943
 30
0.0
 11
439.8917712875586972
 21
113.5790363867786965
 31
0.0
  0
LINE
  5
BFE9
  8
0
 10
439.7688727562090776
 20
113.5790363323488066
 30
0.0
 11
439.776219802909111
 21
113.5267593788487943
 31
0.0
  0
ARC
  5
BFEA
  8
0
 10
439.7840171893267893
 20
113.5278552300472938
 30
0.0
 40
0.0078740157985337
 50
188.0000000208613073
 51
269.9999991438749021
  0
LINE
  5
BFEB
  8
0
 10
439.9021419766430085
 20
113.5785724626487934
 30
0.0
 11
439.9094238307109777
 21
113.5267593788487943
 31
0.0
  0
ARC
  5
BFEC
  8
0
 10
439.9172212171291108
 20
113.5278552300478054
 30
0.0
 40
0.0078740157990481
 50
188.0000000241147973
 51
269.9999993734757027
  0
LINE
  5
BFED
  8
0
 10
439.917221217042993
 20
113.5199812142488014
 30
0.0
 11
440.0245160018429829
 21
113.5199812130754964
 31
0.0
  0
ARC
  5
BFEE
  8
0
 10
440.0245160019305217
 20
113.5279830062555959
 30
0.0
 40
0.0080017931800924
 50
269.9999993734595023
 51
351.2038663700832899
  0
LINE
  5
BFEF
  8
0
 10
440.0324236836430032
 20
113.5267593788487943
 30
0.0
 11
440.0396839066925736
 21
113.5790363867786965
 31
0.0
  0
LINE
  5
BFF0
  8
0
 10
439.9167853753430109
 20
113.5790363323488066
 30
0.0
 11
439.9241324220429874
 21
113.5267593788487943
 31
0.0
  0
ARC
  5
BFF1
  8
0
 10
439.9319298084606089
 20
113.5278552300472938
 30
0.0
 40
0.0078740157985337
 50
188.0000000208613073
 51
269.9999991438749021
  0
LINE
  5
BFF2
  8
0
 10
440.0972731145366765
 20
113.5785724626487934
 30
0.0
 11
440.1045549686047025
 21
113.5267593788487943
 31
0.0
  0
ARC
  5
BFF3
  8
0
 10
440.1123523550227787
 20
113.5278552300478054
 30
0.0
 40
0.0078740157990481
 50
188.0000000241147973
 51
269.9999993734757027
  0
LINE
  5
BFF4
  8
0
 10
440.1123523549367178
 20
113.5199812142488014
 30
0.0
 11
440.2196471397367077
 21
113.5199812130754964
 31
0.0
  0
ARC
  5
BFF5
  8
0
 10
440.2196471398241897
 20
113.5279830062555959
 30
0.0
 40
0.0080017931800924
 50
269.9999993734595023
 51
351.2038663700832899
  0
LINE
  5
BFF6
  8
0
 10
440.227554821536728
 20
113.5267593788487943
 30
0.0
 11
440.2348150445864121
 21
113.5790363867786965
 31
0.0
  0
LINE
  5
BFF7
  8
0
 10
440.1119165132366788
 20
113.5790363323488066
 30
0.0
 11
440.1192635599367122
 21
113.5267593788487943
 31
0.0
  0
ARC
  5
BFF8
  8
0
 10
440.1270609463542769
 20
113.5278552300472938
 30
0.0
 40
0.0078740157985337
 50
188.0000000208613073
 51
269.9999991438749021
  0
LINE
  5
BFF9
  8
0
 10
440.383483487759122
 20
113.5785724626487934
 30
0.0
 11
440.3907653418270911
 21
113.5267593788487943
 31
0.0
  0
ARC
  5
BFFA
  8
0
 10
440.3985627282452811
 20
113.5278552300478054
 30
0.0
 40
0.0078740157990481
 50
188.0000000241147973
 51
269.9999993734757027
  0
LINE
  5
BFFB
  8
0
 10
440.3985627281591064
 20
113.5199812142488014
 30
0.0
 11
440.50585751295921
 21
113.5199812130754964
 31
0.0
  0
ARC
  5
BFFC
  8
0
 10
440.505857513046692
 20
113.5279830062555959
 30
0.0
 40
0.0080017931800924
 50
269.9999993734595023
 51
351.2038663700832899
  0
LINE
  5
BFFD
  8
0
 10
440.5137651947591166
 20
113.5267593788487943
 30
0.0
 11
440.5210254178086871
 21
113.5790363867786965
 31
0.0
  0
LINE
  5
BFFE
  8
0
 10
440.3981268864591243
 20
113.5790363323488066
 30
0.0
 11
440.4054739331591009
 21
113.5267593788487943
 31
0.0
  0
ARC
  5
BFFF
  8
0
 10
440.4132713195767792
 20
113.5278552300472938
 30
0.0
 40
0.0078740157985337
 50
188.0000000208613073
 51
269.9999991438749021
  0
LINE
  5
C000
  8
0
 10
440.5476149898591984
 20
113.5785724626487934
 30
0.0
 11
440.5548968439271107
 21
113.5267593788487943
 31
0.0
  0
ARC
  5
C001
  8
0
 10
440.562694230345187
 20
113.5278552300478054
 30
0.0
 40
0.0078740157990481
 50
188.0000000241147973
 51
269.9999993734757027
  0
LINE
  5
C002
  8
0
 10
440.5626942302591829
 20
113.5199812142488014
 30
0.0
 11
440.6699890150591727
 21
113.5199812130754964
 31
0.0
  0
ARC
  5
C003
  8
0
 10
440.6699890151465979
 20
113.5279830062555959
 30
0.0
 40
0.0080017931800924
 50
269.9999993734595023
 51
351.2038663700832899
  0
LINE
  5
C004
  8
0
 10
440.6778966968591931
 20
113.5267593788487943
 30
0.0
 11
440.6851569199088203
 21
113.5790363867786965
 31
0.0
  0
LINE
  5
C005
  8
0
 10
440.5622583885592007
 20
113.5790363323488066
 30
0.0
 11
440.5696054352591204
 21
113.5267593788487943
 31
0.0
  0
ARC
  5
C006
  8
0
 10
440.5774028216767988
 20
113.5278552300472938
 30
0.0
 40
0.0078740157985337
 50
188.0000000208613073
 51
269.9999991438749021
  0
LINE
  5
C007
  8
0
 10
440.8871267308092001
 20
113.5785724626487934
 30
0.0
 11
440.8944085848771124
 21
113.5267593788487943
 31
0.0
  0
ARC
  5
C008
  8
0
 10
440.9022059712953023
 20
113.5278552300478054
 30
0.0
 40
0.0078740157990481
 50
188.0000000241147973
 51
269.9999993734757027
  0
LINE
  5
C009
  8
0
 10
440.9022059712091846
 20
113.5199812142488014
 30
0.0
 11
441.0095007560091744
 21
113.5199812130754964
 31
0.0
  0
ARC
  5
C00A
  8
0
 10
441.0095007560967133
 20
113.5279830062555959
 30
0.0
 40
0.0080017931800924
 50
269.9999993734595023
 51
351.2038663700832899
  0
LINE
  5
C00B
  8
0
 10
441.0174084378090811
 20
113.5267593788487943
 30
0.0
 11
441.024668660858822
 21
113.5790363867786965
 31
0.0
  0
LINE
  5
C00C
  8
0
 10
440.9017701295090887
 20
113.5790363323488066
 30
0.0
 11
440.9091171762091221
 21
113.5267593788487943
 31
0.0
  0
ARC
  5
C00D
  8
0
 10
440.9169145626268005
 20
113.5278552300472938
 30
0.0
 40
0.0078740157985337
 50
188.0000000208613073
 51
269.9999991438749021
  0
LINE
  5
C00E
  8
0
 10
441.0969565262590777
 20
113.5785724626487934
 30
0.0
 11
441.1042383803271036
 21
113.5267593788487943
 31
0.0
  0
ARC
  5
C00F
  8
0
 10
441.1120357667452936
 20
113.5278552300478054
 30
0.0
 40
0.0078740157990481
 50
188.0000000241147973
 51
269.9999993734757027
  0
LINE
  5
C010
  8
0
 10
441.112035766659119
 20
113.5199812142488014
 30
0.0
 11
441.2193305514591088
 21
113.5199812130754964
 31
0.0
  0
ARC
  5
C011
  8
0
 10
441.2193305515467046
 20
113.5279830062555959
 30
0.0
 40
0.0080017931800924
 50
269.9999993734595023
 51
351.2038663700832899
  0
LINE
  5
C012
  8
0
 10
441.227238233259186
 20
113.5267593788487943
 30
0.0
 11
441.2344984563086996
 21
113.5790363867786965
 31
0.0
  0
LINE
  5
C013
  8
0
 10
441.1115999249591937
 20
113.5790363323488066
 30
0.0
 11
441.1189469716592271
 21
113.5267593788487943
 31
0.0
  0
ARC
  5
C014
  8
0
 10
441.1267443580767917
 20
113.5278552300472938
 30
0.0
 40
0.0078740157985337
 50
188.0000000208613073
 51
269.9999991438749021
  0
LINE
  5
C015
  8
0
 10
438.3896957592090757
 20
116.1409567408487931
 30
0.0
 11
437.6022941844091179
 21
116.1409567408487931
 31
0.0
  0
LINE
  5
C016
  8
0
 10
437.6318217434092048
 20
116.1409567408487931
 30
0.0
 11
437.6318217434092048
 21
116.0228465140487941
 31
0.0
  0
LINE
  5
C017
  8
0
 10
437.6318217434092048
 20
116.0228465140487941
 30
0.0
 11
437.5837508666091935
 21
115.9747756384488042
 31
0.0
  0
LINE
  5
C018
  8
0
 10
437.5235540269591183
 20
115.9747756384488042
 30
0.0
 11
438.4684359166590752
 21
115.9747756384488042
 31
0.0
  0
LINE
  5
C019
  8
0
 10
437.6318217434092048
 20
116.0228465140487941
 30
0.0
 11
438.3601682002092161
 21
116.0228465140487941
 31
0.0
  0
LINE
  5
C01A
  8
0
 10
437.5628525829591808
 20
115.1592870296160953
 30
0.0
 11
437.6287120113404967
 21
115.1353163368307975
 31
0.0
  0
ARC
  5
C01B
  8
0
 10
437.6219794414269018
 20
115.1168186150494961
 30
0.0
 40
0.0196848471861202
 50
359.998871537406103
 51
70.0001373482378852
  0
LINE
  5
C01C
  8
0
 10
437.6416642886090926
 20
115.1168182273488014
 30
0.0
 11
437.6416617765304977
 21
114.9892716800896011
 31
0.0
  0
ARC
  5
C01D
  8
0
 10
437.6219691986734119
 20
114.9892720679425935
 30
0.0
 40
0.0196925778609053
 50
316.5040422917630281
 51
359.998871537406103
  0
ARC
  5
C01E
  8
0
 10
437.997029632203521
 20
114.6334032928051982
 30
0.0
 40
0.4973305492017315
 50
136.5040422917635965
 51
151.537652243036888
  0
LINE
  5
C01F
  8
0
 10
438.5235540269591183
 20
114.8703749150487994
 30
0.0
 11
437.4684359167090975
 21
114.8703749150487994
 31
0.0
  0
LINE
  5
C020
  8
0
 10
437.4684359167090975
 20
114.8703749150487994
 30
0.0
 11
437.4684359167090975
 21
114.8625008992488006
 31
0.0
  0
LINE
  5
C021
  8
0
 10
438.6501398231092139
 20
114.8625008992488006
 30
0.0
 11
437.341850120509207
 21
114.8625008992488006
 31
0.0
  0
ARC
  5
C022
  8
0
 10
437.341850120509207
 20
114.8034457806726039
 30
0.0
 40
0.0590551185762038
 50
89.9999999999967457
 51
175.5518351104489909
  0
ARC
  5
C023
  8
0
 10
449.4077614151988769
 20
113.8648594736294939
 30
0.0
 40
12.1614168557107192
 50
175.5520178793433956
 51
179.0651057374475954
  0
LINE
  5
C024
  8
0
 10
437.9959949718091821
 20
114.0632883008487966
 30
0.0
 11
437.2085933970091105
 21
114.0632883008487966
 31
0.0
  0
LINE
  5
C025
  8
0
 10
437.2085933970091105
 20
114.0632883008487966
 30
0.0
 11
437.1967823733091905
 21
114.051477277248793
 31
0.0
  0
ARC
  5
C026
  8
0
 10
434.0159572929092064
 20
114.0357292457487972
 30
0.0
 40
0.0157480314999994
 50
90.0
 51
181.0000001953054891
  0
LINE
  5
C027
  8
0
 10
434.0002116599115993
 20
114.035454404648803
 30
0.0
 11
434.0071656475665804
 21
113.6370607965357067
 31
0.0
  0
ARC
  5
C028
  8
0
 10
434.0662117690982882
 20
113.6380914482222977
 30
0.0
 40
0.059055115873492
 50
180.9999978672759084
 51
270.0000008837532732
  0
LINE
  5
C029
  8
0
 10
441.9848242960520111
 20
113.6370607965487949
 30
0.0
 11
434.0071656462092164
 21
113.6370607965487949
 31
0.0
  0
LINE
  5
C02A
  8
0
 10
438.3557353095267786
 20
114.9757175868488019
 30
0.0
 11
437.6362546340832864
 21
114.9757175868488019
 31
0.0
  0
LINE
  5
C02B
  8
0
 10
438.4291373606591833
 20
115.1873740636488037
 30
0.0
 11
437.5628525829591808
 21
115.1873740636488037
 31
0.0
  0
LINE
  5
C02C
  8
0
 10
438.3503256550092146
 20
115.1168182273488014
 30
0.0
 11
437.6416642886090926
 21
115.1168182273488014
 31
0.0
  0
LINE
  5
C02D
  8
0
 10
438.3632773191172873
 20
115.1353161136487984
 30
0.0
 11
437.6287119301092048
 21
115.1353161136487984
 31
0.0
  0
LINE
  5
C02E
  8
0
 10
438.3503281670879232
 20
114.9892716798487982
 30
0.0
 11
437.6416617765304977
 21
114.9892716798487982
 31
0.0
  0
LINE
  5
C02F
  8
0
 10
437.9959949718091821
 20
113.5267593788487943
 30
0.0
 11
437.9418927565885724
 21
113.5267593787667977
 31
0.0
  0
LINE
  5
C030
  8
0
 10
437.9418927565885724
 20
113.5267593787667977
 30
0.0
 11
437.9345457099091163
 21
113.5790363323488066
 31
0.0
  0
ARC
  5
C031
  8
0
 10
437.9496901428850038
 20
113.5278552298841959
 30
0.0
 40
0.0078740156354101
 50
187.9999989890559107
 51
270.0000001756993129
  0
LINE
  5
C032
  8
0
 10
437.9496901429091054
 20
113.5199812142488014
 30
0.0
 11
437.9959949718091821
 21
113.5199812143907963
 31
0.0
  0
LINE
  5
C033
  8
0
 10
437.7325758914091125
 20
113.5785724626487934
 30
0.0
 11
437.7252940373412002
 21
113.5267593788487943
 31
0.0
  0
ARC
  5
C034
  8
0
 10
437.7174966509230103
 20
113.5278552300478054
 30
0.0
 40
0.0078740157990481
 50
270.0000006265242973
 51
351.9999999758852027
  0
LINE
  5
C035
  8
0
 10
437.7174966510091281
 20
113.5199812142488014
 30
0.0
 11
437.6102018662090813
 21
113.5199812130754964
 31
0.0
  0
ARC
  5
C036
  8
0
 10
437.6102018661215993
 20
113.5279830062555959
 30
0.0
 40
0.0080017931800924
 50
188.7961336299165964
 51
270.0000006265373145
  0
LINE
  5
C037
  8
0
 10
437.6022941844091179
 20
113.5267593788487943
 30
0.0
 11
437.5950339613594906
 21
113.5790363867786965
 31
0.0
  0
LINE
  5
C038
  8
0
 10
437.7179324927091102
 20
113.5790363323488066
 30
0.0
 11
437.7105854460091905
 21
113.5267593788487943
 31
0.0
  0
ARC
  5
C039
  8
0
 10
437.7027880595915121
 20
113.5278552300472938
 30
0.0
 40
0.0078740157985337
 50
270.0000008561250979
 51
351.999999979138579
  0
LINE
  5
C03A
  8
0
 10
437.4110235186091131
 20
113.5785724626487934
 30
0.0
 11
437.4037416645410872
 21
113.5267593788487943
 31
0.0
  0
ARC
  5
C03B
  8
0
 10
437.3959442781230109
 20
113.5278552300478054
 30
0.0
 40
0.0078740157990481
 50
270.0000006265242973
 51
351.9999999758852027
  0
LINE
  5
C03C
  8
0
 10
437.3959442782091855
 20
113.5199812142488014
 30
0.0
 11
437.2886494934091957
 21
113.5199812130754964
 31
0.0
  0
ARC
  5
C03D
  8
0
 10
437.2886494933217136
 20
113.5279830062555959
 30
0.0
 40
0.0080017931800924
 50
188.7961336299165964
 51
270.0000006265373145
  0
LINE
  5
C03E
  8
0
 10
437.2807418116091185
 20
113.5267593788487943
 30
0.0
 11
437.2734815885594912
 21
113.5790363867786965
 31
0.0
  0
LINE
  5
C03F
  8
0
 10
437.3963801199091108
 20
113.5790363323488066
 30
0.0
 11
437.3890330732090774
 21
113.5267593788487943
 31
0.0
  0
ARC
  5
C040
  8
0
 10
437.3812356867913991
 20
113.5278552300472938
 30
0.0
 40
0.0078740157985337
 50
270.0000008561250979
 51
351.999999979138579
  0
LINE
  5
C041
  8
0
 10
437.0683907018091077
 20
113.5785724626487934
 30
0.0
 11
437.0611088477411954
 21
113.5267593788487943
 31
0.0
  0
ARC
  5
C042
  8
0
 10
437.0533114613230055
 20
113.5278552300478054
 30
0.0
 40
0.0078740157990481
 50
270.0000006265242973
 51
351.9999999758852027
  0
LINE
  5
C043
  8
0
 10
437.0533114614091232
 20
113.5199812142488014
 30
0.0
 11
436.9460166766090765
 21
113.5199812130754964
 31
0.0
  0
ARC
  5
C044
  8
0
 10
436.9460166765215945
 20
113.5279830062555959
 30
0.0
 40
0.0080017931800924
 50
188.7961336299165964
 51
270.0000006265373145
  0
LINE
  5
C045
  8
0
 10
436.938108994809113
 20
113.5267593788487943
 30
0.0
 11
436.9308487717594858
 21
113.5790363867786965
 31
0.0
  0
LINE
  5
C046
  8
0
 10
437.0537473031091054
 20
113.5790363323488066
 30
0.0
 11
437.0464002564091857
 21
113.5267593788487943
 31
0.0
  0
ARC
  5
C047
  8
0
 10
437.038602869991621
 20
113.5278552300472938
 30
0.0
 40
0.0078740157985337
 50
270.0000008561250979
 51
351.999999979138579
  0
LINE
  5
C048
  8
0
 10
436.9215778199940132
 20
113.5785724626487934
 30
0.0
 11
436.9142959659259873
 21
113.5267593788487943
 31
0.0
  0
ARC
  5
C049
  8
0
 10
436.9064985795080247
 20
113.5278552300478054
 30
0.0
 40
0.0078740157990481
 50
270.0000006265242973
 51
351.9999999758852027
  0
LINE
  5
C04A
  8
0
 10
436.906498579593972
 20
113.5199812142488014
 30
0.0
 11
436.7992037947939821
 21
113.5199812130754964
 31
0.0
  0
ARC
  5
C04B
  8
0
 10
436.7992037947066137
 20
113.5279830062555959
 30
0.0
 40
0.0080017931800924
 50
188.7961336299165964
 51
270.0000006265373145
  0
LINE
  5
C04C
  8
0
 10
436.7912961129940186
 20
113.5267593788487943
 30
0.0
 11
436.7840358899443913
 21
113.5790363867786965
 31
0.0
  0
LINE
  5
C04D
  8
0
 10
436.9069344212940109
 20
113.5790363323488066
 30
0.0
 11
436.8995873745939775
 21
113.5267593788487943
 31
0.0
  0
ARC
  5
C04E
  8
0
 10
436.8917899881764129
 20
113.5278552300472938
 30
0.0
 40
0.0078740157985337
 50
270.0000008561250979
 51
351.999999979138579
  0
LINE
  5
C04F
  8
0
 10
436.772875033909088
 20
113.5785724626487934
 30
0.0
 11
436.7655931798411189
 21
113.5267593788487943
 31
0.0
  0
ARC
  5
C050
  8
0
 10
436.7577957934230994
 20
113.5278552300478054
 30
0.0
 40
0.0078740157990481
 50
270.0000006265242973
 51
351.9999999758852027
  0
LINE
  5
C051
  8
0
 10
436.7577957935091035
 20
113.5199812142488014
 30
0.0
 11
436.6505010087092273
 21
113.5199812130754964
 31
0.0
  0
ARC
  5
C052
  8
0
 10
436.6505010086216885
 20
113.5279830062555959
 30
0.0
 40
0.0080017931800924
 50
188.7961336299165964
 51
270.0000006265373145
  0
LINE
  5
C053
  8
0
 10
436.6425933269090933
 20
113.5267593788487943
 30
0.0
 11
436.6353331038595229
 21
113.5790363867786965
 31
0.0
  0
LINE
  5
C054
  8
0
 10
436.7582316352090857
 20
113.5790363323488066
 30
0.0
 11
436.7508845885091091
 21
113.5267593788487943
 31
0.0
  0
ARC
  5
C055
  8
0
 10
436.7430872020914876
 20
113.5278552300472938
 30
0.0
 40
0.0078740157985337
 50
270.0000008561250979
 51
351.999999979138579
  0
LINE
  5
C056
  8
0
 10
436.5792057451590722
 20
113.5785724626487934
 30
0.0
 11
436.5719238910911031
 21
113.5267593788487943
 31
0.0
  0
ARC
  5
C057
  8
0
 10
436.5641265046730837
 20
113.5278552300478054
 30
0.0
 40
0.0078740157990481
 50
270.0000006265242973
 51
351.9999999758852027
  0
LINE
  5
C058
  8
0
 10
436.5641265047590878
 20
113.5199812142488014
 30
0.0
 11
436.4568317199592116
 21
113.5199812130754964
 31
0.0
  0
ARC
  5
C059
  8
0
 10
436.4568317198716159
 20
113.5279830062555959
 30
0.0
 40
0.0080017931800924
 50
188.7961336299165964
 51
270.0000006265373145
  0
LINE
  5
C05A
  8
0
 10
436.4489240381590776
 20
113.5267593788487943
 30
0.0
 11
436.4416638151095071
 21
113.5790363867786965
 31
0.0
  0
LINE
  5
C05B
  8
0
 10
436.5645623464591267
 20
113.5790363323488066
 30
0.0
 11
436.557215299759207
 21
113.5267593788487943
 31
0.0
  0
ARC
  5
C05C
  8
0
 10
436.5494179133414718
 20
113.5278552300472938
 30
0.0
 40
0.0078740157985337
 50
270.0000008561250979
 51
351.999999979138579
  0
LINE
  5
C05D
  8
0
 10
436.4480718843091722
 20
113.5785724626487934
 30
0.0
 11
436.4407900302412031
 21
113.5267593788487943
 31
0.0
  0
ARC
  5
C05E
  8
0
 10
436.4329926438230132
 20
113.5278552300478054
 30
0.0
 40
0.0078740157990481
 50
270.0000006265242973
 51
351.9999999758852027
  0
LINE
  5
C05F
  8
0
 10
436.4329926439091878
 20
113.5199812142488014
 30
0.0
 11
436.3256978591091979
 21
113.5199812130754964
 31
0.0
  0
ARC
  5
C060
  8
0
 10
436.3256978590217159
 20
113.5279830062555959
 30
0.0
 40
0.0080017931800924
 50
188.7961336299165964
 51
270.0000006265373145
  0
LINE
  5
C061
  8
0
 10
436.3177901773091776
 20
113.5267593788487943
 30
0.0
 11
436.3105299542594935
 21
113.5790363867786965
 31
0.0
  0
LINE
  5
C062
  8
0
 10
436.4334284856091131
 20
113.5790363323488066
 30
0.0
 11
436.4260814389090797
 21
113.5267593788487943
 31
0.0
  0
ARC
  5
C063
  8
0
 10
436.418284052491515
 20
113.5278552300472938
 30
0.0
 40
0.0078740157985337
 50
270.0000008561250979
 51
351.999999979138579
  0
LINE
  5
C064
  8
0
 10
436.2377605861091183
 20
113.5785724626487934
 30
0.0
 11
436.2304787320412061
 21
113.5267593788487943
 31
0.0
  0
ARC
  5
C065
  8
0
 10
436.2226813456230161
 20
113.5278552300478054
 30
0.0
 40
0.0078740157990481
 50
270.0000006265242973
 51
351.9999999758852027
  0
LINE
  5
C066
  8
0
 10
436.222681345709077
 20
113.5199812142488014
 30
0.0
 11
436.1153865609090872
 21
113.5199812130754964
 31
0.0
  0
ARC
  5
C067
  8
0
 10
436.1153865608216051
 20
113.5279830062555959
 30
0.0
 40
0.0080017931800924
 50
188.7961336299165964
 51
270.0000006265373145
  0
LINE
  5
C068
  8
0
 10
436.1074788791091805
 20
113.5267593788487943
 30
0.0
 11
436.1002186560594964
 21
113.5790363867786965
 31
0.0
  0
LINE
  5
C069
  8
0
 10
436.2231171874091729
 20
113.5790363323488066
 30
0.0
 11
436.2157701407091963
 21
113.5267593788487943
 31
0.0
  0
ARC
  5
C06A
  8
0
 10
436.207972754291518
 20
113.5278552300472938
 30
0.0
 40
0.0078740157985337
 50
270.0000008561250979
 51
351.999999979138579
  0
LINE
  5
C06B
  8
0
 10
436.0898479669752987
 20
113.5785724626487934
 30
0.0
 11
436.0825661129072728
 21
113.5267593788487943
 31
0.0
  0
ARC
  5
C06C
  8
0
 10
436.0747687264891965
 20
113.5278552300478054
 30
0.0
 40
0.0078740157990481
 50
270.0000006265242973
 51
351.9999999758852027
  0
LINE
  5
C06D
  8
0
 10
436.0747687265753143
 20
113.5199812142488014
 30
0.0
 11
435.9674739417753244
 21
113.5199812130754964
 31
0.0
  0
ARC
  5
C06E
  8
0
 10
435.9674739416877856
 20
113.5279830062555959
 30
0.0
 40
0.0080017931800924
 50
188.7961336299165964
 51
270.0000006265373145
  0
LINE
  5
C06F
  8
0
 10
435.9595662599753041
 20
113.5267593788487943
 30
0.0
 11
435.9523060369256768
 21
113.5790363867786965
 31
0.0
  0
LINE
  5
C070
  8
0
 10
436.0752045682752964
 20
113.5790363323488066
 30
0.0
 11
436.0678575215753199
 21
113.5267593788487943
 31
0.0
  0
ARC
  5
C071
  8
0
 10
436.0600601351576984
 20
113.5278552300472938
 30
0.0
 40
0.0078740157985337
 50
270.0000008561250979
 51
351.999999979138579
  0
LINE
  5
C072
  8
0
 10
435.8947168290815739
 20
113.5785724626487934
 30
0.0
 11
435.8874349750136048
 21
113.5267593788487943
 31
0.0
  0
ARC
  5
C073
  8
0
 10
435.8796375885954717
 20
113.5278552300478054
 30
0.0
 40
0.0078740157990481
 50
270.0000006265242973
 51
351.9999999758852027
  0
LINE
  5
C074
  8
0
 10
435.8796375886815895
 20
113.5199812142488014
 30
0.0
 11
435.7723428038815996
 21
113.5199812130754964
 31
0.0
  0
ARC
  5
C075
  8
0
 10
435.7723428037941176
 20
113.5279830062555959
 30
0.0
 40
0.0080017931800924
 50
188.7961336299165964
 51
270.0000006265373145
  0
LINE
  5
C076
  8
0
 10
435.7644351220815793
 20
113.5267593788487943
 30
0.0
 11
435.7571748990320089
 21
113.5790363867786965
 31
0.0
  0
LINE
  5
C077
  8
0
 10
435.8800734303815716
 20
113.5790363323488066
 30
0.0
 11
435.8727263836815951
 21
113.5267593788487943
 31
0.0
  0
ARC
  5
C078
  8
0
 10
435.8649289972639167
 20
113.5278552300472938
 30
0.0
 40
0.0078740157985337
 50
270.0000008561250979
 51
351.999999979138579
  0
LINE
  5
C079
  8
0
 10
435.6085064558590716
 20
113.5785724626487934
 30
0.0
 11
435.6012246017911025
 21
113.5267593788487943
 31
0.0
  0
ARC
  5
C07A
  8
0
 10
435.5934272153730831
 20
113.5278552300478054
 30
0.0
 40
0.0078740157990481
 50
270.0000006265242973
 51
351.9999999758852027
  0
LINE
  5
C07B
  8
0
 10
435.5934272154590872
 20
113.5199812142488014
 30
0.0
 11
435.4861324306590973
 21
113.5199812130754964
 31
0.0
  0
ARC
  5
C07C
  8
0
 10
435.4861324305716721
 20
113.5279830062555959
 30
0.0
 40
0.0080017931800924
 50
188.7961336299165964
 51
270.0000006265373145
  0
LINE
  5
C07D
  8
0
 10
435.4782247488591906
 20
113.5267593788487943
 30
0.0
 11
435.4709645258095065
 21
113.5790363867786965
 31
0.0
  0
LINE
  5
C07E
  8
0
 10
435.593863057159183
 20
113.5790363323488066
 30
0.0
 11
435.5865160104592064
 21
113.5267593788487943
 31
0.0
  0
ARC
  5
C07F
  8
0
 10
435.5787186240415281
 20
113.5278552300472938
 30
0.0
 40
0.0078740157985337
 50
270.0000008561250979
 51
351.999999979138579
  0
LINE
  5
C080
  8
0
 10
435.4443749537591088
 20
113.5785724626487934
 30
0.0
 11
435.4370930996910829
 21
113.5267593788487943
 31
0.0
  0
ARC
  5
C081
  8
0
 10
435.4292957132730066
 20
113.5278552300478054
 30
0.0
 40
0.0078740157990481
 50
270.0000006265242973
 51
351.9999999758852027
  0
LINE
  5
C082
  8
0
 10
435.4292957133591244
 20
113.5199812142488014
 30
0.0
 11
435.3220009285591914
 21
113.5199812130754964
 31
0.0
  0
ARC
  5
C083
  8
0
 10
435.3220009284717094
 20
113.5279830062555959
 30
0.0
 40
0.0080017931800924
 50
188.7961336299165964
 51
270.0000006265373145
  0
LINE
  5
C084
  8
0
 10
435.3140932467591142
 20
113.5267593788487943
 30
0.0
 11
435.306833023709487
 21
113.5790363867786965
 31
0.0
  0
LINE
  5
C085
  8
0
 10
435.4297315550592202
 20
113.5790363323488066
 30
0.0
 11
435.4223845083590732
 21
113.5267593788487943
 31
0.0
  0
ARC
  5
C086
  8
0
 10
435.4145871219413948
 20
113.5278552300472938
 30
0.0
 40
0.0078740157985337
 50
270.0000008561250979
 51
351.999999979138579
  0
LINE
  5
C087
  8
0
 10
435.1048632128091072
 20
113.5785724626487934
 30
0.0
 11
435.0975813587410812
 21
113.5267593788487943
 31
0.0
  0
ARC
  5
C088
  8
0
 10
435.0897839723230049
 20
113.5278552300478054
 30
0.0
 40
0.0078740157990481
 50
270.0000006265242973
 51
351.9999999758852027
  0
LINE
  5
C089
  8
0
 10
435.0897839724091227
 20
113.5199812142488014
 30
0.0
 11
434.9824891876091897
 21
113.5199812130754964
 31
0.0
  0
ARC
  5
C08A
  8
0
 10
434.9824891875217077
 20
113.5279830062555959
 30
0.0
 40
0.0080017931800924
 50
188.7961336299165964
 51
270.0000006265373145
  0
LINE
  5
C08B
  8
0
 10
434.9745815058091125
 20
113.5267593788487943
 30
0.0
 11
434.9673212827594853
 21
113.5790363867786965
 31
0.0
  0
LINE
  5
C08C
  8
0
 10
435.0902198141092185
 20
113.5790363323488066
 30
0.0
 11
435.0828727674091283
 21
113.5267593788487943
 31
0.0
  0
ARC
  5
C08D
  8
0
 10
435.0750753809915068
 20
113.5278552300472938
 30
0.0
 40
0.0078740157985337
 50
270.0000008561250979
 51
351.999999979138579
  0
LINE
  5
C08E
  8
0
 10
434.8950986185130887
 20
113.5790363929641984
 30
0.0
 11
434.8877515632912036
 21
113.5267593788487943
 31
0.0
  0
ARC
  5
C08F
  8
0
 10
434.8799541768730137
 20
113.5278552300478054
 30
0.0
 40
0.0078740157990481
 50
270.0000006265242973
 51
351.9999999758852027
  0
LINE
  5
C090
  8
0
 10
434.8799541769591883
 20
113.5199812142488014
 30
0.0
 11
434.7726593921590847
 21
113.5199812130754964
 31
0.0
  0
ARC
  5
C091
  8
0
 10
434.7726593920716027
 20
113.5279830062555959
 30
0.0
 40
0.0080017931800924
 50
188.7961336299165964
 51
270.0000006265373145
  0
LINE
  5
C092
  8
0
 10
434.7647517103591781
 20
113.5267593788487943
 30
0.0
 11
434.7574914864504763
 21
113.5790363929641984
 31
0.0
  0
LINE
  5
C093
  8
0
 10
434.8803900271781231
 20
113.5790363929641984
 30
0.0
 11
434.8730429719591939
 21
113.5267593788487943
 31
0.0
  0
ARC
  5
C094
  8
0
 10
434.8652455855415155
 20
113.5278552300472938
 30
0.0
 40
0.0078740157985337
 50
270.0000008561250979
 51
351.999999979138579
  0
LINE
  5
C095
  8
0
 10
438.4290658690591158
 20
115.1592609252488018
 30
0.0
 11
438.4291373606591833
 21
115.6598150085488044
 31
0.0
  0
LINE
  5
C096
  8
0
 10
438.4291373606591833
 20
115.6598150085488044
 30
0.0
 11
438.468435739059089
 21
115.6598150085488044
 31
0.0
  0
LINE
  5
C097
  8
0
 10
438.4684359166590752
 20
115.6598150085488044
 30
0.0
 11
438.4684359166590752
 21
115.9747756384488042
 31
0.0
  0
LINE
  5
C098
  8
0
 10
437.5235540269591183
 20
115.9747756384488042
 30
0.0
 11
437.5235540269591183
 21
115.6598150085488044
 31
0.0
  0
LINE
  5
C099
  8
0
 10
437.5235540269591183
 20
115.6598150085488044
 30
0.0
 11
437.5628525829591808
 21
115.6598150085488044
 31
0.0
  0
LINE
  5
C09A
  8
0
 10
437.5628525829591808
 20
115.6598150085488044
 30
0.0
 11
437.5628525829591808
 21
115.1592870296160953
 31
0.0
  0
CIRCLE
  5
C09B
  8
0
 10
437.9961291024591219
 20
115.0495787880488052
 30
0.0
 40
0.0236220472
  0
LINE
  5
C09C
  8
0
 10
437.6022941844091179
 20
116.1409567408487931
 30
0.0
 11
437.6022941844591969
 21
116.9283583157988033
 31
0.0
  0
ARC
  5
C09D
  8
0
 10
439.9644989088591274
 20
116.9283583156487936
 30
0.0
 40
2.362204724399994
 50
90.0
 51
179.999999996361197
  0
LINE
  5
C09E
  8
0
 10
439.9644989088591274
 20
119.2905630400487951
 30
0.0
 11
451.7755225308591207
 21
119.2905630400487951
 31
0.0
  0
ARC
  5
C09F
  8
0
 10
451.7755225308591207
 20
116.9283583156487936
 30
0.0
 40
2.3622047244000051
 50
0.0000000000008142
 51
90.0
  0
LINE
  5
C0A0
  8
0
 10
454.137727255259108
 20
116.9283583156487936
 30
0.0
 11
454.1377272552592785
 21
108.841897613648797
 31
0.0
  0
LINE
  5
C0A1
  8
0
 10
438.3896957592090757
 20
116.1409567408487931
 30
0.0
 11
438.3896957592590979
 21
116.9283583156487936
 31
0.0
  0
ARC
  5
C0A2
  8
0
 10
439.9644989089591149
 20
116.928358315548806
 30
0.0
 40
1.5748031497000019
 50
90.0000000036379646
 51
179.9999999963619928
  0
LINE
  5
C0A3
  8
0
 10
439.9644989088591274
 20
118.5031614652487946
 30
0.0
 11
451.7755225308591207
 21
118.5031614659988008
 31
0.0
  0
ARC
  5
C0A4
  8
0
 10
451.7755225309591083
 20
116.9283583164988016
 30
0.0
 40
1.574803149499999
 50
359.9999999690742243
 51
90.0000000036379646
  0
LINE
  5
C0A5
  8
0
 10
453.350325680459207
 20
116.9283583156487936
 30
0.0
 11
453.3503256760944282
 21
108.841897613648797
 31
0.0
  0
LINE
  5
C0A6
  8
0
 10
453.1141052080591862
 20
108.841897613648797
 30
0.0
 11
454.3739440171592037
 21
108.841897613648797
 31
0.0
  0
ARC
  5
C0A7
  8
0
 10
454.3739440171592037
 20
108.822208863299096
 30
0.0
 40
0.0196887503497152
 50
0.0107991494746725
 51
90.0000000000032543
  0
LINE
  5
C0A8
  8
0
 10
454.3936327671592039
 20
108.8222125742487947
 30
0.0
 11
454.3937143926650037
 21
108.3891417158412054
 31
0.0
  0
ARC
  5
C0A9
  8
0
 10
454.3740328498270173
 20
108.3891380062498939
 30
0.0
 40
0.0196815431875938
 50
269.7380542754772819
 51
0.0107991494640876
  0
LINE
  5
C0AA
  8
0
 10
454.3739428697591052
 20
108.3694566687487963
 30
0.0
 11
453.1141232320312042
 21
108.3694566687487963
 31
0.0
  0
ARC
  5
C0AB
  8
0
 10
453.1141052221233849
 20
108.3891417139743965
 30
0.0
 40
0.0196850534642729
 50
180.0000169561527912
 51
270.0524200682717719
  0
LINE
  5
C0AC
  8
0
 10
453.0944201686592123
 20
108.3891417081487987
 30
0.0
 11
453.0944201686594965
 21
108.8222125742487947
 31
0.0
  0
ARC
  5
C0AD
  8
0
 10
453.1141052080595273
 20
108.8222125742487947
 30
0.0
 40
0.0196850394000023
 50
90.0000000009314647
 51
179.9999999999380975
  0
ARC
  5
C0AE
  8
0
 10
453.8358131498823127
 20
108.8406005856122931
 30
0.0
 40
0.0013791966320455
 50
19.5300503263987508
 51
70.1226638859520364
  0
ARC
  5
C0AF
  8
0
 10
453.8115329065599894
 20
108.8319881665129003
 30
0.0
 40
0.0271416495146863
 50
3.9279479851861931
 51
19.5300503263899898
  0
ARC
  5
C0B0
  8
0
 10
453.5616660584302053
 20
108.8148315020478947
 30
0.0
 40
0.2775968210122333
 50
1.5236274350885251
 51
3.9279479851870049
  0
LINE
  5
C0B1
  8
0
 10
453.8391647337591053
 20
108.8222125742487947
 30
0.0
 11
453.8391655732592085
 21
108.3891417081487987
 31
0.0
  0
ARC
  5
C0B2
  8
0
 10
453.7487604427950032
 20
108.3877051435560048
 30
0.0
 40
0.0904165434644641
 50
351.5537486924658879
 51
0.9103704741862761
  0
ARC
  5
C0B3
  8
0
 10
453.8261404700368189
 20
108.3762148215082988
 30
0.0
 40
0.0121880568582937
 50
326.3244277985926942
 51
351.5537486924682753
  0
ARC
  5
C0B4
  8
0
 10
454.2266394635443021
 20
108.8406005856122931
 30
0.0
 40
0.0013791966320455
 50
19.5300503263987508
 51
70.1226638859520364
  0
ARC
  5
C0B5
  8
0
 10
454.2023592202219788
 20
108.8319881665129003
 30
0.0
 40
0.0271416495146863
 50
3.9279479851861931
 51
19.5300503263899898
  0
ARC
  5
C0B6
  8
0
 10
453.9524923720921947
 20
108.8148315020478947
 30
0.0
 40
0.2775968210122333
 50
1.5236274350885251
 51
3.9279479851870049
  0
LINE
  5
C0B7
  8
0
 10
454.2299910474210947
 20
108.8222125742487947
 30
0.0
 11
454.2299918869210842
 21
108.3891417081487987
 31
0.0
  0
ARC
  5
C0B8
  8
0
 10
454.1395867564569926
 20
108.3877051435560048
 30
0.0
 40
0.0904165434644641
 50
351.5537486924658879
 51
0.9103704741862761
  0
ARC
  5
C0B9
  8
0
 10
454.2169667836986946
 20
108.3762148215082988
 30
0.0
 40
0.0121880568582937
 50
326.3244277985926942
 51
351.5537486924682753
  0
LINE
  5
C0BA
  8
0
 10
453.1928453654592204
 20
108.3694566687487963
 30
0.0
 11
453.1928453654592204
 21
108.3063110715488051
 31
0.0
  0
LINE
  5
C0BB
  8
0
 10
454.2952075702592083
 20
108.3694566687487963
 30
0.0
 11
454.2952075702592083
 21
108.3063110715488051
 31
0.0
  0
LINE
  5
C0BC
  8
0
 10
454.3739477277591732
 20
108.3063110715488051
 30
0.0
 11
453.1140953541591898
 21
108.3063110715488051
 31
0.0
  0
ARC
  5
C0BD
  8
0
 10
453.1140953541591898
 20
108.2866358835825054
 30
0.0
 40
0.0196751879663211
 50
90.0000000000032543
 51
180.0286881933043901
  0
LINE
  5
C0BE
  8
0
 10
453.0944201686592123
 20
108.2866260321488028
 30
0.0
 11
453.0944201686592123
 21
107.0858387810697963
 31
0.0
  0
ARC
  5
C0BF
  8
0
 10
453.1141052044350204
 20
107.0858386290476005
 30
0.0
 40
0.0196850357758508
 50
179.9999956306120055
 51
270.0000105484674009
  0
LINE
  5
C0C0
  8
0
 10
453.1141052080591862
 20
107.0661535932718067
 30
0.0
 11
454.3739477277591732
 21
107.0661535932718067
 31
0.0
  0
ARC
  5
C0C1
  8
0
 10
454.3739477313808948
 20
107.0858386290500022
 30
0.0
 40
0.0196850357782456
 50
269.9999894584403819
 51
0.0000043624394375
  0
LINE
  5
C0C2
  8
0
 10
454.3936327671592039
 20
107.0858386305488068
 30
0.0
 11
454.3936327671764843
 21
107.3319016227488021
 31
0.0
  0
ARC
  5
C0C3
  8
0
 10
454.4330028458792867
 20
107.3319016227460025
 30
0.0
 40
0.0393700787027811
 50
89.9999999241731246
 51
179.9999999959410957
  0
LINE
  5
C0C4
  8
0
 10
454.4330028459314121
 20
107.3712717014488049
 30
0.0
 11
454.6692233182591281
 21
107.3712717011361946
 31
0.0
  0
LINE
  5
C0C5
  8
0
 10
454.6692233182591281
 20
107.1941063471488036
 30
0.0
 11
454.6692233182591281
 21
108.1783583156487936
 31
0.0
  0
LINE
  5
C0C6
  8
0
 10
454.6692233182591281
 20
108.1783583156487936
 30
0.0
 11
456.0274910347591231
 21
108.1783583156487936
 31
0.0
  0
LINE
  5
C0C7
  8
0
 10
454.6692233182591281
 20
107.1941063471488036
 30
0.0
 11
456.0274910347591231
 21
107.1941063471488036
 31
0.0
  0
LINE
  5
C0C8
  8
0
 10
454.6692233182591281
 20
108.0011929612488046
 30
0.0
 11
454.433002845874114
 21
108.0011929612488046
 31
0.0
  0
ARC
  5
C0C9
  8
0
 10
454.433002845874114
 20
108.0405630400637023
 30
0.0
 40
0.0393700788149118
 50
180.0000000387975945
 51
270.0
  0
LINE
  5
C0CA
  8
0
 10
454.3936327670592163
 20
108.0405630400370001
 30
0.0
 11
454.3936327668924946
 21
108.2866260321488028
 31
0.0
  0
ARC
  5
C0CB
  8
0
 10
454.3739477274792193
 20
108.2866260321355014
 30
0.0
 40
0.0196850394133321
 50
0.0000000387879076
 51
89.9999991851787371
  0
ARC
  5
C0CC
  8
0
 10
454.9552802831690883
 20
107.665768225142898
 30
0.0
 40
0.6207120710113346
 50
147.2900122611835911
 51
178.1106869302408882
  0
ARC
  5
C0CD
  8
0
 10
454.9662863023651767
 20
107.7101243572293043
 30
0.0
 40
0.6318325468313823
 50
182.1670910999364992
 51
212.4322097276686065
  0
LINE
  5
C0CE
  8
0
 10
456.0274910347591231
 20
106.4755605853488021
 30
0.0
 11
456.0274910347591231
 21
108.8968938802487969
 31
0.0
  0
ARC
  5
C0CF
  8
0
 10
456.0471865444872037
 20
108.8968938802487969
 30
0.0
 40
0.0196955097280807
 50
91.5296721703834351
 51
180.0000000000015916
  0
LINE
  5
C0D0
  8
0
 10
456.0466607798591099
 20
108.9165823711764034
 30
0.0
 11
456.4211866928861809
 21
108.9265837713899998
 31
0.0
  0
LINE
  5
C0D1
  8
0
 10
456.4211866928861809
 20
108.9265837713899998
 30
0.0
 11
456.4211918221591873
 21
106.446074851048806
 31
0.0
  0
LINE
  5
C0D2
  8
0
 10
456.4211918221591873
 20
106.446074851048806
 30
0.0
 11
456.0466607799017993
 21
106.4558822915200977
 31
0.0
  0
ARC
  5
C0D3
  8
0
 10
456.0471760742300944
 20
106.4755605880584994
 30
0.0
 40
0.0196850421106729
 50
179.9703279495550134
 51
268.5000000040404871
  0
LINE
  5
C0D4
  8
0
 10
453.2519004836591989
 20
107.0661535932718067
 30
0.0
 11
453.2519004836591989
 21
101.078755567875902
 31
0.0
  0
LINE
  5
C0D5
  8
0
 10
453.2519004836591989
 20
97.9874521371631602
 30
0.0
 11
453.2519004836591989
 21
83.6690725416488164
 31
0.0
  0
LINE
  5
C0D6
  8
0
 10
453.2519004836591989
 20
82.2592462646488229
 30
0.0
 11
453.2519004836591989
 21
76.062216583348814
 31
0.0
  0
LINE
  5
C0D7
  8
0
 10
454.2361524521592173
 20
107.0661535932718067
 30
0.0
 11
454.2361524521592173
 21
99.3650849172884421
 31
0.0
  0
LINE
  5
C0D8
  8
0
 10
454.2361524521592173
 20
96.5032157588549211
 30
0.0
 11
454.2361524521592173
 21
85.7497298365057503
 31
0.0
  0
LINE
  5
C0D9
  8
0
 10
454.2361524521592173
 20
84.1224194369833356
 30
0.0
 11
454.2361524521592173
 21
77.3319016227488163
 31
0.0
  0
ARC
  5
C0DA
  8
0
 10
454.2952075703591959
 20
77.3319016227488163
 30
0.0
 40
0.0590551181999999
 50
180.0000000000015916
 51
269.9999999029707851
  0
LINE
  5
C0DB
  8
0
 10
454.2952075702592083
 20
77.2728465045488235
 30
0.0
 11
456.0274910347591231
 21
77.2728465016152057
 31
0.0
  0
LINE
  5
C0DC
  8
0
 10
456.0466607798591099
 20
78.0504406389488139
 30
0.0
 11
456.4211918221591873
 21
78.0602480794488258
 31
0.0
  0
LINE
  5
C0DD
  8
0
 10
456.4211918221591873
 20
78.0602480794488258
 30
0.0
 11
456.4211918221591873
 21
75.5799433913488201
 31
0.0
  0
LINE
  5
C0DE
  8
0
 10
456.4211918221591873
 20
75.5799433913488201
 30
0.0
 11
456.0466607798591099
 21
75.589740559221255
 31
0.0
  0
ARC
  5
C0DF
  8
0
 10
456.0471900086577079
 20
75.6094257106402097
 30
0.0
 40
0.0196989750922114
 50
180.0199457611583966
 51
268.4605176025035007
  0
LINE
  5
C0E0
  8
0
 10
456.0274910347591231
 20
75.6094188530488225
 30
0.0
 11
456.0274910347591231
 21
78.0307521479488173
 31
0.0
  0
ARC
  5
C0E1
  8
0
 10
456.0471760763389852
 20
78.0307623403857349
 30
0.0
 40
0.0196850442185248
 50
91.5000059795485896
 51
180.0296663618194941
  0
LINE
  5
C0E2
  8
0
 10
456.0274910347591231
 20
76.3673346935488127
 30
0.0
 11
455.5944202132591272
 21
76.3673348666488181
 31
0.0
  0
ARC
  5
C0E3
  8
0
 10
455.5944953139210156
 20
76.3082487471309747
 30
0.0
 40
0.0591302690677384
 50
90.1193797152638467
 51
179.9748293985753094
  0
LINE
  5
C0E4
  8
0
 10
455.5353650505591077
 20
76.3082747236409347
 30
0.0
 11
455.5353650505591077
 21
76.2885945379478869
 31
0.0
  0
LINE
  5
C0E5
  8
0
 10
455.5353650505591077
 20
76.2885945360488051
 30
0.0
 11
454.6298532395592247
 21
76.2885945360488051
 31
0.0
  0
LINE
  5
C0E6
  8
0
 10
454.6298532395592247
 20
76.2885945360488051
 30
0.0
 11
454.6298534319639089
 21
76.3082797929498042
 31
0.0
  0
ARC
  5
C0E7
  8
0
 10
454.5707984886623763
 20
76.3082797502487296
 30
0.0
 40
0.0590549433015196
 50
0.0000414290751814
 51
90.0004011855344856
  0
LINE
  5
C0E8
  8
0
 10
454.570798075159189
 20
76.3673346935488127
 30
0.0
 11
454.2952075701617218
 21
76.3673327638617536
 31
0.0
  0
ARC
  5
C0E9
  8
0
 10
454.295207983669286
 20
76.3082771892023715
 30
0.0
 40
0.059055574660837
 50
90.0004011855344856
 51
179.9976260133869062
  0
LINE
  5
C0EA
  8
0
 10
454.2361524090591161
 20
76.3082796361041034
 30
0.0
 11
454.2361422137115028
 21
76.0622165835600299
 31
0.0
  0
LINE
  5
C0EB
  8
0
 10
454.2361422137115028
 20
76.0622165835600299
 30
0.0
 11
452.2739885670465014
 21
76.062216583348814
 31
0.0
  0
ARC
  5
C0EC
  8
0
 10
452.2739885670591207
 20
75.9441063471488178
 30
0.0
 40
0.1181102361999979
 50
90.0000000061685483
 51
180.0000000485113105
  0
LINE
  5
C0ED
  8
0
 10
452.1558783308590819
 20
75.944106347048816
 30
0.0
 11
452.1558783311925254
 21
75.5504055597488104
 31
0.0
  0
ARC
  5
C0EE
  8
0
 10
452.2739885676631957
 20
75.5504055599195254
 30
0.0
 40
0.1181102364707058
 50
180.0000000828071904
 51
269.9999997069745064
  0
ARC
  5
C0EF
  8
0
 10
454.2263099445520993
 20
75.442137831055831
 30
0.0
 40
0.0098425076070224
 50
269.9999296007277962
 51
0.0000703963857841
  0
LINE
  5
C0F0
  8
0
 10
454.2361524521592173
 20
75.4421378431488137
 30
0.0
 11
454.2361520120421119
 21
76.0523740636486565
 31
0.0
  0
ARC
  5
C0F1
  8
0
 10
454.2263094852331164
 20
76.0523740565499935
 30
0.0
 40
0.0098425268089838
 50
0.000041323113959
 51
89.9973965864960235
  0
LINE
  5
C0F2
  8
0
 10
453.2519004836591989
 20
75.4322953234488125
 30
0.0
 11
453.2519004836591989
 21
75.3929252447488238
 31
0.0
  0
LINE
  5
C0F3
  8
0
 10
453.2519004836591989
 20
75.3929252447488238
 30
0.0
 11
454.2361524521592173
 21
75.3929252447488238
 31
0.0
  0
LINE
  5
C0F4
  8
0
 10
454.2361524521592173
 20
75.3929252447488238
 30
0.0
 11
454.2361524521592173
 21
75.4322953234488125
 31
0.0
  0
LINE
  5
C0F5
  8
0
 10
454.2361524521592173
 20
75.3732402053488215
 30
0.0
 11
454.2361524521592173
 21
75.3141850872488163
 31
0.0
  0
LINE
  5
C0F6
  8
0
 10
454.2361524521592173
 20
75.3141850872488163
 30
0.0
 11
453.2519004836591989
 21
75.3141850872488163
 31
0.0
  0
LINE
  5
C0F7
  8
0
 10
453.2519004836591989
 20
75.3141850872488163
 30
0.0
 11
453.2519004836591989
 21
75.3732402053488215
 31
0.0
  0
LINE
  5
C0F8
  8
0
 10
453.2519004836591989
 20
75.3732402053488215
 30
0.0
 11
454.2361524521592173
 21
75.3732402053488215
 31
0.0
  0
LINE
  5
C0F9
  8
0
 10
453.3335423406247742
 20
73.8957985848488192
 30
0.0
 11
453.2952075702592083
 21
75.3141850872488163
 31
0.0
  0
LINE
  5
C0FA
  8
0
 10
454.1928453654592204
 20
75.3141850872488163
 30
0.0
 11
454.1545105951590813
 21
73.8957985848488192
 31
0.0
  0
ARC
  5
C0FB
  8
0
 10
454.1151548873979777
 20
73.8968622526251693
 30
0.0
 40
0.0393700790261578
 50
269.9935456313456257
 51
358.4518423024368872
  0
LINE
  5
C0FC
  8
0
 10
454.1151504523591029
 20
73.8574921738488115
 30
0.0
 11
453.3728980527687895
 21
73.857575788570216
 31
0.0
  0
ARC
  5
C0FD
  8
0
 10
453.3729024885950025
 20
73.8969528577145525
 30
0.0
 40
0.0393770693941879
 50
181.6797704299721943
 51
269.9935456313489226
  0
ARC
  5
C0FE
  8
0
 10
449.5722527062013114
 20
73.8098613519961759
 30
0.0
 40
3.8810007349062108
 50
329.9347312132751995
 51
0.7031984189220826
  0
ARC
  5
C0FF
  8
0
 10
451.2818068703957124
 20
72.8202514883462868
 30
0.0
 40
1.905677186079952
 50
295.6593144947469796
 51
329.9347312132751995
  0
ARC
  5
C100
  8
0
 10
451.6691597608207758
 20
72.3107933683120194
 30
0.0
 40
1.2996692913960799
 50
257.4963436555050862
 51
270.2905701009207746
  0
ARC
  5
C101
  8
0
 10
451.6774758238091181
 20
72.0664791892693728
 30
0.0
 40
1.0553398088963699
 50
269.9063506027260928
 51
294.0166615506000767
  0
ARC
  5
C102
  8
0
 10
451.8228125369863051
 20
72.5556848971756381
 30
0.0
 40
1.575007778119222
 50
216.0962775482367988
 51
253.9658356286084882
  0
ARC
  5
C103
  8
0
 10
453.3806718967409779
 20
73.6915404561872549
 30
0.0
 40
3.50298434325506
 50
189.37801346084089
 51
216.0962775482367988
  0
ARC
  5
C104
  8
0
 10
454.0911827990316283
 20
73.8673906585030409
 30
0.0
 40
4.2330470222396981
 50
156.5161820785966995
 51
190.1593528924967131
  0
LINE
  5
C105
  8
0
 10
450.2087478155917779
 20
75.5542177663761692
 30
0.0
 11
453.2519004836591989
 21
82.2592462646488229
 31
0.0
  0
LINE
  5
C106
  8
0
 10
453.2519004836591989
 20
83.6690725416488164
 30
0.0
 11
453.2519004836591989
 21
83.6690725416488164
 31
0.0
  0
LINE
  5
C107
  8
0
 10
453.2519004836591989
 20
83.6690725416488164
 30
0.0
 11
449.6617032161171892
 21
75.7601974401741245
 31
0.0
  0
ARC
  5
C108
  8
0
 10
453.8341903501748789
 20
73.9343592592578887
 30
0.0
 40
4.5544850363974891
 50
156.3662995813020871
 51
177.8035294568030906
  0
ARC
  5
C109
  8
0
 10
454.4081648135839941
 20
73.9123447938264064
 30
0.0
 40
5.1288815208348852
 50
177.8035294568030906
 51
199.681408569221901
  0
ARC
  5
C10A
  8
0
 10
452.5132795283072937
 20
73.2345712359522736
 30
0.0
 40
3.1164284803612339
 50
199.681408569221901
 51
230.1238523809911953
  0
ARC
  5
C10B
  8
0
 10
449.4490309535196957
 20
73.8274599438252324
 30
0.0
 40
4.5867183701701917
 50
333.9615190354281253
 51
0.3751554349153329
  0
ARC
  5
C10C
  8
0
 10
450.9763420323038758
 20
73.0812703558130181
 30
0.0
 40
2.8868718969159959
 50
309.4433896141351283
 51
333.9615190354281253
  0
LINE
  5
C10D
  8
0
 10
454.679065837959115
 20
76.2885945360488051
 30
0.0
 11
454.6790658379591719
 21
75.953948866848819
 31
0.0
  0
LINE
  5
C10E
  8
0
 10
454.6790658379591719
 20
75.953948866848819
 30
0.0
 11
455.4861524521592173
 21
75.953948866848819
 31
0.0
  0
LINE
  5
C10F
  8
0
 10
455.4861524521592173
 20
75.953948866848819
 30
0.0
 11
455.4270973339591251
 21
75.8948937486488262
 31
0.0
  0
LINE
  5
C110
  8
0
 10
455.4270973339591251
 20
75.8948937486488262
 30
0.0
 11
454.7381209560592197
 21
75.8948937486488262
 31
0.0
  0
LINE
  5
C111
  8
0
 10
454.7381209560592197
 20
75.8948937486488262
 30
0.0
 11
454.679065837959115
 21
75.953948866848819
 31
0.0
  0
LINE
  5
C112
  8
0
 10
455.4861524521592173
 20
76.2885945360488051
 30
0.0
 11
455.4861524521592173
 21
75.953948866848819
 31
0.0
  0
LINE
  5
C113
  8
0
 10
455.0826481316731247
 20
76.8200561734118565
 30
0.0
 11
454.6298534319591909
 21
76.3082795753488199
 31
0.0
  0
LINE
  5
C114
  8
0
 10
455.0826093959312857
 20
76.8200908826434556
 30
0.0
 11
455.5353650505591077
 21
76.3082747236409347
 31
0.0
  0
ARC
  5
C115
  8
0
 10
456.1984845440578056
 20
75.200315639394347
 30
0.0
 40
2.8138614052122728
 50
132.5624408630048947
 51
141.320385850681788
  0
ARC
  5
C116
  8
0
 10
454.1927385632758956
 20
76.8060498201816131
 30
0.0
 40
0.244542585219083
 50
141.3203858506824133
 51
176.7084632436774996
  0
ARC
  5
C117
  8
0
 10
454.2036981058489005
 20
76.8379919506164271
 30
0.0
 40
0.2557260422119807
 50
184.0141025542430953
 51
218.5028971610516066
  0
ARC
  5
C118
  8
0
 10
456.0452152108778137
 20
78.2982347094123554
 30
0.0
 40
2.6059372720570129
 50
218.4217159913870887
 51
227.8134753642472106
  0
LINE
  5
C119
  8
0
 10
451.019616941759125
 20
66.3922308399488088
 30
0.0
 11
451.925128851459192
 21
66.3922308399488088
 31
0.0
  0
LINE
  5
C11A
  8
0
 10
456.279459538759113
 20
68.8181211799488182
 30
0.0
 11
456.4015086132453121
 21
68.8181211799488182
 31
0.0
  0
LINE
  5
C11B
  8
0
 10
456.4015067828592009
 20
66.2196959831488243
 30
0.0
 11
456.2794595387587151
 21
66.2196959831488243
 31
0.0
  0
LINE
  5
C11C
  8
0
 10
453.6599944870853278
 20
69.4204846462964014
 30
0.0
 11
452.671635233958682
 21
69.4204846462964014
 31
0.0
  0
LINE
  5
C11D
  8
0
 10
451.1180420710592216
 20
65.9985299971063029
 30
0.0
 11
451.826703529759186
 21
65.9985299896062969
 31
0.0
  0
LINE
  5
C11E
  8
0
 10
451.826703529759186
 20
65.9985299896062969
 30
0.0
 11
451.8463884892590841
 21
66.0182149334488173
 31
0.0
  0
LINE
  5
C11F
  8
0
 10
451.8463884892590841
 20
66.0182149334488173
 30
0.0
 11
451.8463885410591843
 21
66.2938055728488109
 31
0.0
  0
LINE
  5
C120
  8
0
 10
451.8463885410591843
 20
66.2938055728488109
 30
0.0
 11
451.0983570449590729
 21
66.2938057134488048
 31
0.0
  0
LINE
  5
C121
  8
0
 10
451.0983570449590729
 20
66.2938057134488048
 30
0.0
 11
451.0983569931592001
 21
66.018215074148813
 31
0.0
  0
LINE
  5
C122
  8
0
 10
451.0983569931592001
 20
66.018215074148813
 30
0.0
 11
451.1180420710592216
 21
65.9985299971063029
 31
0.0
  0
ARC
  5
C123
  8
0
 10
456.4015036567133734
 20
66.2393841497451632
 30
0.0
 40
0.0196881668445389
 50
270.0090975943516014
 51
359.9784016515571921
  0
ARC
  5
C124
  8
0
 10
456.2794684633631732
 20
66.4165642981514139
 30
0.0
 40
0.196868315204907
 50
218.0025438857192057
 51
269.9974026183601268
  0
ARC
  5
C125
  8
0
 10
7095.3154154788071537
 20
5253.8746361661023911
 30
0.0
 40
8425.5466861655731918
 50
217.9973099216068988
 51
218.0025438857192057
  0
ARC
  5
C126
  8
0
 10
455.712541142922305
 20
66.9503452811604518
 30
0.0
 40
0.0787508956499026
 50
180.002690078379203
 51
217.9973099216068988
  0
LINE
  5
C127
  8
0
 10
455.6337902473591157
 20
66.9503415837488234
 30
0.0
 11
455.6337902473591157
 21
68.08747923994882
 31
0.0
  0
ARC
  5
C128
  8
0
 10
455.7118375352815178
 20
68.0877178140767967
 30
0.0
 40
0.0780476525569849
 50
141.8248594099393927
 51
180.1751405900585041
  0
ARC
  5
C129
  8
0
 10
305.4229887423456944
 20
185.9949014634069044
 30
0.0
 40
190.9424801547511095
 50
321.8845229405919213
 51
322.1154770460794907
  0
ARC
  5
C12A
  8
0
 10
456.292995642707524
 20
68.5935140569056614
 30
0.0
 40
0.2250146347058839
 50
93.4487986086455749
 51
138.5501091302120074
  0
LINE
  5
C12B
  8
0
 10
456.4211918130012009
 20
66.2393637613194812
 30
0.0
 11
456.421191822259118
 21
68.798437970948811
 31
0.0
  0
ARC
  5
C12C
  8
0
 10
456.4015086132453121
 20
68.7984379710200358
 30
0.0
 40
0.019683209013877
 50
359.9999997926925062
 51
90.0000000000618741
  0
LINE
  5
C12D
  8
0
 10
455.6337902473591157
 20
67.0043434827488227
 30
0.0
 11
455.3896957591591104
 21
67.0043434827488227
 31
0.0
  0
LINE
  5
C12E
  8
0
 10
455.3896959430591096
 20
66.9480424398488196
 30
0.0
 11
455.3896957591591104
 21
68.0897765535488162
 31
0.0
  0
LINE
  5
C12F
  8
0
 10
455.3896957591591104
 20
68.0897765535488162
 30
0.0
 11
455.3306406410591194
 21
68.1488298413488138
 31
0.0
  0
LINE
  5
C130
  8
0
 10
455.3306406410591194
 20
68.1488298413488138
 30
0.0
 11
454.8581996962591916
 21
68.1488298413488138
 31
0.0
  0
LINE
  5
C131
  8
0
 10
454.8581996962591916
 20
68.1488298413488138
 30
0.0
 11
454.799144578059213
 21
68.0897765535488162
 31
0.0
  0
LINE
  5
C132
  8
0
 10
454.799144578059213
 20
68.0897765535488162
 30
0.0
 11
454.799144578059213
 21
66.948044270148813
 31
0.0
  0
LINE
  5
C133
  8
0
 10
454.799144578059213
 20
66.948044270148813
 30
0.0
 11
454.8581996962591916
 21
66.8889873217488145
 31
0.0
  0
LINE
  5
C134
  8
0
 10
454.8581996962591916
 20
66.8889873217488145
 30
0.0
 11
455.3306408249591186
 21
66.8889873217488287
 31
0.0
  0
LINE
  5
C135
  8
0
 10
455.3306408249591186
 20
66.8889873217488287
 30
0.0
 11
455.3896959430588822
 21
66.9480444540484854
 31
0.0
  0
LINE
  5
C136
  8
0
 10
451.019616941759125
 20
66.3922308399488088
 30
0.0
 11
450.9999317675591897
 21
66.4119160194488387
 31
0.0
  0
LINE
  5
C137
  8
0
 10
450.9999317675591897
 20
66.4119160194488387
 30
0.0
 11
450.9999319547591199
 21
66.8608419378488179
 31
0.0
  0
LINE
  5
C138
  8
0
 10
450.1219312760591151
 20
66.5624080218488245
 30
0.0
 11
450.1691486484592133
 21
66.591912698448823
 31
0.0
  0
LINE
  5
C139
  8
0
 10
450.1691486484592133
 20
66.591912698448823
 30
0.0
 11
450.232082555371619
 21
66.864539628113306
 31
0.0
  0
LINE
  5
C13A
  8
0
 10
449.2484840602592158
 20
66.8044650488488259
 30
0.0
 11
449.2779887368590721
 21
66.7572476764488272
 31
0.0
  0
LINE
  5
C13B
  8
0
 10
449.2779887596093999
 20
66.7572476711964953
 30
0.0
 11
450.1219312760591151
 21
66.5624080218488245
 31
0.0
  0
LINE
  5
C13C
  8
0
 10
451.1180420843592174
 20
66.293805709748824
 30
0.0
 11
451.1180420843592174
 21
66.3922308399488088
 31
0.0
  0
LINE
  5
C13D
  8
0
 10
451.8267035016592104
 20
66.2938055765488201
 30
0.0
 11
451.8267035201591284
 21
66.3922308399488088
 31
0.0
  0
LINE
  5
C13E
  8
0
 10
451.9251287171591116
 20
66.3922307548488249
 30
0.0
 11
451.9448137600591053
 21
66.4119157390487942
 31
0.0
  0
LINE
  5
C13F
  8
0
 10
451.9448137600591053
 20
66.4119157390487942
 30
0.0
 11
451.9448138438590945
 21
66.85761926634882
 31
0.0
  0
ARC
  5
C140
  8
0
 10
451.464351275686397
 20
64.3787503749271082
 30
0.0
 40
2.524805909395603
 50
78.8022890778043035
 51
100.8268089487161063
  0
LINE
  5
C141
  8
0
 10
450.9900894345591951
 20
66.8586133925491453
 30
0.0
 11
450.2492264450718835
 21
66.8610122727857146
 31
0.0
  0
ARC
  5
C142
  8
0
 10
449.2671609966037067
 20
66.9552003388451595
 30
0.0
 40
0.008021922073257
 50
230.835717182813795
 51
270.7805192695971073
  0
ARC
  5
C143
  8
0
 10
450.0818532482948058
 20
82.2844362573629553
 30
0.0
 40
15.3588736781280009
 50
266.9597982349321228
 51
268.8856195283440798
  0
ARC
  5
C144
  8
0
 10
449.7140466428656964
 20
65.5168637628837871
 30
0.0
 40
1.4132940839015999
 50
81.5050074946212106
 51
87.1974724660734637
  0
ARC
  5
C145
  8
0
 10
449.4519694653578199
 20
63.0295558775183693
 30
0.0
 40
3.9135248562565659
 50
78.2455149460982966
 51
83.0897553080170042
  0
ARC
  5
C146
  8
0
 10
449.4515962174671131
 20
67.1449225696730281
 30
0.0
 40
0.2725873349046938
 50
186.8213332301648961
 51
225.957008452035808
  0
ARC
  5
C147
  8
0
 10
452.1646293283992009
 20
67.4694567481757161
 30
0.0
 40
3.004961960396284
 50
180.8184816369810903
 51
186.8213332301648961
  0
LINE
  5
C148
  8
0
 10
449.159973969459088
 20
67.4265317272488147
 30
0.0
 11
449.1573231488512192
 21
67.9799461058350545
 31
0.0
  0
ARC
  5
C149
  8
0
 10
449.1966890011819942
 20
67.9799906108908232
 30
0.0
 40
0.0393658774884047
 50
96.781836417164925
 51
180.0647757034427912
  0
LINE
  5
C14A
  8
0
 10
449.7831159174592131
 20
68.0541937870017364
 30
0.0
 11
449.1920403170652776
 21
68.0190810450968399
 31
0.0
  0
LINE
  5
C14B
  8
0
 10
449.7831159174592131
 20
68.0541937870017364
 30
0.0
 11
451.2656801563592239
 21
68.049052171448821
 31
0.0
  0
LINE
  5
C14C
  8
0
 10
451.2656801563592239
 20
68.049052171448821
 30
0.0
 11
451.2656802885059051
 21
68.0733332021488167
 31
0.0
  0
LINE
  5
C14D
  8
0
 10
451.6790660212328135
 20
68.0733332021488167
 30
0.0
 11
451.6790660359591811
 21
68.0470852213488229
 31
0.0
  0
LINE
  5
C14E
  8
0
 10
451.6790660359591811
 20
68.0470852213488229
 30
0.0
 11
452.2022571288591735
 21
68.0463193165488036
 31
0.0
  0
ARC
  5
C14F
  8
0
 10
452.2178510081773766
 20
68.4055969245483766
 30
0.0
 40
0.3596156442892413
 50
267.5155564832539881
 51
314.251097822146221
  0
ARC
  5
C150
  8
0
 10
452.0024007176191958
 20
68.5562024310090976
 30
0.0
 40
0.6197931321113747
 50
318.8070175607542183
 51
353.556445416377187
  0
ARC
  5
C151
  8
0
 10
450.5659378699854756
 20
68.7784065891670338
 30
0.0
 40
2.0729752028125539
 50
351.9090656991281207
 51
2.1050106224875669
  0
LINE
  5
C152
  8
0
 10
452.6375141988592077
 20
68.8545492521488143
 30
0.0
 11
452.637497814759115
 21
69.2905635746488144
 31
0.0
  0
ARC
  5
C153
  8
0
 10
452.6768695292572033
 20
69.2905608351887565
 30
0.0
 40
0.0393727780278349
 50
89.9993511483165349
 51
180.4233081262339908
  0
ARC
  5
C154
  8
0
 10
454.7065449249294034
 20
69.2845282010349734
 30
0.0
 40
0.0457549011340143
 50
7.5793476399188497
 51
82.9138168362785137
  0
LINE
  5
C155
  8
0
 10
454.7519000722592182
 20
69.2905632311488233
 30
0.0
 11
454.751935304249514
 21
67.9401702548082937
 31
0.0
  0
ARC
  5
C156
  8
0
 10
454.7125305887591935
 20
67.9718480070488198
 30
0.0
 40
0.0393700786999951
 50
0.0626052790602912
 51
60.0003220578170016
  0
ARC
  5
C157
  8
0
 10
454.7108673724944197
 20
67.9689671945784397
 30
0.0
 40
0.0426965436152939
 50
60.0003220578093206
 51
87.7671503363527847
  0
LINE
  5
C158
  8
0
 10
455.3896957682272841
 20
68.0334773409488207
 30
0.0
 11
455.6337902473591157
 21
68.0334773409488207
 31
0.0
  0
LINE
  5
C159
  8
0
 10
451.9546564724810196
 20
66.8554913169949714
 30
0.0
 11
454.712529799052902
 21
66.8546890408552343
 31
0.0
  0
ARC
  5
C15A
  8
0
 10
454.7126489122550765
 20
66.8939450945323557
 30
0.0
 40
0.0392551459375755
 50
269.9000011956492813
 51
319.2303391509440189
  0
ARC
  5
C15B
  8
0
 10
454.7178285877088797
 20
66.8920017803873748
 30
0.0
 40
0.0341168879983384
 50
316.0198726579172899
 51
2.9434687977731619
  0
LINE
  5
C15C
  8
0
 10
454.7519004997590741
 20
66.893763618248812
 30
0.0
 11
454.7519005031591064
 21
67.097650569348815
 31
0.0
  0
LINE
  5
C15D
  8
0
 10
454.799144578059213
 20
67.097650569348815
 30
0.0
 11
454.7323072092372058
 21
67.097650569348815
 31
0.0
  0
LINE
  5
C15E
  8
0
 10
454.799144578059213
 20
67.9401702543488142
 30
0.0
 11
454.7327746920415166
 21
67.9401702543488142
 31
0.0
  0
ARC
  5
C15F
  8
0
 10
442.4568292705793056
 20
2078.5791573288552172
 30
0.0
 40
2007.7523166440719251
 50
270.2219960842699038
 51
270.2780317387945956
  0
ARC
  5
C160
  8
0
 10
364.5655513231598093
 20
38358.0698193673233618
 30
0.0
 40
38287.3196307699181489
 50
270.1311416572553981
 51
270.1335632171861221
  0
ARC
  5
C161
  8
0
 10
453.3471939534805983
 20
55.7594061762546076
 30
0.0
 40
15.1021430374726293
 50
84.7963353920036411
 51
88.2145647446256191
  0
ARC
  5
C162
  8
0
 10
454.7120061127578197
 20
70.7601263430532867
 30
0.0
 40
0.0394856064644448
 50
0.1482028701982807
 51
82.8773365774367932
  0
LINE
  5
C163
  8
0
 10
454.7514915871302037
 20
70.7602284775164776
 30
0.0
 11
454.7514917577287861
 21
69.8689366535194551
 31
0.0
  0
ARC
  5
C164
  8
0
 10
454.6936672755999211
 20
69.8664751806547031
 30
0.0
 40
0.0578722133250853
 50
299.1099818334141105
 51
2.3539259215209452
  0
LINE
  5
C165
  8
0
 10
454.7218213896525754
 20
69.8159129522914839
 30
0.0
 11
454.0777930115706909
 21
69.5136010079019115
 31
0.0
  0
ARC
  5
C166
  8
0
 10
453.6599017263322935
 20
70.4047674233560485
 30
0.0
 40
0.9842827772835911
 50
269.998777777959674
 51
295.1230039941502241
  0
ARC
  5
C167
  8
0
 10
452.7694775325846877
 20
69.4623960017170532
 30
0.0
 40
0.1323979163082778
 50
181.0997916985236884
 51
183.8062790342094104
  0
ARC
  5
C168
  8
0
 10
452.6727909773708234
 20
69.4559634451209007
 30
0.0
 40
0.0354976183548076
 50
183.8062790342142137
 51
268.1342149811280251
  0
LINE
  5
C169
  8
0
 10
452.6371040063677924
 20
69.4598547815949132
 30
0.0
 11
452.6370250700090878
 21
70.2007950864988288
 31
0.0
  0
ARC
  5
C16A
  8
0
 10
451.7853550331556107
 20
70.202588653962863
 30
0.0
 40
0.8516719254257665
 50
359.8793386058023884
 51
7.6585501831208918
  0
ARC
  5
C16B
  8
0
 10
452.3160189943881164
 20
70.2739463554777757
 30
0.0
 40
0.3162317688101704
 50
7.6585501831208918
 51
45.1103774924430425
  0
ARC
  5
C16C
  8
0
 10
452.2871708180870769
 20
70.2068725789646493
 30
0.0
 40
0.3850514748204563
 50
49.116199738749529
 51
77.2516207878540229
  0
ARC
  5
C16D
  8
0
 10
452.179628434655001
 20
69.5199436196797933
 30
0.0
 40
1.0797880570074989
 50
79.7300308919822669
 51
92.9386149653989833
  0
ARC
  5
C16E
  8
0
 10
451.1732804067743245
 20
47.6298431047606172
 30
0.0
 40
22.9881477893230191
 50
87.6290670162479586
 51
92.3302256201605047
  0
ARC
  5
C16F
  8
0
 10
450.1727731929697143
 20
73.2411559245671526
 30
0.0
 40
2.6429943361836989
 50
265.4927745349665997
 51
271.42733035662161
  0
ARC
  5
C170
  8
0
 10
449.9529100787070774
 20
70.9158922793466644
 30
0.0
 40
0.304756213417124
 50
214.3005290061018115
 51
261.6040256995819959
  0
ARC
  5
C171
  8
0
 10
450.0285816620282731
 20
71.2554404752622048
 30
0.0
 40
0.6522046048797776
 50
259.3824648463772178
 51
264.4120336287757027
  0
ARC
  5
C172
  8
0
 10
449.7355412451797179
 20
70.7634843047599134
 30
0.0
 40
0.0394498215822286
 50
99.609114148890896
 51
209.3439173623733893
  0
ARC
  5
C173
  8
0
 10
450.2237633039966909
 20
67.8336506001580233
 30
0.0
 40
3.0096830682761251
 50
93.9371023629394983
 51
99.4626772265787054
  0
ARC
  5
C174
  8
0
 10
450.2154939721763185
 20
67.4118049038069245
 30
0.0
 40
3.4301673135147941
 50
89.6579460727472934
 51
93.3154812409500636
  0
ARC
  5
C175
  8
0
 10
453.765046411881201
 20
69.25897711699632
 30
0.0
 40
0.9501344678923983
 50
4.2829302487974763
 51
31.0416971666764496
  0
ARC
  5
C176
  8
0
 10
455.0034538958524877
 20
68.0347854587987939
 30
0.0
 40
0.1846751301359499
 50
141.8632455533256973
 51
218.136754446668391
  0
LINE
  5
C177
  8
0
 10
454.8581996962591916
 20
67.9207410762488166
 30
0.0
 11
454.8581996962591916
 21
67.7381137332488237
 31
0.0
  0
ARC
  5
C178
  8
0
 10
455.4487943524391085
 20
67.5189104118488217
 30
0.0
 40
0.6299620179194596
 50
159.6372411629178885
 51
200.3627588370827937
  0
LINE
  5
C179
  8
0
 10
454.8581996962591916
 20
67.2997070904488197
 30
0.0
 11
454.8581996962591916
 21
67.1170797474488126
 31
0.0
  0
ARC
  5
C17A
  8
0
 10
455.0034591589266029
 20
67.0030335345988277
 30
0.0
 40
0.1846804000425065
 50
141.8638072664541028
 51
218.1361927335530027
  0
ARC
  5
C17B
  8
0
 10
455.1853864414657096
 20
68.0347854587987939
 30
0.0
 40
0.1846751301359657
 50
321.863245553332888
 51
38.1367544466683768
  0
LINE
  5
C17C
  8
0
 10
455.3306406410591194
 20
67.9207410762488166
 30
0.0
 11
455.3306406410591194
 21
67.7381137332488237
 31
0.0
  0
ARC
  5
C17D
  8
0
 10
454.7400459848792025
 20
67.5189104118488217
 30
0.0
 40
0.6299620179194596
 50
339.6372411629171779
 51
20.3627588370820902
  0
LINE
  5
C17E
  8
0
 10
455.3306406410591194
 20
67.2997070904488197
 30
0.0
 11
455.3306406410591194
 21
67.1170797474488126
 31
0.0
  0
ARC
  5
C17F
  8
0
 10
455.1853808395732131
 20
67.003033417482726
 30
0.0
 40
0.1846807388615779
 50
321.8639359899904093
 51
38.1361563996962403
  0
LINE
  5
C180
  8
0
 10
454.8581996962591916
 20
67.9207410762487456
 30
0.0
 11
455.3306406410591194
 21
67.9207410762488166
 31
0.0
  0
LINE
  5
C181
  8
0
 10
454.8581996962591916
 20
67.7381137332488379
 30
0.0
 11
455.3306406410729892
 21
67.7381137332488379
 31
0.0
  0
LINE
  5
C182
  8
0
 10
454.8581996962591916
 20
67.2997070904488197
 30
0.0
 11
455.3306406410591194
 21
67.2997070904488197
 31
0.0
  0
LINE
  5
C183
  8
0
 10
454.8581996962591916
 20
67.1170797474488126
 30
0.0
 11
455.3306406410591194
 21
67.1170797474488126
 31
0.0
  0
LINE
  5
C184
  8
0
 10
454.7125308603590952
 20
68.0116313205488154
 30
0.0
 11
453.8640866601555786
 21
68.0113311506612774
 31
0.0
  0
ARC
  5
C185
  8
0
 10
453.8641002020995074
 20
67.9730542137845646
 30
0.0
 40
0.0382769392722126
 50
90.0202705928910945
 51
171.5475794816346991
  0
ARC
  5
C186
  8
0
 10
457.5153130329327951
 20
67.4304761735520941
 30
0.0
 40
3.7295837628488462
 50
171.5475794816346991
 51
188.2155261679417038
  0
ARC
  5
C187
  8
0
 10
453.8749140835204798
 20
66.9048796617194341
 30
0.0
 40
0.0514380066107565
 50
188.2155261679496903
 51
256.1541376276762207
  0
ARC
  5
C188
  8
0
 10
453.9362293888632962
 20
67.9925319410048985
 30
0.0
 40
0.0271168369479297
 50
4.0466922622354158
 51
43.984428595380578
  0
ARC
  5
C189
  8
0
 10
446.5809925603844022
 20
67.4721799940924285
 30
0.0
 40
7.4007370435810618
 50
359.5303318270375144
 51
4.0466922622354158
  0
ARC
  5
C18A
  8
0
 10
452.1828914244188127
 20
67.3131629226260628
 30
0.0
 40
1.8012766120042101
 50
349.6203349308465249
 51
3.1299796417388892
  0
ARC
  5
C18B
  8
0
 10
455.339144840438621
 20
65.9364492601346228
 30
0.0
 40
1.738904839784011
 50
142.7653589836504864
 51
148.1161807958557119
  0
ARC
  5
C18C
  8
0
 10
451.4723928961558954
 20
67.4709710147906208
 30
0.0
 40
1.425196833058421
 50
90.000000002133234
 51
101.6683995520515964
  0
ARC
  5
C18D
  8
0
 10
451.1889283313968235
 20
68.8435815643136948
 30
0.0
 40
0.0236220472777801
 50
101.6683995246718979
 51
198.5033210211283006
  0
ARC
  5
C18E
  8
0
 10
451.2635980363186263
 20
68.8685705107880892
 30
0.0
 40
0.1023622039896077
 50
198.5033210211283006
 51
268.846721001443882
  0
ARC
  5
C18F
  8
0
 10
451.2597944793175202
 20
68.6796324211171338
 30
0.0
 40
0.0866141669522828
 50
359.9999958790726282
 51
88.8467210014438962
  0
LINE
  5
C190
  8
0
 10
451.3464086462697082
 20
68.6796324148875215
 30
0.0
 11
451.3464086156878921
 21
68.2544355644875225
 31
0.0
  0
ARC
  5
C191
  8
0
 10
451.3660936536721806
 20
68.254435563071695
 30
0.0
 40
0.0196850379842034
 50
179.9999958790710082
 51
270.0000931328975753
  0
LINE
  5
C192
  8
0
 10
451.3660936856696821
 20
68.2347505250875201
 30
0.0
 11
451.5788019641682922
 21
68.2347508708396759
 31
0.0
  0
LINE
  5
C193
  8
0
 10
451.3936527407698236
 20
68.2347505698841132
 30
0.0
 11
451.3936527407698236
 21
68.0733332021488167
 31
0.0
  0
LINE
  5
C194
  8
0
 10
451.6790660167550868
 20
68.0733332021488167
 30
0.0
 11
451.2656999848696842
 21
68.0733332021488167
 31
0.0
  0
ARC
  5
C195
  8
0
 10
451.6849919332216814
 20
68.6796325087286448
 30
0.0
 40
0.0866141669522828
 50
91.1533026100320143
 51
180.0000277324004117
  0
LINE
  5
C196
  8
0
 10
451.5983777662693797
 20
68.6796324668055007
 30
0.0
 11
451.5983779720738767
 21
68.2544356164055444
 31
0.0
  0
ARC
  5
C197
  8
0
 10
451.5786929340897018
 20
68.2544356068775642
 30
0.0
 40
0.0196850379842031
 50
270.3173473828226747
 51
0.0000277324053385
  0
LINE
  5
C198
  8
0
 10
451.5511338551041831
 20
68.2347508258658308
 30
0.0
 11
451.5511339135397861
 21
68.0733332021488167
 31
0.0
  0
ARC
  5
C199
  8
0
 10
451.4723929002286127
 20
67.4709710147906634
 30
0.0
 40
1.4251968330583811
 50
78.3316004479482615
 51
90.0000001658667941
  0
ARC
  5
C19A
  8
0
 10
451.7558574649876846
 20
68.8435815643136948
 30
0.0
 40
0.0236220472777801
 50
341.4966789788708752
 51
78.3316004753280453
  0
ARC
  5
C19B
  8
0
 10
451.6811879346320779
 20
68.8685703835427603
 30
0.0
 40
0.1023619980650604
 50
271.1535085633655058
 51
341.4967155112952923
  0
LINE
  5
C19C
  8
0
 10
451.1841511008718157
 20
68.8667155044488197
 30
0.0
 11
451.7606346955125787
 21
68.8667155044488197
 31
0.0
  0
LINE
  5
C19D
  8
0
 10
456.1243393116586162
 20
68.7424658203480732
 30
0.0
 11
456.1243393116586162
 21
66.2953534083034555
 31
0.0
  0
LINE
  5
C19E
  8
0
 10
449.2812621503156834
 20
66.9464424330543153
 30
0.0
 11
449.2484840602592158
 21
66.8044650488488259
 31
0.0
  0
LINE
  5
C19F
  8
0
 10
451.0983570005590764
 20
66.0575851435488204
 30
0.0
 11
451.8463884966591877
 21
66.0575851435488204
 31
0.0
  0
LINE
  5
C1A0
  8
0
 10
449.2484840602592158
 20
66.8044650488488259
 30
0.0
 11
449.5248433437590734
 21
66.7406624262488037
 31
0.0
  0
LINE
  5
C1A1
  8
0
 10
449.5248433437590734
 20
66.7406624262488037
 30
0.0
 11
449.5514123875540804
 21
66.855745499749986
 31
0.0
  0
LINE
  5
C1A2
  8
0
 10
449.5514123875540804
 20
66.855745499749986
 30
0.0
 11
449.9193584087553859
 21
66.770798394532676
 31
0.0
  0
LINE
  5
C1A3
  8
0
 10
449.9193584087553859
 20
66.770798394532676
 30
0.0
 11
449.8927893649649263
 21
66.6557153210474809
 31
0.0
  0
LINE
  5
C1A4
  8
0
 10
449.8927893649649263
 20
66.6557153210474809
 30
0.0
 11
450.1691502109774206
 21
66.5919194672095216
 31
0.0
  0
ARC
  5
C1A5
  8
0
 10
449.8062361816657244
 20
67.1201601434060677
 30
0.0
 40
0.4724409450425384
 50
233.4435249289956005
 51
280.5564535298937017
  0
ARC
  5
C1A6
  8
0
 10
453.9136674792987947
 20
100.5856650928697036
 30
0.0
 40
0.45363432177387
 50
198.3247520131068029
 51
245.9837659612798859
  0
ARC
  5
C1A7
  8
0
 10
453.7169872638336869
 20
100.144250733152802
 30
0.0
 40
0.02961483147904
 50
20.1972436458544209
 51
65.9837659612759495
  0
LINE
  5
C1A8
  8
0
 10
453.7447810684590763
 20
100.1544753440488051
 30
0.0
 11
453.9406478849444966
 21
99.6173339373851832
 31
0.0
  0
ARC
  5
C1A9
  8
0
 10
453.9129081187824113
 20
99.607215531872626
 30
0.0
 40
0.0295275592767934
 50
289.9999789170021813
 51
20.0400350676257197
  0
LINE
  5
C1AA
  8
0
 10
453.923007128628285
 20
99.5794686985942548
 30
0.0
 11
453.0264314218591153
 21
99.2531418285488343
 31
0.0
  0
ARC
  5
C1AB
  8
0
 10
453.0163370534813225
 20
99.280962026505307
 30
0.0
 40
0.0295949266834121
 50
200.1612929212562051
 51
289.9429285747331733
  0
LINE
  5
C1AC
  8
0
 10
452.9885555239591781
 20
99.2707617175488366
 30
0.0
 11
451.522073852758524
 21
103.2924190337495958
 31
0.0
  0
ARC
  5
C1AD
  8
0
 10
453.0776162919765966
 20
99.2294704559146084
 30
0.0
 40
0.0397515354320367
 50
110.4918420536464936
 51
203.0068078918509116
  0
LINE
  5
C1AE
  8
0
 10
453.04102665647099
 20
99.2139339459212408
 30
0.0
 11
453.0860575795769023
 21
99.1089162500407213
 31
0.0
  0
ARC
  5
C1AF
  8
0
 10
453.8992028490591224
 20
99.5291856789488349
 30
0.0
 40
0.0393700786999882
 50
16.8590294357841088
 51
103.3984230448109969
  0
LINE
  5
C1B0
  8
0
 10
453.9368808495008807
 20
99.5406037076559613
 30
0.0
 11
453.9702205425098782
 21
99.4305870839338866
 31
0.0
  0
ARC
  5
C1B1
  8
0
 10
433.3392308536983819
 20
93.9700027897981869
 30
0.0
 40
23.1010006316361114
 50
329.5399674936259089
 51
346.1799250307785201
  0
ARC
  5
C1B2
  8
0
 10
444.5741475865647772
 20
90.6761711161337161
 30
0.0
 40
11.41612865344851
 50
348.7642576943093786
 51
0.0498607126357784
  0
LINE
  5
C1B3
  8
0
 10
455.9902719172591219
 20
90.6861058136488225
 30
0.0
 11
455.9902719172591219
 21
93.3417295902488036
 31
0.0
  0
ARC
  5
C1B4
  8
0
 10
451.8147450781074213
 20
93.2085114249232447
 30
0.0
 40
4.1776514292182529
 50
1.82737428942503
 51
22.8341714074728799
  0
ARC
  5
C1B5
  8
0
 10
437.6798587205033186
 20
87.0833147142038371
 30
0.0
 40
19.5824426067452713
 50
23.3020746800072516
 51
27.3362396168901185
  0
ARC
  5
C1B6
  8
0
 10
462.5906344513289241
 20
99.9606848275026039
 30
0.0
 40
8.4599076611329256
 50
200.5478224934018101
 51
207.3362396168901114
  0
LINE
  5
C1B7
  8
0
 10
454.6689498469955879
 20
96.9913497732581362
 30
0.0
 11
454.2339490057038915
 21
98.1842894738240375
 31
0.0
  0
LINE
  5
C1B8
  8
0
 10
453.6843671811321883
 20
97.8912516012012901
 30
0.0
 11
453.2045555832592072
 21
99.1670236298487566
 31
0.0
  0
ARC
  5
C1B9
  8
0
 10
453.1676028569763162
 20
99.1531258908754864
 30
0.0
 40
0.0394797559302102
 50
20.6110339506566014
 51
144.6433313067502127
  0
ARC
  5
C1BA
  8
0
 10
453.7444223108074084
 20
98.6761006089913053
 30
0.0
 40
0.787891806319356
 50
140.6214677636920101
 51
146.6786755602111043
  0
ARC
  5
C1BB
  8
0
 10
453.7443902380173881
 20
98.6763719557688432
 30
0.0
 40
0.7877159739883424
 50
146.693886201458696
 51
268.3358062434875251
  0
LINE
  5
C1BC
  8
0
 10
454.2945677863592095
 20
98.1134465042488273
 30
0.0
 11
453.8418878847857059
 21
99.3990978789036745
 31
0.0
  0
ARC
  5
C1BD
  8
0
 10
453.8786340877787779
 20
99.4120440050522944
 30
0.0
 40
0.0389735396626271
 50
90.8061580074321455
 51
199.5485892060453068
  0
ARC
  5
C1BE
  8
0
 10
453.8790839014661174
 20
99.3800766675196741
 30
0.0
 40
0.0709440417118234
 50
81.8565215523938861
 51
90.8061580074321455
  0
ARC
  5
C1BF
  8
0
 10
453.7440264678592143
 20
98.6763898116488178
 30
0.0
 40
0.7874015748000016
 50
311.7874652320002724
 51
79.3805113642009843
  0
LINE
  5
C1C0
  8
0
 10
453.1948138694592103
 20
98.1121498256887321
 30
0.0
 11
453.1948138694592103
 21
98.0913529684691383
 31
0.0
  0
ARC
  5
C1C1
  8
0
 10
453.7453104973703262
 20
98.7374488452282151
 30
0.0
 40
0.8487942567873139
 50
226.5288614373810958
 51
268.3934465845437103
  0
LINE
  5
C1C2
  8
0
 10
453.1613493025591879
 20
98.1214610098488151
 30
0.0
 11
453.1613493025591879
 21
98.070954338948809
 31
0.0
  0
ARC
  5
C1C3
  8
0
 10
453.1811086474086778
 20
98.070954338948809
 30
0.0
 40
0.0197593448495752
 50
179.9999999999878071
 51
226.9567098111178041
  0
ARC
  5
C1C4
  8
0
 10
453.7421927784581044
 20
98.6717327023002468
 30
0.0
 40
0.8417995166092284
 50
226.9567098111178041
 51
270.0568358113437739
  0
ARC
  5
C1C5
  8
0
 10
453.7440264678592143
 20
98.6763898116488463
 30
0.0
 40
0.8464566928999674
 50
47.0811785999986867
 51
75.9178025725007757
  0
ARC
  5
C1C6
  8
0
 10
454.3070420474164166
 20
99.2818677470797866
 30
0.0
 40
0.0196616317645598
 50
359.8761666919796767
 51
47.0811786000016426
  0
LINE
  5
C1C7
  8
0
 10
454.3267036332592284
 20
99.2818252524488116
 30
0.0
 11
454.3265944733985862
 21
99.2313187315124168
 31
0.0
  0
ARC
  5
C1C8
  8
0
 10
453.7444938698080819
 20
98.6184761278621238
 30
0.0
 40
0.8452320211333914
 50
46.4737088762283435
 51
74.5665072622456222
  0
LINE
  5
C1C9
  8
0
 10
454.2932390662591047
 20
99.2613570491229638
 30
0.0
 11
454.2932390662591047
 21
99.2406297976089036
 31
0.0
  0
LINE
  5
C1CA
  8
0
 10
454.2932390662592184
 20
98.1121857934488162
 30
0.0
 11
454.2932390662591047
 21
98.0913529684691383
 31
0.0
  0
ARC
  5
C1CB
  8
0
 10
453.7440264678592143
 20
98.735444929848569
 30
0.0
 40
0.8464566928997651
 50
308.7515055126085031
 51
313.5013836572098853
  0
LINE
  5
C1CC
  8
0
 10
454.3267036330406086
 20
98.121461009757013
 30
0.0
 11
454.3267021893590822
 21
98.0706836302488227
 31
0.0
  0
ARC
  5
C1CD
  8
0
 10
454.3065987497647029
 20
98.0711078326626762
 30
0.0
 40
0.0201079146411108
 50
313.4643949246300849
 51
358.7911818999817228
  0
LINE
  5
C1CE
  8
0
 10
454.3204310581725167
 20
98.0565134681568367
 30
0.0
 11
454.2902890478205222
 21
98.0297833979901156
 31
0.0
  0
LINE
  5
C1CF
  8
0
 10
453.6537293396526138
 20
97.9727146199176673
 30
0.0
 11
454.2655646522904931
 21
98.1958179968974321
 31
0.0
  0
LINE
  5
C1D0
  8
0
 10
453.6866395908591016
 20
97.9847152155488175
 30
0.0
 11
454.1212252140118153
 21
96.7918090710567611
 31
0.0
  0
ARC
  5
C1D1
  8
0
 10
459.0492871903426817
 20
98.5871430081038937
 30
0.0
 40
5.2449040780620937
 50
200.0171026283250058
 51
203.4110067148878045
  0
ARC
  5
C1D2
  8
0
 10
528.4220679194779677
 20
130.7883961538381925
 30
0.0
 40
81.7252938106723974
 50
204.8041208498281094
 51
206.0941034681216877
  0
ARC
  5
C1D3
  8
0
 10
452.0293095745967094
 20
93.2822461988148461
 30
0.0
 40
3.3789249901513481
 50
1.0087005040838519
 51
27.4872176030626392
  0
LINE
  5
C1D4
  8
0
 10
455.4077109443591098
 20
93.3417295902488036
 30
0.0
 11
455.4075947519590954
 21
90.6865173465365615
 31
0.0
  0
ARC
  5
C1D5
  8
0
 10
437.776540063548282
 20
92.26279787979459
 30
0.0
 40
17.7013811698359191
 50
330.9558567830276843
 51
354.8897951846623187
  0
LINE
  5
C1D6
  8
0
 10
448.1756407019444168
 20
107.0920441763638991
 30
0.0
 11
448.745500122307476
 21
107.6926413264295945
 31
0.0
  0
ARC
  5
C1D7
  8
0
 10
448.7670703021278769
 20
107.6741662778763953
 30
0.0
 40
0.0284007055639392
 50
48.8127958602611187
 51
85.9704241341305533
  0
ARC
  5
C1D8
  8
0
 10
448.7670703021278769
 20
107.6741662778763953
 30
0.0
 40
0.0284007055639392
 50
94.0295758658661924
 51
139.4196548311221022
  0
ARC
  5
C1D9
  8
0
 10
425.5240329803489772
 20
79.7152612501535742
 30
0.0
 40
36.3868728127324488
 50
43.6275736154108031
 51
50.2611524632009221
  0
ARC
  5
C1DA
  8
0
 10
451.2187521023458885
 20
104.3654018270975001
 30
0.0
 40
0.7885191963143344
 50
19.7456250031297209
 51
35.2986137664405391
  0
ARC
  5
C1DB
  8
0
 10
451.5509156637168076
 20
103.3020015580566024
 30
0.0
 40
0.0295773837205689
 50
155.6627123641607113
 51
199.5273138052409081
  0
ARC
  5
C1DC
  8
0
 10
451.1114315481394215
 20
103.4952392532869965
 30
0.0
 40
0.4505150744347076
 50
336.3048467130818153
 51
21.9220590582627999
  0
LINE
  5
C1DD
  8
0
 10
451.5293710415144233
 20
103.6634367924200006
 30
0.0
 11
451.4288774630143735
 21
103.9381404357200012
 31
0.0
  0
ARC
  5
C1DE
  8
0
 10
450.8762265321652194
 20
103.7281157414523989
 30
0.0
 40
0.5912135177502523
 50
20.8083619255700185
 51
40.8021195507591017
  0
ARC
  5
C1DF
  8
0
 10
450.8092795696891244
 20
103.6703243516334965
 30
0.0
 40
0.6796541222370414
 50
40.8021195507591017
 51
49.3063801827405683
  0
ARC
  5
C1E0
  8
0
 10
65969.4589154809073079
 20
70450.8903929954540217
 30
0.0
 40
96131.6506210392835783
 50
227.0328710650913138
 51
227.0353760573476052
  0
ARC
  5
C1E1
  8
0
 10
448.197092637478022
 20
107.0717448037120931
 30
0.0
 40
0.0295338800057496
 50
136.5812731281783954
 51
226.8729584166538871
  0
LINE
  5
C1E2
  8
0
 10
448.7650745446949827
 20
107.7024967743210055
 30
0.0
 11
448.7690660595608847
 21
107.7024967743210055
 31
0.0
  0
ARC
  5
C1E3
  8
0
 10
449.9893017229467773
 20
105.8627900642521951
 30
0.0
 40
0.4760028772711134
 50
222.5960162331637946
 51
227.0571412449716036
  0
ARC
  5
C1E4
  8
0
 10
449.7521772640101858
 20
105.6447733730462062
 30
0.0
 40
0.1538859937173968
 50
212.5027401903664952
 51
222.5960162331672905
  0
ARC
  5
C1E5
  8
0
 10
449.6356984518096738
 20
105.5705603540097997
 30
0.0
 40
0.0157741336685405
 50
184.951615926663095
 51
212.502740190363312
  0
ARC
  5
C1E6
  8
0
 10
449.6347075798460082
 20
105.5704745070416948
 30
0.0
 40
0.0147795498609997
 50
141.1389276797715979
 51
184.9516159266582065
  0
LINE
  5
C1E7
  8
0
 10
449.6231991934143934
 20
105.5797477015200059
 30
0.0
 11
449.6613029062133933
 21
105.6221183324342974
 31
0.0
  0
ARC
  5
C1E8
  8
0
 10
449.5380369655244976
 20
105.3810675956237048
 30
0.0
 40
0.2655356843020728
 50
46.6728573932125101
 51
56.9227148635989195
  0
ARC
  5
C1E9
  8
0
 10
449.4668077967147042
 20
105.3731360682761959
 30
0.0
 40
0.3159438486253768
 50
46.8318147219772598
 51
52.0044521424170085
  0
ARC
  5
C1EA
  8
0
 10
449.6284951865237076
 20
105.5814098218411061
 30
0.0
 40
0.0522831646512264
 50
51.1340353579990605
 51
68.0996018618507435
  0
ARC
  5
C1EB
  8
0
 10
449.6454049328306724
 20
105.623093401457794
 30
0.0
 40
0.0073018735138627
 50
69.2115300369473516
 51
97.4677998522152933
  0
ARC
  5
C1EC
  8
0
 10
449.6449758578787055
 20
105.6284224881786002
 30
0.0
 40
0.0019803277503879
 50
105.221635686551295
 51
159.4827432501425051
  0
ARC
  5
C1ED
  8
0
 10
449.6848197436103192
 20
105.6381386416991006
 30
0.0
 40
0.0426634566966164
 50
192.2085507917850862
 51
218.8258800689129941
  0
ARC
  5
C1EE
  8
0
 10
449.5759388891256094
 20
105.4204336506220017
 30
0.0
 40
0.1399908709702604
 50
46.5729732928055284
 51
54.0771757493364404
  0
ARC
  5
C1EF
  8
0
 10
449.6449313859799872
 20
105.5156627369450035
 30
0.0
 40
0.0223960432619965
 50
54.0778068209015998
 51
64.1994212083128986
  0
ARC
  5
C1F0
  8
0
 10
449.6522473151381973
 20
105.530796073142497
 30
0.0
 40
0.0055870967181137
 50
64.1994212083449582
 51
76.8905900034562393
  0
ARC
  5
C1F1
  8
0
 10
449.6533517924352168
 20
105.5355387529755973
 30
0.0
 40
0.0007175092511611
 50
76.8905900032956708
 51
131.1931273412185135
  0
ARC
  5
C1F2
  8
0
 10
449.6533812176185734
 20
105.5357619198910015
 30
0.0
 40
0.0005935600035988
 50
147.7474666857050067
 51
191.9631174319879108
  0
ARC
  5
C1F3
  8
0
 10
449.6617007245441755
 20
105.5385424703665933
 30
0.0
 40
0.0093618336440673
 50
198.0683481250617888
 51
218.8551431713038937
  0
ARC
  5
C1F4
  8
0
 10
449.7509599227926742
 20
105.6091930375131938
 30
0.0
 40
0.1231978308978852
 50
218.399814726060697
 51
227.8404534553357905
  0
ARC
  5
C1F5
  8
0
 10
449.4064099219023092
 20
105.2401375793047009
 30
0.0
 40
0.3925433047248991
 50
46.7024160751102926
 51
53.4421948542307419
  0
ARC
  5
C1F6
  8
0
 10
449.5919467650684851
 20
105.4903478998137984
 30
0.0
 40
0.0810483213602212
 50
53.4421948542230822
 51
62.9029004210253788
  0
ARC
  5
C1F7
  8
0
 10
449.6252328903332796
 20
105.5554028125210948
 30
0.0
 40
0.0079722801257748
 50
62.9029004210763674
 51
98.8583585056566676
  0
ARC
  5
C1F8
  8
0
 10
449.6267942459454048
 20
105.5620560899099019
 30
0.0
 40
0.0030457541273204
 50
156.3066635504665101
 51
205.272150184269691
  0
ARC
  5
C1F9
  8
0
 10
449.6380257069649815
 20
105.5646544353615042
 30
0.0
 40
0.0145189301584878
 50
195.5762610163741897
 51
208.1793102550714991
  0
ARC
  5
C1FA
  8
0
 10
449.9860578448673891
 20
105.8657810505651042
 30
0.0
 40
0.4760028772711134
 50
227.5882501437808116
 51
232.0493751555873132
  0
ARC
  5
C1FB
  8
0
 10
449.7879617043683993
 20
105.6117786769742963
 30
0.0
 40
0.1538859937173968
 50
232.04937515558629
 51
242.1426511983871137
  0
ARC
  5
C1FC
  8
0
 10
449.7234259260736735
 20
105.4896720874467064
 30
0.0
 40
0.0157741336685405
 50
242.1426511983879095
 51
269.6937754620884107
  0
ARC
  5
C1FD
  8
0
 10
449.723420610420078
 20
105.4886775178442946
 30
0.0
 40
0.0147795498609997
 50
269.6937754620947771
 51
313.5064637089807889
  0
LINE
  5
C1FE
  8
0
 10
449.7335953905640054
 20
105.4779579589392995
 30
0.0
 11
449.7727408697604119
 21
105.519368039253493
 31
0.0
  0
ARC
  5
C1FF
  8
0
 10
449.5424651105080898
 20
105.3769846675010058
 30
0.0
 40
0.2655356843020728
 50
37.7226765251533394
 51
47.9725339955410206
  0
ARC
  5
C200
  8
0
 10
449.5403283869720781
 20
105.3053471212842993
 30
0.0
 40
0.3159438486253768
 50
42.6409392463353001
 51
47.813576666776477
  0
ARC
  5
C201
  8
0
 10
449.7348231359267174
 20
105.4833711676273964
 30
0.0
 40
0.0522831646512264
 50
26.545789526903711
 51
43.5113560307556497
  0
ARC
  5
C202
  8
0
 10
449.7750002899429091
 20
105.5036012596928998
 30
0.0
 40
0.0073018735138627
 50
357.177591536538614
 51
25.43386135180317
  0
ARC
  5
C203
  8
0
 10
449.7803466209418843
 20
105.5036051893863061
 30
0.0
 40
0.0019803277503879
 50
295.162648138611587
 51
349.4237557022012197
  0
ARC
  5
C204
  8
0
 10
449.7868039576035244
 20
105.5441050865796058
 30
0.0
 40
0.0426634566966164
 50
235.8195113198385968
 51
262.4368405969660216
  0
ARC
  5
C205
  8
0
 10
449.5786322262342765
 20
105.4179502850558947
 30
0.0
 40
0.1399908711282218
 50
40.5682156415419826
 51
48.0724181108597506
  0
ARC
  5
C206
  8
0
 10
449.6679608838543913
 20
105.4944286118491021
 30
0.0
 40
0.0223960432619965
 50
30.4459701804398897
 51
40.5675845678505524
  0
ARC
  5
C207
  8
0
 10
449.6824520008048012
 20
105.5029461357522962
 30
0.0
 40
0.0055870967181137
 50
17.7548013852959912
 51
30.4459701804084695
  0
ARC
  5
C208
  8
0
 10
449.6870896510317266
 20
105.5044310877621996
 30
0.0
 40
0.0007175092511611
 50
323.4522640475342996
 51
17.7548013854558917
  0
ARC
  5
C209
  8
0
 10
449.6873097017468126
 20
105.5044784902554937
 30
0.0
 40
0.0005935600035988
 50
262.6822739567642202
 51
306.8979247030482043
  0
ARC
  5
C20A
  8
0
 10
449.6894073331744153
 20
105.5129958606728025
 30
0.0
 40
0.0093618336440673
 50
235.7902482174501131
 51
256.577043263690598
  0
ARC
  5
C20B
  8
0
 10
449.7525968399119165
 20
105.6076837339638956
 30
0.0
 40
0.1231978308978852
 50
226.8049379334171931
 51
236.2455766626914055
  0
ARC
  5
C20C
  8
0
 10
449.4126583319809924
 20
105.2343762934099942
 30
0.0
 40
0.3925433047248991
 50
41.2031965345212825
 51
47.9429753136425489
  0
ARC
  5
C20D
  8
0
 10
449.6470203542290847
 20
105.4395678312208986
 30
0.0
 40
0.0810483213602212
 50
31.7424909677275693
 51
41.20319653452772
  0
ARC
  5
C20E
  8
0
 10
449.7091657675832721
 20
105.4780133173216967
 30
0.0
 40
0.0079722801257748
 50
355.7870328830944118
 51
31.7424909676778491
  0
ARC
  5
C20F
  8
0
 10
449.7156707371855191
 20
105.4801083833912969
 30
0.0
 40
0.0030457541273204
 50
249.3732412044834064
 51
298.3387278382867862
  0
ARC
  5
C210
  8
0
 10
449.717350927110715
 20
105.4915133856943044
 30
0.0
 40
0.0145189301584878
 50
246.4660811336815129
 51
259.069130372378595
  0
ARC
  5
C211
  8
0
 10
449.6216981812144127
 20
106.2212375807814055
 30
0.0
 40
0.4760028772711134
 50
222.5960162331637946
 51
227.0571412449716036
  0
ARC
  5
C212
  8
0
 10
449.384573722277878
 20
106.0032208895754025
 30
0.0
 40
0.1538859937173968
 50
212.5027401903664952
 51
222.5960162331672905
  0
ARC
  5
C213
  8
0
 10
449.2680949100773091
 20
105.9290078705388964
 30
0.0
 40
0.0157741336685405
 50
184.951615926663095
 51
212.502740190363312
  0
ARC
  5
C214
  8
0
 10
449.2671040381137004
 20
105.9289220235709053
 30
0.0
 40
0.0147795498609997
 50
141.1389276797715979
 51
184.9516159266582065
  0
LINE
  5
C215
  8
0
 10
449.2555956516819151
 20
105.9381952180492021
 30
0.0
 11
449.2936993644809718
 21
105.9805658489634936
 31
0.0
  0
ARC
  5
C216
  8
0
 10
449.1704334237921898
 20
105.7395151121528016
 30
0.0
 40
0.2655356843020728
 50
46.6728573932125101
 51
56.9227148635989195
  0
ARC
  5
C217
  8
0
 10
449.0992042549822258
 20
105.7315835848053069
 30
0.0
 40
0.3159438486253768
 50
46.8318147219772598
 51
52.0044521424170085
  0
ARC
  5
C218
  8
0
 10
449.2608916447912861
 20
105.9398573383703024
 30
0.0
 40
0.0522831646512264
 50
51.1340353579990605
 51
68.0996018618507435
  0
ARC
  5
C219
  8
0
 10
449.2778013910983077
 20
105.981540917986905
 30
0.0
 40
0.0073018735138627
 50
69.2115300369473516
 51
97.4677998522152933
  0
ARC
  5
C21A
  8
0
 10
449.277372316146284
 20
105.9868700047077965
 30
0.0
 40
0.0019803277503879
 50
105.221635686551295
 51
159.4827432501425051
  0
ARC
  5
C21B
  8
0
 10
449.3172162018778977
 20
105.9965861582282969
 30
0.0
 40
0.0426634566966164
 50
192.2085507917850862
 51
218.8258800689129941
  0
ARC
  5
C21C
  8
0
 10
449.2083353473931879
 20
105.7788811671510985
 30
0.0
 40
0.1399908709702604
 50
46.5729732928055284
 51
54.0771757493364404
  0
ARC
  5
C21D
  8
0
 10
449.2773278442476226
 20
105.8741102534741003
 30
0.0
 40
0.0223960432619965
 50
54.0778068209015998
 51
64.1994212083128986
  0
ARC
  5
C21E
  8
0
 10
449.2846437734057758
 20
105.8892435896716933
 30
0.0
 40
0.0055870967181137
 50
64.1994212083449582
 51
76.8905900034562393
  0
ARC
  5
C21F
  8
0
 10
449.2857482507027953
 20
105.8939862695046941
 30
0.0
 40
0.0007175092511611
 50
76.8905900032956708
 51
131.1931273412185135
  0
ARC
  5
C220
  8
0
 10
449.2857776758862087
 20
105.8942094364201978
 30
0.0
 40
0.0005935600035988
 50
147.7474666857050067
 51
191.9631174319879108
  0
ARC
  5
C221
  8
0
 10
449.2940971828118109
 20
105.8969899868957043
 30
0.0
 40
0.0093618336440673
 50
198.0683481250617888
 51
218.8551431713038937
  0
ARC
  5
C222
  8
0
 10
449.3833563810603096
 20
105.9676405540423048
 30
0.0
 40
0.1231978308978852
 50
218.399814726060697
 51
227.8404534553357905
  0
ARC
  5
C223
  8
0
 10
449.0388063801698877
 20
105.5985850958337977
 30
0.0
 40
0.3925433047248991
 50
46.7024160751102926
 51
53.4421948542307419
  0
ARC
  5
C224
  8
0
 10
449.2243432233361204
 20
105.8487954163429947
 30
0.0
 40
0.0810483213602212
 50
53.4421948542230822
 51
62.9029004210253788
  0
ARC
  5
C225
  8
0
 10
449.2576293486008012
 20
105.9138503290503053
 30
0.0
 40
0.0079722801257748
 50
62.9029004210763674
 51
98.8583585056566676
  0
ARC
  5
C226
  8
0
 10
449.259190704213097
 20
105.9205036064389986
 30
0.0
 40
0.0030457541273204
 50
156.3066635504665101
 51
205.272150184269691
  0
ARC
  5
C227
  8
0
 10
449.2704221652325032
 20
105.9231019518907004
 30
0.0
 40
0.0145189301584878
 50
195.5762610163741897
 51
208.1793102550714991
  0
ARC
  5
C228
  8
0
 10
449.6184543031350245
 20
106.224228567094201
 30
0.0
 40
0.4760028772711134
 50
227.5882501437808116
 51
232.0493751555873132
  0
ARC
  5
C229
  8
0
 10
449.4203581626359778
 20
105.9702261935033931
 30
0.0
 40
0.1538859937173968
 50
232.04937515558629
 51
242.1426511983871137
  0
ARC
  5
C22A
  8
0
 10
449.3558223843414225
 20
105.8481196039758032
 30
0.0
 40
0.0157741336685405
 50
242.1426511983879095
 51
269.6937754620884107
  0
ARC
  5
C22B
  8
0
 10
449.355817068687827
 20
105.8471250343734056
 30
0.0
 40
0.0147795498609997
 50
269.6937754620947771
 51
313.5064637089807889
  0
LINE
  5
C22C
  8
0
 10
449.3659918488315839
 20
105.8364054754684958
 30
0.0
 11
449.4051373280279904
 21
105.877815555782604
 31
0.0
  0
ARC
  5
C22D
  8
0
 10
449.1748615687757251
 20
105.7354321840301026
 30
0.0
 40
0.2655356843020728
 50
37.7226765251533394
 51
47.9725339955410206
  0
ARC
  5
C22E
  8
0
 10
449.1727248452397134
 20
105.6637946378133961
 30
0.0
 40
0.3159438486253768
 50
42.6409392463353001
 51
47.813576666776477
  0
ARC
  5
C22F
  8
0
 10
449.367219594194296
 20
105.8418186841564932
 30
0.0
 40
0.0522831646512264
 50
26.545789526903711
 51
43.5113560307556497
  0
ARC
  5
C230
  8
0
 10
449.4073967482106013
 20
105.8620487762219966
 30
0.0
 40
0.0073018735138627
 50
357.177591536538614
 51
25.43386135180317
  0
ARC
  5
C231
  8
0
 10
449.4127430792095197
 20
105.8620527059155023
 30
0.0
 40
0.0019803277503879
 50
295.162648138611587
 51
349.4237557022012197
  0
ARC
  5
C232
  8
0
 10
449.4192004158711029
 20
105.9025526031087026
 30
0.0
 40
0.0426634566966164
 50
235.8195113198385968
 51
262.4368405969660216
  0
ARC
  5
C233
  8
0
 10
449.2110286845020255
 20
105.7763978015851052
 30
0.0
 40
0.1399908711282218
 50
40.5682156415419826
 51
48.0724181108597506
  0
ARC
  5
C234
  8
0
 10
449.300357342121913
 20
105.8528761283781989
 30
0.0
 40
0.0223960432619965
 50
30.4459701804398897
 51
40.5675845678505524
  0
ARC
  5
C235
  8
0
 10
449.3148484590723797
 20
105.861393652281393
 30
0.0
 40
0.0055870967181137
 50
17.7548013852959912
 51
30.4459701804084695
  0
ARC
  5
C236
  8
0
 10
449.3194861092993051
 20
105.8628786042912964
 30
0.0
 40
0.0007175092511611
 50
323.4522640475342996
 51
17.7548013854558917
  0
ARC
  5
C237
  8
0
 10
449.3197061600142774
 20
105.8629260067846047
 30
0.0
 40
0.0005935600035988
 50
262.6822739567642202
 51
306.8979247030482043
  0
ARC
  5
C238
  8
0
 10
449.3218037914419938
 20
105.8714433772019987
 30
0.0
 40
0.0093618336440673
 50
235.7902482174501131
 51
256.577043263690598
  0
ARC
  5
C239
  8
0
 10
449.384993298179495
 20
105.9661312504930066
 30
0.0
 40
0.1231978308978852
 50
226.8049379334171931
 51
236.2455766626914055
  0
ARC
  5
C23A
  8
0
 10
449.0450547902486846
 20
105.5928238099392047
 30
0.0
 40
0.3925433047248991
 50
41.2031965345212825
 51
47.9429753136425489
  0
ARC
  5
C23B
  8
0
 10
449.27941681249672
 20
105.7980153477500949
 30
0.0
 40
0.0810483213602212
 50
31.7424909677275693
 51
41.20319653452772
  0
ARC
  5
C23C
  8
0
 10
449.3415622258510211
 20
105.8364608338507935
 30
0.0
 40
0.0079722801257748
 50
355.7870328830944118
 51
31.7424909676778491
  0
ARC
  5
C23D
  8
0
 10
449.3480671954530976
 20
105.8385558999203937
 30
0.0
 40
0.0030457541273204
 50
249.3732412044834064
 51
298.3387278382867862
  0
ARC
  5
C23E
  8
0
 10
449.3497473853782935
 20
105.8499609022234011
 30
0.0
 40
0.0145189301584878
 50
246.4660811336815129
 51
259.069130372378595
  0
ARC
  5
C23F
  8
0
 10
449.7663430954984278
 20
105.9995257787163041
 30
0.0
 40
0.4760028772711134
 50
222.5960162331637946
 51
227.0571412449716036
  0
ARC
  5
C240
  8
0
 10
449.5292186365618932
 20
105.781509087510301
 30
0.0
 40
0.1538859937173968
 50
212.5027401903664952
 51
222.5960162331672905
  0
ARC
  5
C241
  8
0
 10
449.4127398243613243
 20
105.707296068473795
 30
0.0
 40
0.0157741336685405
 50
184.951615926663095
 51
212.502740190363312
  0
ARC
  5
C242
  8
0
 10
449.4117489523977156
 20
105.7072102215058038
 30
0.0
 40
0.0147795498609997
 50
141.1389276797715979
 51
184.9516159266582065
  0
LINE
  5
C243
  8
0
 10
449.4002405659659871
 20
105.7164834159841007
 30
0.0
 11
449.4383442787649869
 21
105.7588540468984064
 31
0.0
  0
ARC
  5
C244
  8
0
 10
449.315078338076205
 20
105.5178033100877002
 30
0.0
 40
0.2655356843020728
 50
46.6728573932125101
 51
56.9227148635989195
  0
ARC
  5
C245
  8
0
 10
449.2438491692662978
 20
105.5098717827402055
 30
0.0
 40
0.3159438486253768
 50
46.8318147219772598
 51
52.0044521424170085
  0
ARC
  5
C246
  8
0
 10
449.405536559075415
 20
105.7181455363052009
 30
0.0
 40
0.0522831646512264
 50
51.1340353579990605
 51
68.0996018618507435
  0
ARC
  5
C247
  8
0
 10
449.4224463053823797
 20
105.7598291159218036
 30
0.0
 40
0.0073018735138627
 50
69.2115300369473516
 51
97.4677998522152933
  0
ARC
  5
C248
  8
0
 10
449.4220172304304128
 20
105.7651582026426951
 30
0.0
 40
0.0019803277503879
 50
105.221635686551295
 51
159.4827432501425051
  0
ARC
  5
C249
  8
0
 10
449.4618611161619128
 20
105.7748743561631954
 30
0.0
 40
0.0426634566966164
 50
192.2085507917850862
 51
218.8258800689129941
  0
ARC
  5
C24A
  8
0
 10
449.3529802616773168
 20
105.557169365085997
 30
0.0
 40
0.1399908709702604
 50
46.5729732928055284
 51
54.0771757493364404
  0
ARC
  5
C24B
  8
0
 10
449.4219727585315809
 20
105.6523984514090984
 30
0.0
 40
0.0223960432619965
 50
54.0778068209015998
 51
64.1994212083128986
  0
ARC
  5
C24C
  8
0
 10
449.429288687689791
 20
105.667531787606606
 30
0.0
 40
0.0055870967181137
 50
64.1994212083449582
 51
76.8905900034562393
  0
ARC
  5
C24D
  8
0
 10
449.4303931649868105
 20
105.6722744674396068
 30
0.0
 40
0.0007175092511611
 50
76.8905900032956708
 51
131.1931273412185135
  0
ARC
  5
C24E
  8
0
 10
449.4304225901702239
 20
105.6724976343550964
 30
0.0
 40
0.0005935600035988
 50
147.7474666857050067
 51
191.9631174319879108
  0
ARC
  5
C24F
  8
0
 10
449.4387420970958829
 20
105.6752781848306029
 30
0.0
 40
0.0093618336440673
 50
198.0683481250617888
 51
218.8551431713038937
  0
ARC
  5
C250
  8
0
 10
449.5280012953443816
 20
105.7459287519772033
 30
0.0
 40
0.1231978308978852
 50
218.399814726060697
 51
227.8404534553357905
  0
ARC
  5
C251
  8
0
 10
449.1834512944539028
 20
105.3768732937686963
 30
0.0
 40
0.3925433047248991
 50
46.7024160751102926
 51
53.4421948542307419
  0
ARC
  5
C252
  8
0
 10
449.3689881376201924
 20
105.6270836142777938
 30
0.0
 40
0.0810483213602212
 50
53.4421948542230822
 51
62.9029004210253788
  0
ARC
  5
C253
  8
0
 10
449.4022742628848732
 20
105.6921385269852038
 30
0.0
 40
0.0079722801257748
 50
62.9029004210763674
 51
98.8583585056566676
  0
ARC
  5
C254
  8
0
 10
449.4038356184971121
 20
105.6987918043739967
 30
0.0
 40
0.0030457541273204
 50
156.3066635504665101
 51
205.272150184269691
  0
ARC
  5
C255
  8
0
 10
449.4150670795165183
 20
105.701390149825599
 30
0.0
 40
0.0145189301584878
 50
195.5762610163741897
 51
208.1793102550714991
  0
ARC
  5
C256
  8
0
 10
449.7630992174189828
 20
106.0025167650290996
 30
0.0
 40
0.4760028772711134
 50
227.5882501437808116
 51
232.0493751555873132
  0
ARC
  5
C257
  8
0
 10
449.565003076919993
 20
105.7485143914383059
 30
0.0
 40
0.1538859937173968
 50
232.04937515558629
 51
242.1426511983871137
  0
ARC
  5
C258
  8
0
 10
449.5004672986253809
 20
105.6264078019107018
 30
0.0
 40
0.0157741336685405
 50
242.1426511983879095
 51
269.6937754620884107
  0
ARC
  5
C259
  8
0
 10
449.5004619829716717
 20
105.6254132323083041
 30
0.0
 40
0.0147795498609997
 50
269.6937754620947771
 51
313.5064637089807889
  0
LINE
  5
C25A
  8
0
 10
449.510636763115599
 20
105.6146936734033943
 30
0.0
 11
449.5497822423121193
 21
105.6561037537175025
 31
0.0
  0
ARC
  5
C25B
  8
0
 10
449.3195064830596834
 20
105.5137203819650011
 30
0.0
 40
0.2655356843020728
 50
37.7226765251533394
 51
47.9725339955410206
  0
ARC
  5
C25C
  8
0
 10
449.3173697595236717
 20
105.4420828357482947
 30
0.0
 40
0.3159438486253768
 50
42.6409392463353001
 51
47.813576666776477
  0
ARC
  5
C25D
  8
0
 10
449.5118645084783111
 20
105.620106882091406
 30
0.0
 40
0.0522831646512264
 50
26.545789526903711
 51
43.5113560307556497
  0
ARC
  5
C25E
  8
0
 10
449.5520416624946165
 20
105.6403369741568952
 30
0.0
 40
0.0073018735138627
 50
357.177591536538614
 51
25.43386135180317
  0
ARC
  5
C25F
  8
0
 10
449.557387993493478
 20
105.6403409038504009
 30
0.0
 40
0.0019803277503879
 50
295.162648138611587
 51
349.4237557022012197
  0
ARC
  5
C260
  8
0
 10
449.5638453301551181
 20
105.6808408010436011
 30
0.0
 40
0.0426634566966164
 50
235.8195113198385968
 51
262.4368405969660216
  0
ARC
  5
C261
  8
0
 10
449.3556735987859838
 20
105.5546859995200037
 30
0.0
 40
0.1399908711282218
 50
40.5682156415419826
 51
48.0724181108597506
  0
ARC
  5
C262
  8
0
 10
449.4450022564059282
 20
105.6311643263130975
 30
0.0
 40
0.0223960432619965
 50
30.4459701804398897
 51
40.5675845678505524
  0
ARC
  5
C263
  8
0
 10
449.4594933733565085
 20
105.6396818502163057
 30
0.0
 40
0.0055870967181137
 50
17.7548013852959912
 51
30.4459701804084695
  0
ARC
  5
C264
  8
0
 10
449.4641310235833771
 20
105.6411668022261949
 30
0.0
 40
0.0007175092511611
 50
323.4522640475342996
 51
17.7548013854558917
  0
ARC
  5
C265
  8
0
 10
449.4643510742982926
 20
105.6412142047195033
 30
0.0
 40
0.0005935600035988
 50
262.6822739567642202
 51
306.8979247030482043
  0
ARC
  5
C266
  8
0
 10
449.4664487057260089
 20
105.6497315751368973
 30
0.0
 40
0.0093618336440673
 50
235.7902482174501131
 51
256.577043263690598
  0
ARC
  5
C267
  8
0
 10
449.5296382124635102
 20
105.7444194484279052
 30
0.0
 40
0.1231978308978852
 50
226.8049379334171931
 51
236.2455766626914055
  0
ARC
  5
C268
  8
0
 10
449.1896997045326998
 20
105.3711120078741033
 30
0.0
 40
0.3925433047248991
 50
41.2031965345212825
 51
47.9429753136425489
  0
ARC
  5
C269
  8
0
 10
449.4240617267806783
 20
105.5763035456849934
 30
0.0
 40
0.0810483213602212
 50
31.7424909677275693
 51
41.20319653452772
  0
ARC
  5
C26A
  8
0
 10
449.4862071401349795
 20
105.6147490317857063
 30
0.0
 40
0.0079722801257748
 50
355.7870328830944118
 51
31.7424909676778491
  0
ARC
  5
C26B
  8
0
 10
449.4927121097369991
 20
105.6168440978553065
 30
0.0
 40
0.0030457541273204
 50
249.3732412044834064
 51
298.3387278382867862
  0
ARC
  5
C26C
  8
0
 10
449.4943922996623087
 20
105.6282491001582997
 30
0.0
 40
0.0145189301584878
 50
246.4660811336815129
 51
259.069130372378595
  0
ARC
  5
C26D
  8
0
 10
448.7220921104865283
 20
105.6655671441409936
 30
0.0
 40
0.5754752159633985
 50
44.7457620497286115
 51
48.7363462406856414
  0
ARC
  5
C26E
  8
0
 10
448.9566130182461734
 20
105.9610020074273962
 30
0.0
 40
0.1995944934806548
 50
43.4003932220803534
 51
52.6665169080816185
  0
ARC
  5
C26F
  8
0
 10
449.069309385477311
 20
106.1106467201984032
 30
0.0
 40
0.0123174160695262
 50
47.3305638894877418
 51
79.2196316442185804
  0
ARC
  5
C270
  8
0
 10
449.0713517605695984
 20
106.1213731916813998
 30
0.0
 40
0.0013982363158355
 50
79.2196316439268173
 51
163.4030414921745944
  0
ARC
  5
C271
  8
0
 10
449.081558532319093
 20
106.1238340361371968
 30
0.0
 40
0.011729328046824
 50
190.1224370811270035
 51
209.5462282978301971
  0
ARC
  5
C272
  8
0
 10
449.3026730297929134
 20
106.2527421273025965
 30
0.0
 40
0.267675599416682
 50
210.2113827182876946
 51
214.6248902949241995
  0
ARC
  5
C273
  8
0
 10
448.6913954429405749
 20
105.6451358482776044
 30
0.0
 40
0.6117011841006882
 50
38.8213142735656476
 51
44.0808830201690327
  0
ARC
  5
C274
  8
0
 10
449.1135115544888095
 20
105.9822792449908064
 30
0.0
 40
0.0715020705897464
 50
25.0485613134972986
 51
40.3855836384661089
  0
ARC
  5
C275
  8
0
 10
449.1714707346332034
 20
106.0091360946433952
 30
0.0
 40
0.0076260146396362
 50
0.2300276044126591
 51
26.6128306782856185
  0
ARC
  5
C276
  8
0
 10
449.1742746145446858
 20
106.0091473515500979
 30
0.0
 40
0.0048221121313219
 50
341.3787173380326863
 51
0.2300276044094023
  0
ARC
  5
C277
  8
0
 10
449.1768287114762188
 20
106.0087305179745982
 30
0.0
 40
0.0023072718272709
 50
305.7356368083188158
 51
330.8768753598374133
  0
ARC
  5
C278
  8
0
 10
449.1778804857138994
 20
106.0079442516183974
 30
0.0
 40
0.0011261306639196
 50
252.7869706560053089
 51
285.2274085406867812
  0
ARC
  5
C279
  8
0
 10
449.2482487404915901
 20
106.1300994630471024
 30
0.0
 40
0.142072370769341
 50
231.1250061351051102
 51
240.1557299509379959
  0
LINE
  5
C27A
  8
0
 10
449.1679248559518101
 20
106.0286695224051954
 30
0.0
 11
449.1315972661142837
 21
105.9909810041200018
 31
0.0
  0
LINE
  5
C27B
  8
0
 10
449.0901923467234838
 20
106.1093070826240989
 30
0.0
 11
449.05358460811442
 21
106.0685978324199965
 31
0.0
  0
ARC
  5
C27C
  8
0
 10
449.0648369974733214
 20
106.0592850253352992
 30
0.0
 40
0.0146063219902665
 50
140.3878465221158933
 51
162.4155321368482134
  0
ARC
  5
C27D
  8
0
 10
449.06385528753259
 20
106.0604673277946972
 30
0.0
 40
0.0133391744862587
 50
165.9849627959268048
 51
206.0614384293288026
  0
ARC
  5
C27E
  8
0
 10
449.1212818727540821
 20
106.0954736856883045
 30
0.0
 40
0.080546660450082
 50
210.4886074345768066
 51
222.9728713956617128
  0
ARC
  5
C27F
  8
0
 10
449.4286360785246757
 20
106.3631320052642053
 30
0.0
 40
0.4880718031401407
 50
221.3679938748917095
 51
224.8604669944307091
  0
ARC
  5
C280
  8
0
 10
449.4247764470268862
 20
106.3555410146392006
 30
0.0
 40
0.4799888006447149
 50
224.5431611340297877
 51
228.0040216486569875
  0
ARC
  5
C281
  8
0
 10
449.169827051943173
 20
106.0703983866152953
 30
0.0
 40
0.0975007498520389
 50
227.2362481591401036
 51
235.7403618746772054
  0
ARC
  5
C282
  8
0
 10
449.1229639056014094
 20
106.0014946542944045
 30
0.0
 40
0.0141709434811737
 50
235.510784147826314
 51
271.5706643364371757
  0
ARC
  5
C283
  8
0
 10
449.122755438373872
 20
105.9998097704755935
 30
0.0
 40
0.012495000326272
 50
272.7380808205932112
 51
315.0423507038776165
  0
ARC
  5
C284
  8
0
 10
448.87510794980642
 20
105.8145691013457963
 30
0.0
 40
0.2960478481578904
 50
44.5862267476899916
 51
46.7795886447564584
  0
ARC
  5
C285
  8
0
 10
448.9655836854923905
 20
105.9108472181287937
 30
0.0
 40
0.1639292101115727
 50
46.779588644753531
 51
49.0852708969218412
  0
ARC
  5
C286
  8
0
 10
449.0414105587699964
 20
105.998338697041703
 30
0.0
 40
0.0481515197156614
 50
49.0852708969137126
 51
54.0591017394513713
  0
ARC
  5
C287
  8
0
 10
449.0655051091387122
 20
106.0315740409775032
 30
0.0
 40
0.0071011184508354
 50
54.0591017394920925
 51
66.1310190635249313
  0
ARC
  5
C288
  8
0
 10
449.0682468510751733
 20
106.0377701875177934
 30
0.0
 40
0.0003254722975166
 50
66.131019063033861
 51
122.2147083104269996
  0
ARC
  5
C289
  8
0
 10
449.0682159904391142
 20
106.037922861331694
 30
0.0
 40
0.0001881538474914
 50
139.300295340966386
 51
169.5064681130870099
  0
ARC
  5
C28A
  8
0
 10
449.0686715375189806
 20
106.0379278353667019
 30
0.0
 40
0.0006412236066324
 50
177.3816119162144105
 51
208.1585131607039898
  0
ARC
  5
C28B
  8
0
 10
449.0823895223136901
 20
106.0451921904269028
 30
0.0
 40
0.0161639093224561
 50
207.9135632698512097
 51
219.5603786713764123
  0
ARC
  5
C28C
  8
0
 10
449.2256006177370864
 20
106.1629872565760024
 30
0.0
 40
0.2015960611527888
 50
219.4480302767429123
 51
225.384700207180714
  0
ARC
  5
C28D
  8
0
 10
449.2510725334740869
 20
106.1836373376774958
 30
0.0
 40
0.2342137179315194
 50
224.4970363476797957
 51
228.6308177956701968
  0
ARC
  5
C28E
  8
0
 10
449.1266880481064163
 20
106.042621843811304
 30
0.0
 40
0.0461797888915376
 50
228.8145654567933889
 51
234.9970672804545018
  0
ARC
  5
C28F
  8
0
 10
449.1011436240095804
 20
106.0058081493894946
 30
0.0
 40
0.0013856122598902
 50
226.9906370732082905
 51
274.8229501522690725
  0
ARC
  5
C290
  8
0
 10
449.1010855888885089
 20
106.0045828531163039
 30
0.0
 40
0.0002336965613697
 50
318.3171221183853277
 51
20.8942946068501101
  0
ARC
  5
C291
  8
0
 10
449.0873453713812751
 20
105.9978226400133963
 30
0.0
 40
0.0155459101473967
 50
26.1176694457431502
 51
40.8804524667596567
  0
ARC
  5
C292
  8
0
 10
448.9335085371565128
 20
105.8699273867708968
 30
0.0
 40
0.2156004583445092
 50
39.8213941835919272
 51
45.0035292901283697
  0
ARC
  5
C293
  8
0
 10
448.8290689335742059
 20
105.7741600302638005
 30
0.0
 40
0.3702908410270352
 50
44.0378501877380089
 51
52.6733925521515403
  0
ARC
  5
C294
  8
0
 10
448.8363050438902064
 20
105.7631527581570055
 30
0.0
 40
0.3729652054684832
 50
37.6515323080488429
 51
46.0271518581053982
  0
ARC
  5
C295
  8
0
 10
448.5194049601100801
 20
105.8243969051083013
 30
0.0
 40
0.5754752159633985
 50
44.7457620497286115
 51
48.7363462406856414
  0
ARC
  5
C296
  8
0
 10
448.753925867869782
 20
106.1198317683948034
 30
0.0
 40
0.1995944934806548
 50
43.4003932220803534
 51
52.6665169080816185
  0
ARC
  5
C297
  8
0
 10
448.8666222351009765
 20
106.2694764811656967
 30
0.0
 40
0.0123174160695262
 50
47.3305638894877418
 51
79.2196316442185804
  0
ARC
  5
C298
  8
0
 10
448.868664610193207
 20
106.2802029526486933
 30
0.0
 40
0.0013982363158355
 50
79.2196316439268173
 51
163.4030414921745944
  0
ARC
  5
C299
  8
0
 10
448.8788713819428153
 20
106.2826637971045045
 30
0.0
 40
0.011729328046824
 50
190.1224370811270035
 51
209.5462282978301971
  0
ARC
  5
C29A
  8
0
 10
449.099985879416522
 20
106.4115718882699042
 30
0.0
 40
0.267675599416682
 50
210.2113827182876946
 51
214.6248902949241995
  0
ARC
  5
C29B
  8
0
 10
448.4887082925641835
 20
105.8039656092449974
 30
0.0
 40
0.6117011841006882
 50
38.8213142735656476
 51
44.0808830201690327
  0
ARC
  5
C29C
  8
0
 10
448.9108244041124181
 20
106.1411090059581994
 30
0.0
 40
0.0715020705897464
 50
25.0485613134972986
 51
40.3855836384661089
  0
ARC
  5
C29D
  8
0
 10
448.968783584256812
 20
106.1679658556107029
 30
0.0
 40
0.0076260146396362
 50
0.2300276044126591
 51
26.6128306782856185
  0
ARC
  5
C29E
  8
0
 10
448.9715874641682944
 20
106.1679771125174057
 30
0.0
 40
0.0048221121313219
 50
341.3787173380326863
 51
0.2300276044094023
  0
ARC
  5
C29F
  8
0
 10
448.9741415610998274
 20
106.1675602789420054
 30
0.0
 40
0.0023072718272709
 50
305.7356368083188158
 51
330.8768753598374133
  0
ARC
  5
C2A0
  8
0
 10
448.975193335337508
 20
106.1667740125857051
 30
0.0
 40
0.0011261306639196
 50
252.7869706560053089
 51
285.2274085406867812
  0
ARC
  5
C2A1
  8
0
 10
449.0455615901151987
 20
106.2889292240143959
 30
0.0
 40
0.142072370769341
 50
231.1250061351051102
 51
240.1557299509379959
  0
LINE
  5
C2A2
  8
0
 10
448.9652377055754187
 20
106.1874992833725031
 30
0.0
 11
448.928910115738006
 21
106.1498107650873948
 31
0.0
  0
LINE
  5
C2A3
  8
0
 10
448.8875051963470924
 20
106.2681368435915061
 30
0.0
 11
448.8508974577379718
 21
106.2274275933874037
 31
0.0
  0
ARC
  5
C2A4
  8
0
 10
448.8621498470968731
 20
106.2181147863027064
 30
0.0
 40
0.0146063219902665
 50
140.3878465221158933
 51
162.4155321368482134
  0
ARC
  5
C2A5
  8
0
 10
448.8611681371561986
 20
106.2192970887620049
 30
0.0
 40
0.0133391744862587
 50
165.9849627959268048
 51
206.0614384293288026
  0
ARC
  5
C2A6
  8
0
 10
448.9185947223776907
 20
106.2543034466556975
 30
0.0
 40
0.080546660450082
 50
210.4886074345768066
 51
222.9728713956617128
  0
ARC
  5
C2A7
  8
0
 10
449.2259489281482843
 20
106.5219617662314988
 30
0.0
 40
0.4880718031401407
 50
221.3679938748917095
 51
224.8604669944307091
  0
ARC
  5
C2A8
  8
0
 10
449.2220892966503811
 20
106.5143707756064941
 30
0.0
 40
0.4799888006447149
 50
224.5431611340297877
 51
228.0040216486569875
  0
ARC
  5
C2A9
  8
0
 10
448.9671399015667816
 20
106.2292281475827025
 30
0.0
 40
0.0975007498520389
 50
227.2362481591401036
 51
235.7403618746772054
  0
ARC
  5
C2AA
  8
0
 10
448.9202767552249043
 20
106.1603244152616981
 30
0.0
 40
0.0141709434811737
 50
235.510784147826314
 51
271.5706643364371757
  0
ARC
  5
C2AB
  8
0
 10
448.9200682879974806
 20
106.1586395314429012
 30
0.0
 40
0.012495000326272
 50
272.7380808205932112
 51
315.0423507038776165
  0
ARC
  5
C2AC
  8
0
 10
448.6724207994299718
 20
105.9733988623132035
 30
0.0
 40
0.2960478481578904
 50
44.5862267476899916
 51
46.7795886447564584
  0
ARC
  5
C2AD
  8
0
 10
448.7628965351159991
 20
106.0696769790961014
 30
0.0
 40
0.1639292101115727
 50
46.779588644753531
 51
49.0852708969218412
  0
ARC
  5
C2AE
  8
0
 10
448.838723408393605
 20
106.1571684580089965
 30
0.0
 40
0.0481515197156614
 50
49.0852708969137126
 51
54.0591017394513713
  0
ARC
  5
C2AF
  8
0
 10
448.8628179587623208
 20
106.1904038019447967
 30
0.0
 40
0.0071011184508354
 50
54.0591017394920925
 51
66.1310190635249313
  0
ARC
  5
C2B0
  8
0
 10
448.8655597006987819
 20
106.1965999484851011
 30
0.0
 40
0.0003254722975166
 50
66.131019063033861
 51
122.2147083104269996
  0
ARC
  5
C2B1
  8
0
 10
448.8655288400627228
 20
106.1967526222991012
 30
0.0
 40
0.0001881538474914
 50
139.300295340966386
 51
169.5064681130870099
  0
ARC
  5
C2B2
  8
0
 10
448.8659843871425892
 20
106.1967575963339954
 30
0.0
 40
0.0006412236066324
 50
177.3816119162144105
 51
208.1585131607039898
  0
ARC
  5
C2B3
  8
0
 10
448.8797023719372987
 20
106.2040219513942958
 30
0.0
 40
0.0161639093224561
 50
207.9135632698512097
 51
219.5603786713764123
  0
ARC
  5
C2B4
  8
0
 10
449.022913467360695
 20
106.3218170175433954
 30
0.0
 40
0.2015960611527888
 50
219.4480302767429123
 51
225.384700207180714
  0
ARC
  5
C2B5
  8
0
 10
449.0483853830978092
 20
106.3424670986448035
 30
0.0
 40
0.2342137179315194
 50
224.4970363476797957
 51
228.6308177956701968
  0
ARC
  5
C2B6
  8
0
 10
448.9240008977300249
 20
106.2014516047785975
 30
0.0
 40
0.0461797888915376
 50
228.8145654567933889
 51
234.9970672804545018
  0
ARC
  5
C2B7
  8
0
 10
448.8984564736333027
 20
106.1646379103568023
 30
0.0
 40
0.0013856122598902
 50
226.9906370732082905
 51
274.8229501522690725
  0
ARC
  5
C2B8
  8
0
 10
448.8983984385121175
 20
106.1634126140836969
 30
0.0
 40
0.0002336965613697
 50
318.3171221183853277
 51
20.8942946068501101
  0
ARC
  5
C2B9
  8
0
 10
448.8846582210048837
 20
106.156652400980704
 30
0.0
 40
0.0155459101473967
 50
26.1176694457431502
 51
40.8804524667596567
  0
ARC
  5
C2BA
  8
0
 10
448.7308213867801783
 20
106.0287571477382045
 30
0.0
 40
0.2156004583445092
 50
39.8213941835919272
 51
45.0035292901283697
  0
ARC
  5
C2BB
  8
0
 10
448.6263817831979281
 20
105.932989791231094
 30
0.0
 40
0.3702908410270352
 50
44.0378501877380089
 51
52.6733925521515403
  0
ARC
  5
C2BC
  8
0
 10
448.633617893513815
 20
105.921982519124299
 30
0.0
 40
0.3729652054684832
 50
37.6515323080488429
 51
46.0271518581053982
  0
ARC
  5
C2BD
  8
0
 10
448.3737356474654803
 20
106.0537343232555969
 30
0.0
 40
0.5754752159633985
 50
44.7457620497286115
 51
48.7363462406856414
  0
ARC
  5
C2BE
  8
0
 10
448.6082565552252959
 20
106.3491691865420989
 30
0.0
 40
0.1995944934806548
 50
43.4003932220803534
 51
52.6665169080816185
  0
ARC
  5
C2BF
  8
0
 10
448.7209529224563767
 20
106.4988138993130065
 30
0.0
 40
0.0123174160695262
 50
47.3305638894877418
 51
79.2196316442185804
  0
ARC
  5
C2C0
  8
0
 10
448.7229952975487208
 20
106.5095403707960031
 30
0.0
 40
0.0013982363158355
 50
79.2196316439268173
 51
163.4030414921745944
  0
ARC
  5
C2C1
  8
0
 10
448.7332020692981018
 20
106.5120012152518001
 30
0.0
 40
0.011729328046824
 50
190.1224370811270035
 51
209.5462282978301971
  0
ARC
  5
C2C2
  8
0
 10
448.9543165667719222
 20
106.6409093064171998
 30
0.0
 40
0.267675599416682
 50
210.2113827182876946
 51
214.6248902949241995
  0
ARC
  5
C2C3
  8
0
 10
448.1953941511092125
 20
105.8813081902272017
 30
0.0
 40
0.8235272715007491
 50
39.9984771636193273
 51
44.5313235004532686
  0
ARC
  5
C2C4
  8
0
 10
448.7718034860675971
 20
106.3643163363928039
 30
0.0
 40
0.0715020705897464
 50
25.0485613134972986
 51
40.3855836384661089
  0
ARC
  5
C2C5
  8
0
 10
448.829762666211991
 20
106.3911731860452932
 30
0.0
 40
0.0076260146396362
 50
0.2300276044126591
 51
26.6128306782856185
  0
ARC
  5
C2C6
  8
0
 10
448.8325665461234735
 20
106.3911844429519959
 30
0.0
 40
0.0048221121313219
 50
341.3787173380326863
 51
0.2300276044094023
  0
ARC
  5
C2C7
  8
0
 10
448.8351206430548928
 20
106.3907676093765957
 30
0.0
 40
0.0023072718272709
 50
305.7356368083188158
 51
330.8768753598374133
  0
ARC
  5
C2C8
  8
0
 10
448.836172417292687
 20
106.3899813430202954
 30
0.0
 40
0.0011261306639196
 50
252.7869706560053089
 51
285.2274085406867812
  0
ARC
  5
C2C9
  8
0
 10
448.9065406720703777
 20
106.5121365544490004
 30
0.0
 40
0.142072370769341
 50
231.1250061351051102
 51
240.1557299509379959
  0
LINE
  5
C2CA
  8
0
 10
448.8262167875305977
 20
106.4107066138072071
 30
0.0
 11
448.7898891976931282
 21
106.3730180955219993
 31
0.0
  0
LINE
  5
C2CB
  8
0
 10
448.7418358837024925
 20
106.4974742617388017
 30
0.0
 11
448.7052281450933719
 21
106.4567650115346993
 31
0.0
  0
ARC
  5
C2CC
  8
0
 10
448.716480534452387
 20
106.4474522044499025
 30
0.0
 40
0.0146063219902665
 50
140.3878465221158933
 51
162.4155321368482134
  0
ARC
  5
C2CD
  8
0
 10
448.7154988245117124
 20
106.4486345069093005
 30
0.0
 40
0.0133391744862587
 50
165.9849627959268048
 51
206.0614384293288026
  0
ARC
  5
C2CE
  8
0
 10
448.7729254097332046
 20
106.4836408648029931
 30
0.0
 40
0.080546660450082
 50
210.4886074345768066
 51
222.9728713956617128
  0
ARC
  5
C2CF
  8
0
 10
449.0802796155037981
 20
106.7512991843787944
 30
0.0
 40
0.4880718031401407
 50
221.3679938748917095
 51
224.8604669944307091
  0
ARC
  5
C2D0
  8
0
 10
449.3163382759400974
 20
106.993197936925597
 30
0.0
 40
0.8260425190477562
 50
225.2039909005499965
 51
227.8420925883945074
  0
ARC
  5
C2D1
  8
0
 10
448.8281189835220744
 20
106.452435478017307
 30
0.0
 40
0.0975007498520389
 50
227.2362481591401036
 51
235.7403618746772054
  0
ARC
  5
C2D2
  8
0
 10
448.781255837180197
 20
106.3835317456963026
 30
0.0
 40
0.0141709434811737
 50
235.510784147826314
 51
271.5706643364371757
  0
ARC
  5
C2D3
  8
0
 10
448.7810473699527165
 20
106.3818468618775057
 30
0.0
 40
0.012495000326272
 50
272.7380808205932112
 51
315.0423507038776165
  0
ARC
  5
C2D4
  8
0
 10
448.5267514867854857
 20
106.2027362804603996
 30
0.0
 40
0.2960478481578904
 50
44.5862267476899916
 51
46.7795886447564584
  0
ARC
  5
C2D5
  8
0
 10
448.617227222471513
 20
106.299014397243397
 30
0.0
 40
0.1639292101115727
 50
46.779588644753531
 51
49.0852708969218412
  0
ARC
  5
C2D6
  8
0
 10
448.6930540957491189
 20
106.3865058761563063
 30
0.0
 40
0.0481515197156614
 50
49.0852708969137126
 51
54.0591017394513713
  0
ARC
  5
C2D7
  8
0
 10
448.7171486461177778
 20
106.4197412200921065
 30
0.0
 40
0.0071011184508354
 50
54.0591017394920925
 51
66.1310190635249313
  0
ARC
  5
C2D8
  8
0
 10
448.7198903880542957
 20
106.4259373666323967
 30
0.0
 40
0.0003254722975166
 50
66.131019063033861
 51
122.2147083104269996
  0
ARC
  5
C2D9
  8
0
 10
448.7198595274181798
 20
106.4260900404462973
 30
0.0
 40
0.0001881538474914
 50
139.300295340966386
 51
169.5064681130870099
  0
ARC
  5
C2DA
  8
0
 10
448.7203150744979894
 20
106.4260950144813052
 30
0.0
 40
0.0006412236066324
 50
177.3816119162144105
 51
208.1585131607039898
  0
ARC
  5
C2DB
  8
0
 10
448.7340330592926989
 20
106.4333593695415061
 30
0.0
 40
0.0161639093224561
 50
207.9135632698512097
 51
219.5603786713764123
  0
ARC
  5
C2DC
  8
0
 10
448.8772441547162089
 20
106.5511544356906057
 30
0.0
 40
0.2015960611527888
 50
219.4480302767429123
 51
225.384700207180714
  0
ARC
  5
C2DD
  8
0
 10
449.1226329999856262
 20
106.801196648380099
 30
0.0
 40
0.5519337154265749
 50
225.4820945226331048
 51
228.1748483841541031
  0
ARC
  5
C2DE
  8
0
 10
448.7849799796852039
 20
106.424658935213202
 30
0.0
 40
0.0461797888915376
 50
228.8145654567933889
 51
234.9970672804545018
  0
ARC
  5
C2DF
  8
0
 10
448.7594355555884817
 20
106.3878452407914068
 30
0.0
 40
0.0013856122598902
 50
226.9906370732082905
 51
274.8229501522690725
  0
ARC
  5
C2E0
  8
0
 10
448.7593775204672966
 20
106.3866199445183014
 30
0.0
 40
0.0002336965613697
 50
318.3171221183853277
 51
20.8942946068501101
  0
ARC
  5
C2E1
  8
0
 10
448.7456373029600059
 20
106.3798597314152943
 30
0.0
 40
0.0155459101473967
 50
26.1176694457431502
 51
40.8804524667596567
  0
ARC
  5
C2E2
  8
0
 10
448.4157288133779957
 20
106.0802718123073021
 30
0.0
 40
0.4611788874187221
 50
42.1964946073848566
 51
45.7395598893513124
  0
ARC
  5
C2E3
  8
0
 10
448.3969457825958216
 20
106.0632110329346034
 30
0.0
 40
0.4999422060251447
 50
44.4957428600686313
 51
51.9272096450506027
  0
ARC
  5
C2E4
  8
0
 10
448.4945969754689941
 20
106.1451898495589035
 30
0.0
 40
0.3729652054684832
 50
37.6515323080488429
 51
46.0271518581053982
  0
ARC
  5
C2E5
  8
0
 10
448.1750990700116972
 20
106.2211764960648992
 30
0.0
 40
0.5754752159633985
 50
44.7457620497286115
 51
48.7363462406856414
  0
ARC
  5
C2E6
  8
0
 10
448.4096199777713991
 20
106.5166113593513018
 30
0.0
 40
0.1995944934806548
 50
43.4003932220803534
 51
52.6665169080816185
  0
ARC
  5
C2E7
  8
0
 10
448.5223163450025936
 20
106.6662560721222945
 30
0.0
 40
0.0123174160695262
 50
47.3305638894877418
 51
79.2196316442185804
  0
ARC
  5
C2E8
  8
0
 10
448.5243587200947104
 20
106.6769825436052059
 30
0.0
 40
0.0013982363158355
 50
79.2196316439268173
 51
163.4030414921745944
  0
ARC
  5
C2E9
  8
0
 10
448.5345654918443188
 20
106.6794433880611024
 30
0.0
 40
0.011729328046824
 50
190.1224370811270035
 51
209.5462282978301971
  0
ARC
  5
C2EA
  8
0
 10
448.7556799893180255
 20
106.8083514792264026
 30
0.0
 40
0.267675599416682
 50
210.2113827182876946
 51
214.6248902949241995
  0
ARC
  5
C2EB
  8
0
 10
447.657444047664228
 20
105.696217397089498
 30
0.0
 40
1.3127116629978619
 50
41.5238037776086628
 51
45.1139717235591604
  0
ARC
  5
C2EC
  8
0
 10
448.5857822740294978
 20
106.5201266339626045
 30
0.0
 40
0.0715020705897464
 50
25.0485613134972986
 51
40.3855836384661089
  0
ARC
  5
C2ED
  8
0
 10
448.6437414541740054
 20
106.5469834836150937
 30
0.0
 40
0.0076260146396362
 50
0.2300276044126591
 51
26.6128306782856185
  0
ARC
  5
C2EE
  8
0
 10
448.6465453340853742
 20
106.5469947405217965
 30
0.0
 40
0.0048221121313219
 50
341.3787173380326863
 51
0.2300276044094023
  0
ARC
  5
C2EF
  8
0
 10
448.6490994310170208
 20
106.5465779069463963
 30
0.0
 40
0.0023072718272709
 50
305.7356368083188158
 51
330.8768753598374133
  0
ARC
  5
C2F0
  8
0
 10
448.6501512052545877
 20
106.545791640590096
 30
0.0
 40
0.0011261306639196
 50
252.7869706560053089
 51
285.2274085406867812
  0
ARC
  5
C2F1
  8
0
 10
448.7205194600322784
 20
106.667946852018801
 30
0.0
 40
0.142072370769341
 50
231.1250061351051102
 51
240.1557299509379959
  0
LINE
  5
C2F2
  8
0
 10
448.6401955754924984
 20
106.5665169113769934
 30
0.0
 11
448.6038679856550857
 21
106.5288283930917999
 31
0.0
  0
LINE
  5
C2F3
  8
0
 10
448.5431993062485958
 20
106.6649164345480045
 30
0.0
 11
448.5065915676394752
 21
106.6242071843439021
 31
0.0
  0
ARC
  5
C2F4
  8
0
 10
448.5178439569984903
 20
106.6148943772592048
 30
0.0
 40
0.0146063219902665
 50
140.3878465221158933
 51
162.4155321368482134
  0
ARC
  5
C2F5
  8
0
 10
448.5168622470578157
 20
106.6160766797185033
 30
0.0
 40
0.0133391744862587
 50
165.9849627959268048
 51
206.0614384293288026
  0
ARC
  5
C2F6
  8
0
 10
448.5742888322793078
 20
106.6510830376121959
 30
0.0
 40
0.080546660450082
 50
210.4886074345768066
 51
222.9728713956617128
  0
ARC
  5
C2F7
  8
0
 10
448.8816430380499014
 20
106.9187413571880967
 30
0.0
 40
0.4880718031401407
 50
221.3679938748917095
 51
224.8604669944307091
  0
ARC
  5
C2F8
  8
0
 10
449.746997977723197
 20
107.8228145917402969
 30
0.0
 40
1.7394421837757781
 50
225.862688465099211
 51
227.6806416598228111
  0
ARC
  5
C2F9
  8
0
 10
448.6420977714839182
 20
106.6082457755870934
 30
0.0
 40
0.0975007498520389
 50
227.2362481591401036
 51
235.7403618746772054
  0
ARC
  5
C2FA
  8
0
 10
448.5952346251420977
 20
106.5393420432662026
 30
0.0
 40
0.0141709434811737
 50
235.510784147826314
 51
271.5706643364371757
  0
ARC
  5
C2FB
  8
0
 10
448.5950261579146172
 20
106.5376571594474058
 30
0.0
 40
0.012495000326272
 50
272.7380808205932112
 51
315.0423507038776165
  0
ARC
  5
C2FC
  8
0
 10
448.3281149093315889
 20
106.3701784532697019
 30
0.0
 40
0.2960478481578904
 50
44.5862267476899916
 51
46.7795886447564584
  0
ARC
  5
C2FD
  8
0
 10
448.4185906450176162
 20
106.4664565700526992
 30
0.0
 40
0.1639292101115727
 50
46.779588644753531
 51
49.0852708969218412
  0
ARC
  5
C2FE
  8
0
 10
448.4944175182952222
 20
106.5539480489655944
 30
0.0
 40
0.0481515197156614
 50
49.0852708969137126
 51
54.0591017394513713
  0
ARC
  5
C2FF
  8
0
 10
448.5185120686638243
 20
106.5871833929013945
 30
0.0
 40
0.0071011184508354
 50
54.0591017394920925
 51
66.1310190635249313
  0
ARC
  5
C300
  8
0
 10
448.5212538106002853
 20
106.593379539441699
 30
0.0
 40
0.0003254722975166
 50
66.131019063033861
 51
122.2147083104269996
  0
ARC
  5
C301
  8
0
 10
448.5212229499642831
 20
106.5935322132555996
 30
0.0
 40
0.0001881538474914
 50
139.300295340966386
 51
169.5064681130870099
  0
ARC
  5
C302
  8
0
 10
448.5216784970440926
 20
106.5935371872905932
 30
0.0
 40
0.0006412236066324
 50
177.3816119162144105
 51
208.1585131607039898
  0
ARC
  5
C303
  8
0
 10
448.5353964818389159
 20
106.6008015423507942
 30
0.0
 40
0.0161639093224561
 50
207.9135632698512097
 51
219.5603786713764123
  0
ARC
  5
C304
  8
0
 10
448.6786075772623121
 20
106.7185966084998938
 30
0.0
 40
0.2015960611527888
 50
219.4480302767429123
 51
225.384700207180714
  0
ARC
  5
C305
  8
0
 10
449.5913129600212983
 20
107.6750748097480965
 30
0.0
 40
1.5236464283916309
 50
226.214923860203811
 51
227.835582869264698
  0
ARC
  5
C306
  8
0
 10
448.5989587676471047
 20
106.5804692327830026
 30
0.0
 40
0.0461797888915376
 50
228.8145654567933889
 51
234.9970672804545018
  0
ARC
  5
C307
  8
0
 10
448.5734143435503825
 20
106.5436555383613069
 30
0.0
 40
0.0013856122598902
 50
226.9906370732082905
 51
274.8229501522690725
  0
ARC
  5
C308
  8
0
 10
448.5733563084291973
 20
106.542430242088102
 30
0.0
 40
0.0002336965613697
 50
318.3171221183853277
 51
20.8942946068501101
  0
ARC
  5
C309
  8
0
 10
448.5596160909220771
 20
106.5356700289851943
 30
0.0
 40
0.0155459101473967
 50
26.1176694457431502
 51
40.8804524667596567
  0
ARC
  5
C30A
  8
0
 10
447.7227551579065903
 20
105.7228533261818058
 30
0.0
 40
1.182142847318191
 50
44.1217971854878286
 51
46.3347305297961611
  0
ARC
  5
C30B
  8
0
 10
448.2820758930993748
 20
106.3297693821876067
 30
0.0
 40
0.3702908410270352
 50
44.0378501877380089
 51
52.6733925521515403
  0
ARC
  5
C30C
  8
0
 10
447.9861708982401183
 20
105.9958639337276054
 30
0.0
 40
0.8158434335522613
 50
40.7884878983969799
 51
46.4508181702618472
  0
ARC
  5
C30D
  8
0
 10
447.9996308244643046
 20
106.3965327345529062
 30
0.0
 40
0.5754752159633985
 50
44.7457620497286115
 51
48.7363462406856414
  0
ARC
  5
C30E
  8
0
 10
448.2341517322240065
 20
106.691967597839394
 30
0.0
 40
0.1995944934806548
 50
43.4003932220803534
 51
52.6665169080816185
  0
ARC
  5
C30F
  8
0
 10
448.3468480994550873
 20
106.8416123106103015
 30
0.0
 40
0.0123174160695262
 50
47.3305638894877418
 51
79.2196316442185804
  0
ARC
  5
C310
  8
0
 10
448.3488904745473178
 20
106.8523387820932982
 30
0.0
 40
0.0013982363158355
 50
79.2196316439268173
 51
163.4030414921745944
  0
ARC
  5
C311
  8
0
 10
448.3590972462969262
 20
106.8547996265490951
 30
0.0
 40
0.011729328046824
 50
190.1224370811270035
 51
209.5462282978301971
  0
ARC
  5
C312
  8
0
 10
448.580211743770576
 20
106.9837077177144948
 30
0.0
 40
0.267675599416682
 50
210.2113827182876946
 51
214.6248902949241995
  0
ARC
  5
C313
  8
0
 10
447.968934156918408
 20
106.3761014386896022
 30
0.0
 40
0.6117011841006882
 50
38.8213142735656476
 51
44.0808830201690327
  0
ARC
  5
C314
  8
0
 10
448.3910502684664721
 20
106.7132448354028043
 30
0.0
 40
0.0715020705897464
 50
25.0485613134972986
 51
40.3855836384661089
  0
ARC
  5
C315
  8
0
 10
448.4490094486109228
 20
106.7401016850552935
 30
0.0
 40
0.0076260146396362
 50
0.2300276044126591
 51
26.6128306782856185
  0
ARC
  5
C316
  8
0
 10
448.451813328522519
 20
106.7401129419619963
 30
0.0
 40
0.0048221121313219
 50
341.3787173380326863
 51
0.2300276044094023
  0
ARC
  5
C317
  8
0
 10
448.4543674254538814
 20
106.7396961083864966
 30
0.0
 40
0.0023072718272709
 50
305.7356368083188158
 51
330.8768753598374133
  0
ARC
  5
C318
  8
0
 10
448.4554191996916188
 20
106.7389098420302957
 30
0.0
 40
0.0011261306639196
 50
252.7869706560053089
 51
285.2274085406867812
  0
ARC
  5
C319
  8
0
 10
448.5257874544693095
 20
106.8610650534590008
 30
0.0
 40
0.142072370769341
 50
231.1250061351051102
 51
240.1557299509379959
  0
LINE
  5
C31A
  8
0
 10
448.4454635699294727
 20
106.7596351128170937
 30
0.0
 11
448.4091359800920031
 21
106.7219465945319996
 31
0.0
  0
LINE
  5
C31B
  8
0
 10
448.3677310607013169
 20
106.8402726730360968
 30
0.0
 11
448.3311233220920826
 21
106.7995634228319943
 31
0.0
  0
ARC
  5
C31C
  8
0
 10
448.342375711450984
 20
106.790250615747297
 30
0.0
 40
0.0146063219902665
 50
140.3878465221158933
 51
162.4155321368482134
  0
ARC
  5
C31D
  8
0
 10
448.3413940015103094
 20
106.7914329182065956
 30
0.0
 40
0.0133391744862587
 50
165.9849627959268048
 51
206.0614384293288026
  0
ARC
  5
C31E
  8
0
 10
448.3988205867318015
 20
106.8264392761003023
 30
0.0
 40
0.080546660450082
 50
210.4886074345768066
 51
222.9728713956617128
  0
ARC
  5
C31F
  8
0
 10
448.7061747925023951
 20
107.0940975956761037
 30
0.0
 40
0.4880718031401407
 50
221.3679938748917095
 51
224.8604669944307091
  0
ARC
  5
C320
  8
0
 10
448.7023151610046057
 20
107.086506605051099
 30
0.0
 40
0.4799888006447149
 50
224.5431611340297877
 51
228.0040216486569875
  0
ARC
  5
C321
  8
0
 10
448.4473657659208925
 20
106.8013639770272931
 30
0.0
 40
0.0975007498520389
 50
227.2362481591401036
 51
235.7403618746772054
  0
ARC
  5
C322
  8
0
 10
448.400502619579072
 20
106.7324602447063029
 30
0.0
 40
0.0141709434811737
 50
235.510784147826314
 51
271.5706643364371757
  0
ARC
  5
C323
  8
0
 10
448.4002941523515915
 20
106.7307753608875061
 30
0.0
 40
0.012495000326272
 50
272.7380808205932112
 51
315.0423507038776165
  0
ARC
  5
C324
  8
0
 10
448.1526466637840826
 20
106.5455346917576946
 30
0.0
 40
0.2960478481578904
 50
44.5862267476899916
 51
46.7795886447564584
  0
ARC
  5
C325
  8
0
 10
448.2431223994701099
 20
106.6418128085407062
 30
0.0
 40
0.1639292101115727
 50
46.779588644753531
 51
49.0852708969218412
  0
ARC
  5
C326
  8
0
 10
448.3189492727477159
 20
106.7293042874536013
 30
0.0
 40
0.0481515197156614
 50
49.0852708969137126
 51
54.0591017394513713
  0
ARC
  5
C327
  8
0
 10
448.3430438231164885
 20
106.762539631389501
 30
0.0
 40
0.0071011184508354
 50
54.0591017394920925
 51
66.1310190635249313
  0
ARC
  5
C328
  8
0
 10
448.3457855650528927
 20
106.7687357779297059
 30
0.0
 40
0.0003254722975166
 50
66.131019063033861
 51
122.2147083104269996
  0
ARC
  5
C329
  8
0
 10
448.3457547044167768
 20
106.7688884517436065
 30
0.0
 40
0.0001881538474914
 50
139.300295340966386
 51
169.5064681130870099
  0
ARC
  5
C32A
  8
0
 10
448.3462102514967
 20
106.7688934257786002
 30
0.0
 40
0.0006412236066324
 50
177.3816119162144105
 51
208.1585131607039898
  0
ARC
  5
C32B
  8
0
 10
448.3599282362915233
 20
106.7761577808388012
 30
0.0
 40
0.0161639093224561
 50
207.9135632698512097
 51
219.5603786713764123
  0
ARC
  5
C32C
  8
0
 10
448.5031393317148058
 20
106.8939528469880003
 30
0.0
 40
0.2015960611527888
 50
219.4480302767429123
 51
225.384700207180714
  0
ARC
  5
C32D
  8
0
 10
448.5286112474518063
 20
106.9146029280893941
 30
0.0
 40
0.2342137179315194
 50
224.4970363476797957
 51
228.6308177956701968
  0
ARC
  5
C32E
  8
0
 10
448.4042267620841926
 20
106.7735874342232023
 30
0.0
 40
0.0461797888915376
 50
228.8145654567933889
 51
234.9970672804545018
  0
ARC
  5
C32F
  8
0
 10
448.3786823379872999
 20
106.7367737398013929
 30
0.0
 40
0.0013856122598902
 50
226.9906370732082905
 51
274.8229501522690725
  0
ARC
  5
C330
  8
0
 10
448.3786243028662284
 20
106.7355484435283017
 30
0.0
 40
0.0002336965613697
 50
318.3171221183853277
 51
20.8942946068501101
  0
ARC
  5
C331
  8
0
 10
448.3648840853589945
 20
106.7287882304252946
 30
0.0
 40
0.0155459101473967
 50
26.1176694457431502
 51
40.8804524667596567
  0
ARC
  5
C332
  8
0
 10
448.2110472511342891
 20
106.6008929771827951
 30
0.0
 40
0.2156004583445092
 50
39.8213941835919272
 51
45.0035292901283697
  0
ARC
  5
C333
  8
0
 10
448.1066076475519822
 20
106.5051256206756989
 30
0.0
 40
0.3702908410270352
 50
44.0378501877380089
 51
52.6733925521515403
  0
ARC
  5
C334
  8
0
 10
448.1138437578679259
 20
106.4941183485689038
 30
0.0
 40
0.3729652054684832
 50
37.6515323080488429
 51
46.0271518581053982
  0
ARC
  5
C335
  8
0
 10
448.8756116655117125
 20
105.4473113113149054
 30
0.0
 40
0.5754752159633985
 50
44.7457620497286115
 51
48.7363462406856414
  0
ARC
  5
C336
  8
0
 10
449.1101325732715281
 20
105.7427461746012938
 30
0.0
 40
0.1995944934806548
 50
43.4003932220803534
 51
52.6665169080816185
  0
ARC
  5
C337
  8
0
 10
449.2228289405026089
 20
105.8923908873723008
 30
0.0
 40
0.0123174160695262
 50
47.3305638894877418
 51
79.2196316442185804
  0
ARC
  5
C338
  8
0
 10
449.2248713155947826
 20
105.9031173588552974
 30
0.0
 40
0.0013982363158355
 50
79.2196316439268173
 51
163.4030414921745944
  0
ARC
  5
C339
  8
0
 10
449.2350780873442773
 20
105.9055782033110944
 30
0.0
 40
0.011729328046824
 50
190.1224370811270035
 51
209.5462282978301971
  0
ARC
  5
C33A
  8
0
 10
449.456192584817984
 20
106.0344862944763946
 30
0.0
 40
0.267675599416682
 50
210.2113827182876946
 51
214.6248902949241995
  0
ARC
  5
C33B
  8
0
 10
448.8449149979658159
 20
105.426880015451502
 30
0.0
 40
0.6117011841006882
 50
38.8213142735656476
 51
44.0808830201690327
  0
ARC
  5
C33C
  8
0
 10
449.26703110951388
 20
105.764023412164704
 30
0.0
 40
0.0715020705897464
 50
25.0485613134972986
 51
40.3855836384661089
  0
ARC
  5
C33D
  8
0
 10
449.3249902896582739
 20
105.790880261817307
 30
0.0
 40
0.0076260146396362
 50
0.2300276044126591
 51
26.6128306782856185
  0
ARC
  5
C33E
  8
0
 10
449.3277941695699269
 20
105.7908915187239955
 30
0.0
 40
0.0048221121313219
 50
341.3787173380326863
 51
0.2300276044094023
  0
ARC
  5
C33F
  8
0
 10
449.3303482665012893
 20
105.7904746851484958
 30
0.0
 40
0.0023072718272709
 50
305.7356368083188158
 51
330.8768753598374133
  0
ARC
  5
C340
  8
0
 10
449.3314000407390267
 20
105.7896884187921955
 30
0.0
 40
0.0011261306639196
 50
252.7869706560053089
 51
285.2274085406867812
  0
ARC
  5
C341
  8
0
 10
449.4017682955167174
 20
105.9118436302209005
 30
0.0
 40
0.142072370769341
 50
231.1250061351051102
 51
240.1557299509379959
  0
LINE
  5
C342
  8
0
 10
449.3214444109768806
 20
105.810413689579093
 30
0.0
 11
449.2851168211394111
 21
105.7727251712938994
 31
0.0
  0
LINE
  5
C343
  8
0
 10
449.2437119017487248
 20
105.8910512497979965
 30
0.0
 11
449.2071041631394905
 21
105.8503419995938941
 31
0.0
  0
ARC
  5
C344
  8
0
 10
449.2183565524983919
 20
105.8410291925091968
 30
0.0
 40
0.0146063219902665
 50
140.3878465221158933
 51
162.4155321368482134
  0
ARC
  5
C345
  8
0
 10
449.2173748425577173
 20
105.8422114949684953
 30
0.0
 40
0.0133391744862587
 50
165.9849627959268048
 51
206.0614384293288026
  0
ARC
  5
C346
  8
0
 10
449.2748014277792095
 20
105.8772178528623016
 30
0.0
 40
0.080546660450082
 50
210.4886074345768066
 51
222.9728713956617128
  0
ARC
  5
C347
  8
0
 10
449.582155633549803
 20
106.1448761724381029
 30
0.0
 40
0.4880718031401407
 50
221.3679938748917095
 51
224.8604669944307091
  0
ARC
  5
C348
  8
0
 10
449.5782960020521273
 20
106.1372851818129988
 30
0.0
 40
0.4799888006447149
 50
224.5431611340297877
 51
228.0040216486569875
  0
ARC
  5
C349
  8
0
 10
449.3233466069684141
 20
105.8521425537891929
 30
0.0
 40
0.0975007498520389
 50
227.2362481591401036
 51
235.7403618746772054
  0
ARC
  5
C34A
  8
0
 10
449.2764834606264799
 20
105.7832388214683021
 30
0.0
 40
0.0141709434811737
 50
235.510784147826314
 51
271.5706643364371757
  0
ARC
  5
C34B
  8
0
 10
449.2762749933989994
 20
105.7815539376495053
 30
0.0
 40
0.012495000326272
 50
272.7380808205932112
 51
315.0423507038776165
  0
ARC
  5
C34C
  8
0
 10
449.0286275048314906
 20
105.5963132685196939
 30
0.0
 40
0.2960478481578904
 50
44.5862267476899916
 51
46.7795886447564584
  0
ARC
  5
C34D
  8
0
 10
449.1191032405175747
 20
105.6925913853027055
 30
0.0
 40
0.1639292101115727
 50
46.779588644753531
 51
49.0852708969218412
  0
ARC
  5
C34E
  8
0
 10
449.1949301137951238
 20
105.7800828642156006
 30
0.0
 40
0.0481515197156614
 50
49.0852708969137126
 51
54.0591017394513713
  0
ARC
  5
C34F
  8
0
 10
449.2190246641638964
 20
105.8133182081514008
 30
0.0
 40
0.0071011184508354
 50
54.0591017394920925
 51
66.1310190635249313
  0
ARC
  5
C350
  8
0
 10
449.2217664061004143
 20
105.8195143546917052
 30
0.0
 40
0.0003254722975166
 50
66.131019063033861
 51
122.2147083104269996
  0
ARC
  5
C351
  8
0
 10
449.2217355454641847
 20
105.8196670285056058
 30
0.0
 40
0.0001881538474914
 50
139.300295340966386
 51
169.5064681130870099
  0
ARC
  5
C352
  8
0
 10
449.222191092544108
 20
105.8196720025405995
 30
0.0
 40
0.0006412236066324
 50
177.3816119162144105
 51
208.1585131607039898
  0
ARC
  5
C353
  8
0
 10
449.2359090773388743
 20
105.8269363576008004
 30
0.0
 40
0.0161639093224561
 50
207.9135632698512097
 51
219.5603786713764123
  0
ARC
  5
C354
  8
0
 10
449.3791201727623275
 20
105.9447314237499
 30
0.0
 40
0.2015960611527888
 50
219.4480302767429123
 51
225.384700207180714
  0
ARC
  5
C355
  8
0
 10
449.4045920884992142
 20
105.9653815048513934
 30
0.0
 40
0.2342137179315194
 50
224.4970363476797957
 51
228.6308177956701968
  0
ARC
  5
C356
  8
0
 10
449.2802076031316005
 20
105.8243660109851021
 30
0.0
 40
0.0461797888915376
 50
228.8145654567933889
 51
234.9970672804545018
  0
ARC
  5
C357
  8
0
 10
449.2546631790348215
 20
105.7875523165634064
 30
0.0
 40
0.0013856122598902
 50
226.9906370732082905
 51
274.8229501522690725
  0
ARC
  5
C358
  8
0
 10
449.2546051439135795
 20
105.7863270202902015
 30
0.0
 40
0.0002336965613697
 50
318.3171221183853277
 51
20.8942946068501101
  0
ARC
  5
C359
  8
0
 10
449.2408649264064024
 20
105.7795668071872939
 30
0.0
 40
0.0155459101473967
 50
26.1176694457431502
 51
40.8804524667596567
  0
ARC
  5
C35A
  8
0
 10
449.087028092181697
 20
105.6516715539447944
 30
0.0
 40
0.2156004583445092
 50
39.8213941835919272
 51
45.0035292901283697
  0
ARC
  5
C35B
  8
0
 10
448.9825884885993901
 20
105.5559041974375987
 30
0.0
 40
0.3702908410270352
 50
44.0378501877380089
 51
52.6733925521515403
  0
ARC
  5
C35C
  8
0
 10
448.989824598915277
 20
105.5448969253309031
 30
0.0
 40
0.3729652054684832
 50
37.6515323080488429
 51
46.0271518581053982
  0
ARC
  5
C35D
  8
0
 10
448.6713932724246092
 20
105.6124728566551028
 30
0.0
 40
0.5754752159633985
 50
44.7457620497286115
 51
48.7363462406856414
  0
ARC
  5
C35E
  8
0
 10
448.9059141801844248
 20
105.9079077199415053
 30
0.0
 40
0.1995944934806548
 50
43.4003932220803534
 51
52.6665169080816185
  0
ARC
  5
C35F
  8
0
 10
449.0186105474155056
 20
106.0575524327124981
 30
0.0
 40
0.0123174160695262
 50
47.3305638894877418
 51
79.2196316442185804
  0
ARC
  5
C360
  8
0
 10
449.0206529225076792
 20
106.0682789041954948
 30
0.0
 40
0.0013982363158355
 50
79.2196316439268173
 51
163.4030414921745944
  0
ARC
  5
C361
  8
0
 10
449.0308596942571171
 20
106.0707397486513059
 30
0.0
 40
0.011729328046824
 50
190.1224370811270035
 51
209.5462282978301971
  0
ARC
  5
C362
  8
0
 10
449.2519741917309943
 20
106.1996478398167056
 30
0.0
 40
0.267675599416682
 50
210.2113827182876946
 51
214.6248902949241995
  0
ARC
  5
C363
  8
0
 10
448.6406966048787126
 20
105.5920415607917988
 30
0.0
 40
0.6117011841006882
 50
38.8213142735656476
 51
44.0808830201690327
  0
ARC
  5
C364
  8
0
 10
449.0628127164267767
 20
105.9291849575050009
 30
0.0
 40
0.0715020705897464
 50
25.0485613134972986
 51
40.3855836384661089
  0
ARC
  5
C365
  8
0
 10
449.1207718965712274
 20
105.9560418071575043
 30
0.0
 40
0.0076260146396362
 50
0.2300276044126591
 51
26.6128306782856185
  0
ARC
  5
C366
  8
0
 10
449.1235757764828236
 20
105.9560530640642071
 30
0.0
 40
0.0048221121313219
 50
341.3787173380326863
 51
0.2300276044094023
  0
ARC
  5
C367
  8
0
 10
449.126129873414186
 20
105.9556362304886932
 30
0.0
 40
0.0023072718272709
 50
305.7356368083188158
 51
330.8768753598374133
  0
ARC
  5
C368
  8
0
 10
449.1271816476519234
 20
105.9548499641324071
 30
0.0
 40
0.0011261306639196
 50
252.7869706560053089
 51
285.2274085406867812
  0
ARC
  5
C369
  8
0
 10
449.1975499024296141
 20
106.0770051755611973
 30
0.0
 40
0.142072370769341
 50
231.1250061351051102
 51
240.1557299509379959
  0
LINE
  5
C36A
  8
0
 10
449.1172260178897773
 20
105.9755752349193045
 30
0.0
 11
449.0808984280524214
 21
105.9378867166340967
 31
0.0
  0
LINE
  5
C36B
  8
0
 10
449.0394935086615078
 20
106.0562127951381939
 30
0.0
 11
449.0028857700523872
 21
106.0155035449341057
 31
0.0
  0
ARC
  5
C36C
  8
0
 10
449.0141381594114023
 20
106.0061907378493942
 30
0.0
 40
0.0146063219902665
 50
140.3878465221158933
 51
162.4155321368482134
  0
ARC
  5
C36D
  8
0
 10
449.013156449470614
 20
106.0073730403088064
 30
0.0
 40
0.0133391744862587
 50
165.9849627959268048
 51
206.0614384293288026
  0
ARC
  5
C36E
  8
0
 10
449.0705830346922198
 20
106.0423793982024989
 30
0.0
 40
0.080546660450082
 50
210.4886074345768066
 51
222.9728713956617128
  0
ARC
  5
C36F
  8
0
 10
449.3779372404626997
 20
106.3100377177783002
 30
0.0
 40
0.4880718031401407
 50
221.3679938748917095
 51
224.8604669944307091
  0
ARC
  5
C370
  8
0
 10
449.374077608965024
 20
106.3024467271531961
 30
0.0
 40
0.4799888006447149
 50
224.5431611340297877
 51
228.0040216486569875
  0
ARC
  5
C371
  8
0
 10
449.1191282138813108
 20
106.0173040991294044
 30
0.0
 40
0.0975007498520389
 50
227.2362481591401036
 51
235.7403618746772054
  0
ARC
  5
C372
  8
0
 10
449.0722650675394902
 20
105.9484003668084995
 30
0.0
 40
0.0141709434811737
 50
235.510784147826314
 51
271.5706643364371757
  0
ARC
  5
C373
  8
0
 10
449.0720566003118961
 20
105.9467154829897027
 30
0.0
 40
0.012495000326272
 50
272.7380808205932112
 51
315.0423507038776165
  0
ARC
  5
C374
  8
0
 10
448.8244091117445009
 20
105.7614748138599055
 30
0.0
 40
0.2960478481578904
 50
44.5862267476899916
 51
46.7795886447564584
  0
ARC
  5
C375
  8
0
 10
448.9148848474305282
 20
105.8577529306429028
 30
0.0
 40
0.1639292101115727
 50
46.779588644753531
 51
49.0852708969218412
  0
ARC
  5
C376
  8
0
 10
448.9907117207080773
 20
105.9452444095557979
 30
0.0
 40
0.0481515197156614
 50
49.0852708969137126
 51
54.0591017394513713
  0
ARC
  5
C377
  8
0
 10
449.0148062710766794
 20
105.9784797534915981
 30
0.0
 40
0.0071011184508354
 50
54.0591017394920925
 51
66.1310190635249313
  0
ARC
  5
C378
  8
0
 10
449.0175480130131973
 20
105.9846759000319025
 30
0.0
 40
0.0003254722975166
 50
66.131019063033861
 51
122.2147083104269996
  0
ARC
  5
C379
  8
0
 10
449.0175171523770814
 20
105.9848285738458031
 30
0.0
 40
0.0001881538474914
 50
139.300295340966386
 51
169.5064681130870099
  0
ARC
  5
C37A
  8
0
 10
449.0179726994571183
 20
105.9848335478807968
 30
0.0
 40
0.0006412236066324
 50
177.3816119162144105
 51
208.1585131607039898
  0
ARC
  5
C37B
  8
0
 10
449.0316906842518279
 20
105.9920979029409978
 30
0.0
 40
0.0161639093224561
 50
207.9135632698512097
 51
219.5603786713764123
  0
ARC
  5
C37C
  8
0
 10
449.1749017796752241
 20
106.1098929690900974
 30
0.0
 40
0.2015960611527888
 50
219.4480302767429123
 51
225.384700207180714
  0
ARC
  5
C37D
  8
0
 10
449.2003736954122814
 20
106.1305430501916049
 30
0.0
 40
0.2342137179315194
 50
224.4970363476797957
 51
228.6308177956701968
  0
ARC
  5
C37E
  8
0
 10
449.0759892100443835
 20
105.9895275563253989
 30
0.0
 40
0.0461797888915376
 50
228.8145654567933889
 51
234.9970672804545018
  0
ARC
  5
C37F
  8
0
 10
449.0504447859477182
 20
105.9527138619036037
 30
0.0
 40
0.0013856122598902
 50
226.9906370732082905
 51
274.8229501522690725
  0
ARC
  5
C380
  8
0
 10
449.0503867508264761
 20
105.9514885656303989
 30
0.0
 40
0.0002336965613697
 50
318.3171221183853277
 51
20.8942946068501101
  0
ARC
  5
C381
  8
0
 10
449.0366465333194128
 20
105.9447283525275054
 30
0.0
 40
0.0155459101473967
 50
26.1176694457431502
 51
40.8804524667596567
  0
ARC
  5
C382
  8
0
 10
448.8828096990945937
 20
105.8168330992850059
 30
0.0
 40
0.2156004583445092
 50
39.8213941835919272
 51
45.0035292901283697
  0
ARC
  5
C383
  8
0
 10
448.7783700955121731
 20
105.7210657427778955
 30
0.0
 40
0.3702908410270352
 50
44.0378501877380089
 51
52.6733925521515403
  0
ARC
  5
C384
  8
0
 10
448.7856062058281736
 20
105.7100584706711004
 30
0.0
 40
0.3729652054684832
 50
37.6515323080488429
 51
46.0271518581053982
  0
ARC
  5
C385
  8
0
 10
449.2405692623881919
 20
105.0934094740748037
 30
0.0
 40
0.5754752159633985
 50
44.7457620497286115
 51
48.7363462406856414
  0
ARC
  5
C386
  8
0
 10
449.4750901701478938
 20
105.3888443373613057
 30
0.0
 40
0.1995944934806548
 50
43.4003932220803534
 51
52.6665169080816185
  0
ARC
  5
C387
  8
0
 10
449.5877865373790883
 20
105.5384890501321991
 30
0.0
 40
0.0123174160695262
 50
47.3305638894877418
 51
79.2196316442185804
  0
ARC
  5
C388
  8
0
 10
449.5898289124713187
 20
105.5492155216151957
 30
0.0
 40
0.0013982363158355
 50
79.2196316439268173
 51
163.4030414921745944
  0
ARC
  5
C389
  8
0
 10
449.6000356842206997
 20
105.5516763660710069
 30
0.0
 40
0.011729328046824
 50
190.1224370811270035
 51
209.5462282978301971
  0
ARC
  5
C38A
  8
0
 10
449.8211501816945201
 20
105.6805844572364066
 30
0.0
 40
0.267675599416682
 50
210.2113827182876946
 51
214.6248902949241995
  0
ARC
  5
C38B
  8
0
 10
449.2098725948421816
 20
105.0729781782114003
 30
0.0
 40
0.6117011841006882
 50
38.8213142735656476
 51
44.0808830201690327
  0
ARC
  5
C38C
  8
0
 10
449.6319887063903025
 20
105.4101215749247018
 30
0.0
 40
0.0715020705897464
 50
25.0485613134972986
 51
40.3855836384661089
  0
ARC
  5
C38D
  8
0
 10
449.6899478865349238
 20
105.4369784245772053
 30
0.0
 40
0.0076260146396362
 50
0.2300276044126591
 51
26.6128306782856185
  0
ARC
  5
C38E
  8
0
 10
449.6927517664462925
 20
105.4369896814838938
 30
0.0
 40
0.0048221121313219
 50
341.3787173380326863
 51
0.2300276044094023
  0
ARC
  5
C38F
  8
0
 10
449.6953058633778255
 20
105.4365728479083941
 30
0.0
 40
0.0023072718272709
 50
305.7356368083188158
 51
330.8768753598374133
  0
ARC
  5
C390
  8
0
 10
449.6963576376153924
 20
105.4357865815521933
 30
0.0
 40
0.0011261306639196
 50
252.7869706560053089
 51
285.2274085406867812
  0
ARC
  5
C391
  8
0
 10
449.7667258923930831
 20
105.5579417929808983
 30
0.0
 40
0.142072370769341
 50
231.1250061351051102
 51
240.1557299509379959
  0
LINE
  5
C392
  8
0
 10
449.6864020078533031
 20
105.4565118523390055
 30
0.0
 11
449.6500744180160041
 21
105.4188233340538972
 31
0.0
  0
LINE
  5
C393
  8
0
 10
449.6086694986250905
 20
105.5371494125578948
 30
0.0
 11
449.5720617600160267
 21
105.4964401623539061
 31
0.0
  0
ARC
  5
C394
  8
0
 10
449.5833141493749849
 20
105.4871273552690951
 30
0.0
 40
0.0146063219902665
 50
140.3878465221158933
 51
162.4155321368482134
  0
ARC
  5
C395
  8
0
 10
449.5823324394343103
 20
105.4883096577284931
 30
0.0
 40
0.0133391744862587
 50
165.9849627959268048
 51
206.0614384293288026
  0
ARC
  5
C396
  8
0
 10
449.6397590246556888
 20
105.5233160156221999
 30
0.0
 40
0.080546660450082
 50
210.4886074345768066
 51
222.9728713956617128
  0
ARC
  5
C397
  8
0
 10
449.9471132304263961
 20
105.7909743351980012
 30
0.0
 40
0.4880718031401407
 50
221.3679938748917095
 51
224.8604669944307091
  0
ARC
  5
C398
  8
0
 10
449.9432535989284929
 20
105.7833833445729965
 30
0.0
 40
0.4799888006447149
 50
224.5431611340297877
 51
228.0040216486569875
  0
ARC
  5
C399
  8
0
 10
449.6883042038447797
 20
105.4982407165492049
 30
0.0
 40
0.0975007498520389
 50
227.2362481591401036
 51
235.7403618746772054
  0
ARC
  5
C39A
  8
0
 10
449.6414410575030161
 20
105.4293369842282004
 30
0.0
 40
0.0141709434811737
 50
235.510784147826314
 51
271.5706643364371757
  0
ARC
  5
C39B
  8
0
 10
449.6412325902754219
 20
105.4276521004094036
 30
0.0
 40
0.012495000326272
 50
272.7380808205932112
 51
315.0423507038776165
  0
ARC
  5
C39C
  8
0
 10
449.3935851017080267
 20
105.2424114312796064
 30
0.0
 40
0.2960478481578904
 50
44.5862267476899916
 51
46.7795886447564584
  0
ARC
  5
C39D
  8
0
 10
449.4840608373941109
 20
105.3386895480626038
 30
0.0
 40
0.1639292101115727
 50
46.779588644753531
 51
49.0852708969218412
  0
ARC
  5
C39E
  8
0
 10
449.5598877106716031
 20
105.4261810269754989
 30
0.0
 40
0.0481515197156614
 50
49.0852708969137126
 51
54.0591017394513713
  0
ARC
  5
C39F
  8
0
 10
449.5839822610403189
 20
105.4594163709112991
 30
0.0
 40
0.0071011184508354
 50
54.0591017394920925
 51
66.1310190635249313
  0
ARC
  5
C3A0
  8
0
 10
449.58672400297678
 20
105.4656125174516035
 30
0.0
 40
0.0003254722975166
 50
66.131019063033861
 51
122.2147083104269996
  0
ARC
  5
C3A1
  8
0
 10
449.5866931423407209
 20
105.4657651912655041
 30
0.0
 40
0.0001881538474914
 50
139.300295340966386
 51
169.5064681130870099
  0
ARC
  5
C3A2
  8
0
 10
449.5871486894205873
 20
105.4657701653004978
 30
0.0
 40
0.0006412236066324
 50
177.3816119162144105
 51
208.1585131607039898
  0
ARC
  5
C3A3
  8
0
 10
449.6008666742154105
 20
105.4730345203606987
 30
0.0
 40
0.0161639093224561
 50
207.9135632698512097
 51
219.5603786713764123
  0
ARC
  5
C3A4
  8
0
 10
449.7440777696388068
 20
105.5908295865097983
 30
0.0
 40
0.2015960611527888
 50
219.4480302767429123
 51
225.384700207180714
  0
ARC
  5
C3A5
  8
0
 10
449.7695496853758073
 20
105.6114796676113059
 30
0.0
 40
0.2342137179315194
 50
224.4970363476797957
 51
228.6308177956701968
  0
ARC
  5
C3A6
  8
0
 10
449.6451652000080799
 20
105.4704641737450999
 30
0.0
 40
0.0461797888915376
 50
228.8145654567933889
 51
234.9970672804545018
  0
ARC
  5
C3A7
  8
0
 10
449.6196207759113008
 20
105.4336504793233047
 30
0.0
 40
0.0013856122598902
 50
226.9906370732082905
 51
274.8229501522690725
  0
ARC
  5
C3A8
  8
0
 10
449.619562740790002
 20
105.4324251830501993
 30
0.0
 40
0.0002336965613697
 50
318.3171221183853277
 51
20.8942946068501101
  0
ARC
  5
C3A9
  8
0
 10
449.6058225232828818
 20
105.4256649699472064
 30
0.0
 40
0.0155459101473967
 50
26.1176694457431502
 51
40.8804524667596567
  0
ARC
  5
C3AA
  8
0
 10
449.4519856890581195
 20
105.2977697167047069
 30
0.0
 40
0.2156004583445092
 50
39.8213941835919272
 51
45.0035292901283697
  0
ARC
  5
C3AB
  8
0
 10
449.3475460854758126
 20
105.2020023601975964
 30
0.0
 40
0.3702908410270352
 50
44.0378501877380089
 51
52.6733925521515403
  0
ARC
  5
C3AC
  8
0
 10
449.3547821957919268
 20
105.1909950880908013
 30
0.0
 40
0.3729652054684832
 50
37.6515323080488429
 51
46.0271518581053982
  0
ARC
  5
C3AD
  8
0
 10
448.248700804444411
 20
106.9993589123020996
 30
0.0
 40
0.018755716802734
 50
175.7872445843065066
 51
210.2876515080255047
  0
LINE
  5
C3AE
  8
0
 10
448.2325051629495078
 20
106.9898996253654957
 30
0.0
 11
448.3475504919184118
 21
106.8527381708125006
 31
0.0
  0
LINE
  5
C3AF
  8
0
 10
448.5269386296142216
 20
106.6468339203378974
 30
0.0
 11
448.4488724122995791
 21
106.7416136624078007
 31
0.0
  0
LINE
  5
C3B0
  8
0
 10
448.6220317805738205
 20
106.5476726522343967
 30
0.0
 11
448.7036562262643997
 21
106.4544437537476966
 31
0.0
  0
LINE
  5
C3B1
  8
0
 10
448.5049838632688761
 20
106.6100393318811967
 30
0.0
 11
448.4912825713752227
 21
106.5948044733385984
 31
0.0
  0
ARC
  5
C3B2
  8
0
 10
448.5000641874393068
 20
106.5869068296121043
 30
0.0
 40
0.0118105697207404
 50
138.033740363333294
 51
222.2373992179242919
  0
LINE
  5
C3B3
  8
0
 10
448.4913200434144187
 20
106.5789677174199994
 30
0.0
 11
448.5495884065670111
 21
106.5147908992591965
 31
0.0
  0
ARC
  5
C3B4
  8
0
 10
448.5583281736896879
 20
106.5227260375095995
 30
0.0
 40
0.0118046579116614
 50
222.2373992179093136
 51
316.0426830074799796
  0
LINE
  5
C3B5
  8
0
 10
448.566825840414424
 20
106.5145321612200036
 30
0.0
 11
448.582665663775515
 21
106.5309526918405965
 31
0.0
  0
LINE
  5
C3B6
  8
0
 10
448.7035159310931931
 20
106.4427741450349032
 30
0.0
 11
448.664272488214408
 21
106.404550176219999
 31
0.0
  0
ARC
  5
C3B7
  8
0
 10
448.6734487443068247
 20
106.3964014373925977
 30
0.0
 40
0.0122721481555543
 50
138.3941435877295874
 51
221.2723127442307032
  0
ARC
  5
C3B8
  8
0
 10
449.3765903960912169
 20
106.9837249943202977
 30
0.0
 40
0.9284328936067113
 50
219.8900099402663955
 51
225.3816823849718105
  0
ARC
  5
C3B9
  8
0
 10
448.7320870001212256
 20
106.331950714087597
 30
0.0
 40
0.0118486716704183
 50
230.2551300317217908
 51
318.5568996145731262
  0
LINE
  5
C3BA
  8
0
 10
448.7409689230568119
 20
106.3241083633353981
 30
0.0
 11
448.780928198558172
 21
106.3693645902980052
 31
0.0
  0
LINE
  5
C3BB
  8
0
 10
448.8482260405380089
 20
106.2225275238873934
 30
0.0
 11
448.8304901049149862
 21
106.203343941640199
 31
0.0
  0
ARC
  5
C3BC
  8
0
 10
448.8415416539023113
 20
106.1949962467616047
 30
0.0
 40
0.0138499366354074
 50
142.9347307040760882
 51
207.4142873481360141
  0
LINE
  5
C3BD
  8
0
 10
448.8292470568197814
 20
106.1886194429082053
 30
0.0
 11
448.8906915021144073
 21
106.1261676121200992
 31
0.0
  0
ARC
  5
C3BE
  8
0
 10
448.8991108962673025
 20
106.134451679523707
 30
0.0
 40
0.0118113220729689
 50
224.5358541842352906
 51
316.5316086881401816
  0
LINE
  5
C3BF
  8
0
 10
448.9076830106142779
 20
106.1263260297200048
 30
0.0
 11
448.9355471331513172
 21
106.1557211489215007
 31
0.0
  0
LINE
  5
C3C0
  8
0
 10
449.1283359170633958
 20
105.9552824623125957
 30
0.0
 11
449.2155023933581219
 21
105.8596811630667958
 31
0.0
  0
LINE
  5
C3C1
  8
0
 10
449.1799498151407875
 20
105.8986740513146003
 30
0.0
 11
449.1483416796097003
 21
105.8637993963667014
 31
0.0
  0
ARC
  5
C3C2
  8
0
 10
449.1581636025131843
 20
105.8558440017686024
 30
0.0
 40
0.0126395598315314
 50
140.9938059443344969
 51
230.5747224193914917
  0
LINE
  5
C3C3
  8
0
 10
449.1501365800144185
 20
105.8460805299200018
 30
0.0
 11
449.3695778736330908
 21
105.6331959699369065
 31
0.0
  0
ARC
  5
C3C4
  8
0
 10
449.3802134266942971
 20
105.6434932465105021
 30
0.0
 40
0.0148178885612018
 50
223.5874328405564029
 51
266.0626140569539757
  0
LINE
  5
C3C5
  8
0
 10
449.3104706725143274
 20
105.7745651467199934
 30
0.0
 11
449.2776313104195083
 21
105.7393068460593071
 31
0.0
  0
ARC
  5
C3C6
  8
0
 10
449.2872748450122913
 20
105.7303249178768993
 30
0.0
 40
0.0131784973846382
 50
137.0343829269106095
 51
206.1580973075454892
  0
LINE
  5
C3C7
  8
0
 10
449.2512350837208146
 20
105.7859727788941058
 30
0.0
 11
449.2402225839651919
 21
105.7741491013728989
 31
0.0
  0
ARC
  5
C3C8
  8
0
 10
449.2485133415823952
 20
105.7664271412575943
 30
0.0
 40
0.0113298424477255
 50
137.0343829268836089
 51
225.132178090404409
  0
LINE
  5
C3C9
  8
0
 10
449.2044327459395276
 20
105.845441930093898
 30
0.0
 11
449.186372442327297
 21
105.8258546043275032
 31
0.0
  0
ARC
  5
C3CA
  8
0
 10
449.1970927826083084
 20
105.8175092867902976
 30
0.0
 40
0.0135856549543153
 50
142.100797603105093
 51
199.6585811156053012
  0
LINE
  5
C3CB
  8
0
 10
449.2985638767937075
 20
105.7866759895335065
 30
0.0
 11
449.3637713304144086
 21
105.7188007974200019
 31
0.0
  0
ARC
  5
C3CC
  8
0
 10
449.1596021299617973
 20
105.4663280660159046
 30
0.0
 40
0.3291166933781726
 50
43.7111599657061021
 51
52.9199936028106706
  0
ARC
  5
C3CD
  8
0
 10
449.1647374874887078
 20
105.4731231530794986
 30
0.0
 40
0.3205993519425521
 50
52.9199936028106706
 51
54.0290012013273113
  0
ARC
  5
C3CE
  8
0
 10
449.3501191535863768
 20
105.7285509116759954
 30
0.0
 40
0.0049893045948908
 50
54.0290012012834708
 51
79.0192351182820687
  0
ARC
  5
C3CF
  8
0
 10
449.3509543665322212
 20
105.7328554245513033
 30
0.0
 40
0.0006045113547757
 50
79.0192351179935173
 51
188.6840012840814893
  0
LINE
  5
C3D0
  8
0
 10
449.3667586931072719
 20
105.7220719085251943
 30
0.0
 11
449.3356847511143997
 21
105.6880364459200052
 31
0.0
  0
ARC
  5
C3D1
  8
0
 10
449.3458569989036278
 20
105.6801256907979933
 30
0.0
 40
0.0128862202249832
 50
142.1285020204830118
 51
228.9744428746955975
  0
LINE
  5
C3D2
  8
0
 10
449.3373985405643793
 20
105.6704041089199961
 30
0.0
 11
449.3791959375142824
 21
105.6287103328200061
 31
0.0
  0
LINE
  5
C3D3
  8
0
 10
449.3791959375142824
 20
105.6287103328200061
 30
0.0
 11
449.4662200133142846
 21
105.5478704861201038
 31
0.0
  0
ARC
  5
C3D4
  8
0
 10
449.4757282997560992
 20
105.5581061542195016
 30
0.0
 40
0.0139705551965719
 50
227.1098640403758111
 51
307.5547602385317987
  0
LINE
  5
C3D5
  8
0
 10
449.4842436241142991
 20
105.5470307010200059
 30
0.0
 11
449.5186820636932907
 21
105.5735085776474023
 31
0.0
  0
ARC
  5
C3D6
  8
0
 10
459.3500181110384233
 20
115.1547642171448018
 30
0.0
 40
13.7274920872870307
 50
223.884931786510009
 51
224.2236458297253137
  0
ARC
  5
C3D7
  8
0
 10
449.3523172929661769
 20
105.4345670869096949
 30
0.0
 40
0.2166687779883391
 50
36.9205625242388109
 51
42.2954230233719315
  0
ARC
  5
C3D8
  8
0
 10
449.5238925982775982
 20
105.5633109793844966
 30
0.0
 40
0.0021667494745095
 50
350.9611781498931009
 51
40.6185847730312801
  0
ARC
  5
C3D9
  8
0
 10
449.5512806769929739
 20
105.5939047827712045
 30
0.0
 40
0.0399299212107109
 50
223.488473595748502
 51
230.7789708451578861
  0
LINE
  5
C3DA
  8
0
 10
449.5223110066472145
 20
105.5664246661786052
 30
0.0
 11
449.5165035854927851
 21
105.5718336621247033
 31
0.0
  0
LINE
  5
C3DB
  8
0
 10
448.7769900748915006
 20
106.3649044338956031
 30
0.0
 11
448.8728004178939273
 21
106.2517845495685975
 31
0.0
  0
LINE
  5
C3DC
  8
0
 10
448.947073910656627
 20
106.1686550242300058
 30
0.0
 11
449.0241497785822844
 21
106.0685540533525995
 31
0.0
  0
LINE
  5
C3DD
  8
0
 10
449.5260324413143849
 20
105.5629705751200049
 30
0.0
 11
449.5812425366755747
 21
105.5066495483553979
 31
0.0
  0
ARC
  5
C3DE
  8
0
 10
450.3730995594178239
 20
105.5284152329628995
 30
0.0
 40
0.4760028772711134
 50
227.5882504145768905
 51
232.04937542638379
  0
ARC
  5
C3DF
  8
0
 10
450.1750034201193102
 20
105.2744128584357952
 30
0.0
 40
0.1538859937173968
 50
232.0493754263796973
 51
242.1426514691823968
  0
ARC
  5
C3E0
  8
0
 10
450.1104676424017157
 20
105.1523062686031977
 30
0.0
 40
0.0157741336685405
 50
242.1426514691827094
 51
269.693775732882898
  0
ARC
  5
C3E1
  8
0
 10
450.1104623267527813
 20
105.1513116990008001
 30
0.0
 40
0.0147795498609997
 50
269.6937757328893781
 51
313.506463979775674
  0
LINE
  5
C3E2
  8
0
 10
450.1206371069472993
 20
105.1405921401438945
 30
0.0
 11
450.159782585947994
 21
105.1820022206429996
 31
0.0
  0
ARC
  5
C3E3
  8
0
 10
449.9295068273686979
 20
105.0396188478023021
 30
0.0
 40
0.2655356843020728
 50
37.7226767959486367
 51
47.9725342663353302
  0
ARC
  5
C3E4
  8
0
 10
449.9273701041711888
 20
104.9679813015754064
 30
0.0
 40
0.3159438486253768
 50
42.6409395171306471
 51
47.8135769375702466
  0
ARC
  5
C3E5
  8
0
 10
450.121864852284375
 20
105.1460053488378037
 30
0.0
 40
0.0522831646512264
 50
26.5457897976978607
 51
43.5113563015499807
  0
ARC
  5
C3E6
  8
0
 10
450.1620420062051267
 20
105.1662354410930931
 30
0.0
 40
0.0073018735138627
 50
357.1775918073328739
 51
25.4338616226005385
  0
ARC
  5
C3E7
  8
0
 10
450.1673883372041018
 20
105.1662393708118941
 30
0.0
 40
0.0019803277503879
 50
295.1626484094060174
 51
349.4237559729953091
  0
ARC
  5
C3E8
  8
0
 10
450.1738456736741796
 20
105.2067392680357045
 30
0.0
 40
0.0426634566966164
 50
235.8195115906343062
 51
262.4368408677610205
  0
ARC
  5
C3E9
  8
0
 10
449.9656739430179186
 20
105.0805844656348
 30
0.0
 40
0.1399908709702604
 50
40.5682159102122526
 51
48.0724183667424327
  0
ARC
  5
C3EA
  8
0
 10
450.0550026001598098
 20
105.1570627927435027
 30
0.0
 40
0.0223960432619965
 50
30.4459704512352687
 51
40.5675848386469227
  0
ARC
  5
C3EB
  8
0
 10
450.0694937170700882
 20
105.165580316715193
 30
0.0
 40
0.0055870967181137
 50
17.7548016560916793
 51
30.4459704512045484
  0
ARC
  5
C3EC
  8
0
 10
450.0741313672897945
 20
105.1670652687469953
 30
0.0
 40
0.0007175092511611
 50
323.4522643183307196
 51
17.7548016562508089
  0
ARC
  5
C3ED
  8
0
 10
450.07435141800471
 20
105.1671126712412985
 30
0.0
 40
0.0005935600035988
 50
262.6822742275621749
 51
306.8979249738437147
  0
ARC
  5
C3EE
  8
0
 10
450.0764490493921812
 20
105.1756300416685974
 30
0.0
 40
0.0093618336440673
 50
235.7902484882451972
 51
256.5770435344854832
  0
ARC
  5
C3EF
  8
0
 10
450.1396385556820974
 20
105.2703179152583033
 30
0.0
 40
0.1231978308978852
 50
226.8049382042117941
 51
236.2455769334881097
  0
ARC
  5
C3F0
  8
0
 10
449.7997000495157067
 20
104.8970104730977937
 30
0.0
 40
0.3925433047248991
 50
41.2031968053154074
 51
47.9429755844389334
  0
ARC
  5
C3F1
  8
0
 10
450.0340620707938228
 20
105.1022020120163063
 30
0.0
 40
0.0810483213602212
 50
31.7424912385232005
 51
41.2031968053246018
  0
ARC
  5
C3F2
  8
0
 10
450.0962074839663956
 20
105.1406474984108002
 30
0.0
 40
0.0079722801257748
 50
355.787033153890377
 51
31.7424912384728017
  0
ARC
  5
C3F3
  8
0
 10
450.1027124535585813
 20
105.1427425645110958
 30
0.0
 40
0.0030457541273204
 50
249.3732414752774105
 51
298.338728109079284
  0
ARC
  5
C3F4
  8
0
 10
450.1043926434298896
 20
105.154147566822104
 30
0.0
 40
0.0145189301584878
 50
246.4660814044746928
 51
259.0691306431743897
  0
ARC
  5
C3F5
  8
0
 10
450.3763434375111956
 20
105.5254242466653949
 30
0.0
 40
0.4760028772711134
 50
222.5960165039587935
 51
227.0571415157666877
  0
ARC
  5
C3F6
  8
0
 10
450.1392189796051184
 20
105.3074075543385959
 30
0.0
 40
0.1538859937173968
 50
212.5027404611610962
 51
222.5960165039628009
  0
ARC
  5
C3F7
  8
0
 10
450.0227401677553871
 20
105.2331945347517035
 30
0.0
 40
0.0157741336685405
 50
184.9516161974597139
 51
212.5027404611604993
  0
ARC
  5
C3F8
  8
0
 10
450.0217492957921195
 20
105.2331086877788948
 30
0.0
 40
0.0147795498609997
 50
141.1389279505661989
 51
184.9516161974532906
  0
LINE
  5
C3F9
  8
0
 10
450.0102409093166216
 20
105.2423818822028068
 30
0.0
 11
450.0483446219154189
 21
105.2847525132972066
 31
0.0
  0
ARC
  5
C3FA
  8
0
 10
449.9250786823657791
 20
105.0437017759039975
 30
0.0
 40
0.2655356843020728
 50
46.6728576640077932
 51
56.9227151343929592
  0
ARC
  5
C3FB
  8
0
 10
449.8538495135933886
 20
105.0357702482199045
 30
0.0
 40
0.3159438486253768
 50
46.8318149927725003
 51
52.0044524132109771
  0
ARC
  5
C3FC
  8
0
 10
450.0155369024180914
 20
105.2440440025490034
 30
0.0
 40
0.0522831646512264
 50
51.1340356287928586
 51
68.0996021326456855
  0
ARC
  5
C3FD
  8
0
 10
450.0324466485280936
 20
105.2857275822454994
 30
0.0
 40
0.0073018735138627
 50
69.2115303077443116
 51
97.4678001230099653
  0
ARC
  5
C3FE
  8
0
 10
450.0320175735508883
 20
105.2910566689644014
 30
0.0
 40
0.0019803277503879
 50
105.2216359573481981
 51
159.4827435209371913
  0
ARC
  5
C3FF
  8
0
 10
450.0718614592365725
 20
105.3007728226731956
 30
0.0
 40
0.0426634566966164
 50
192.2085510625813072
 51
218.8258803397091015
  0
ARC
  5
C400
  8
0
 10
449.9629806056839243
 20
105.083067830956594
 30
0.0
 40
0.1399908711282218
 50
46.5729735486874077
 51
54.0771760180082808
  0
ARC
  5
C401
  8
0
 10
450.0319731021851908
 20
105.1782969177305063
 30
0.0
 40
0.0223960432619965
 50
54.0778070916954618
 51
64.1994214791078548
  0
ARC
  5
C402
  8
0
 10
450.0392890312718919
 20
105.1934302539626032
 30
0.0
 40
0.0055870967181137
 50
64.1994214791399145
 51
76.8905902742529577
  0
ARC
  5
C403
  8
0
 10
450.0403935085464013
 20
105.1981729338009046
 30
0.0
 40
0.0007175092511611
 50
76.890590274092574
 51
131.1931276120128018
  0
ARC
  5
C404
  8
0
 10
450.0404229337286779
 20
105.1983961007164936
 30
0.0
 40
0.0005935600035988
 50
147.7474669565004035
 51
191.9631177027816875
  0
ARC
  5
C405
  8
0
 10
450.0487424406410923
 20
105.2011766512314068
 30
0.0
 40
0.0093618336440673
 50
198.0683483958563045
 51
218.8551434421002
  0
ARC
  5
C406
  8
0
 10
450.1380016385558065
 20
105.2718272187997997
 30
0.0
 40
0.1231978308978852
 50
218.3998149968547864
 51
227.840453726131301
  0
ARC
  5
C407
  8
0
 10
449.7934516394096249
 20
104.9027717589628992
 30
0.0
 40
0.3925433047248991
 50
46.7024163459050499
 51
53.4421951250264087
  0
ARC
  5
C408
  8
0
 10
449.9789884813932872
 20
105.1529820803489059
 30
0.0
 40
0.0810483213602212
 50
53.4421951250177827
 51
62.9029006918206406
  0
ARC
  5
C409
  8
0
 10
450.0122746063505019
 20
105.2180369932136017
 30
0.0
 40
0.0079722801257748
 50
62.9029006918683393
 51
98.8583587764531586
  0
ARC
  5
C40A
  8
0
 10
450.0138359619313064
 20
105.2246902706096989
 30
0.0
 40
0.0030457541273204
 50
156.3066638212634132
 51
205.2721504550642919
  0
ARC
  5
C40B
  8
0
 10
450.0250674229384913
 20
105.227288616114393
 30
0.0
 40
0.0145189301584878
 50
195.5762612871691886
 51
208.1793105258674927
  0
ARC
  5
C40C
  8
0
 10
450.1404014877429063
 20
105.6546288686842985
 30
0.0
 40
0.4760028772711134
 50
227.5882504145768905
 51
232.04937542638379
  0
ARC
  5
C40D
  8
0
 10
449.9423053484445063
 20
105.4006264941571942
 30
0.0
 40
0.1538859937173968
 50
232.0493754263796973
 51
242.1426514691823968
  0
ARC
  5
C40E
  8
0
 10
449.8777695707269118
 20
105.2785199043246962
 30
0.0
 40
0.0157741336685405
 50
242.1426514691827094
 51
269.693775732882898
  0
ARC
  5
C40F
  8
0
 10
449.8777642550779774
 20
105.2775253347221991
 30
0.0
 40
0.0147795498609997
 50
269.6937757328893781
 51
313.506463979775674
  0
LINE
  5
C410
  8
0
 10
449.8879390352724954
 20
105.266805775865393
 30
0.0
 11
449.9270845142731901
 21
105.3082158563644981
 31
0.0
  0
ARC
  5
C411
  8
0
 10
449.696808755693894
 20
105.1658324835237011
 30
0.0
 40
0.2655356843020728
 50
37.7226767959486367
 51
47.9725342663353302
  0
ARC
  5
C412
  8
0
 10
449.6946720324963849
 20
105.0941949372969049
 30
0.0
 40
0.3159438486253768
 50
42.6409395171306471
 51
47.8135769375702466
  0
ARC
  5
C413
  8
0
 10
449.8891667806096848
 20
105.2722189845592027
 30
0.0
 40
0.0522831646512264
 50
26.5457897976978607
 51
43.5113563015499807
  0
ARC
  5
C414
  8
0
 10
449.9293439345303227
 20
105.2924490768146057
 30
0.0
 40
0.0073018735138627
 50
357.1775918073328739
 51
25.4338616226005385
  0
ARC
  5
C415
  8
0
 10
449.9346902655291842
 20
105.2924530065332931
 30
0.0
 40
0.0019803277503879
 50
295.1626484094060174
 51
349.4237559729953091
  0
ARC
  5
C416
  8
0
 10
449.9411476019993756
 20
105.3329529037571035
 30
0.0
 40
0.0426634566966164
 50
235.8195115906343062
 51
262.4368408677610205
  0
ARC
  5
C417
  8
0
 10
449.7329758713432284
 20
105.206798101356199
 30
0.0
 40
0.1399908709702604
 50
40.5682159102122526
 51
48.0724183667424327
  0
ARC
  5
C418
  8
0
 10
449.8223045284850059
 20
105.2832764284649016
 30
0.0
 40
0.0223960432619965
 50
30.4459704512352687
 51
40.5675848386469227
  0
ARC
  5
C419
  8
0
 10
449.8367956453952843
 20
105.2917939524366062
 30
0.0
 40
0.0055870967181137
 50
17.7548016560916793
 51
30.4459704512045484
  0
ARC
  5
C41A
  8
0
 10
449.8414332956151043
 20
105.2932789044683943
 30
0.0
 40
0.0007175092511611
 50
323.4522643183307196
 51
17.7548016562508089
  0
ARC
  5
C41B
  8
0
 10
449.8416533463299061
 20
105.2933263069626975
 30
0.0
 40
0.0005935600035988
 50
262.6822742275621749
 51
306.8979249738437147
  0
ARC
  5
C41C
  8
0
 10
449.8437509777173773
 20
105.3018436773899964
 30
0.0
 40
0.0093618336440673
 50
235.7902484882451972
 51
256.5770435344854832
  0
ARC
  5
C41D
  8
0
 10
449.9069404840072934
 20
105.3965315509797023
 30
0.0
 40
0.1231978308978852
 50
226.8049382042117941
 51
236.2455769334881097
  0
ARC
  5
C41E
  8
0
 10
449.5670019778407891
 20
105.0232241088192069
 30
0.0
 40
0.3925433047248991
 50
41.2031968053154074
 51
47.9429755844389334
  0
ARC
  5
C41F
  8
0
 10
449.8013639991190189
 20
105.2284156477378048
 30
0.0
 40
0.0810483213602212
 50
31.7424912385232005
 51
41.2031968053246018
  0
ARC
  5
C420
  8
0
 10
449.8635094122915916
 20
105.2668611341321991
 30
0.0
 40
0.0079722801257748
 50
355.787033153890377
 51
31.7424912384728017
  0
ARC
  5
C421
  8
0
 10
449.8700143818837773
 20
105.2689562002325943
 30
0.0
 40
0.0030457541273204
 50
249.3732414752774105
 51
298.338728109079284
  0
ARC
  5
C422
  8
0
 10
449.8716945717551994
 20
105.2803612025436024
 30
0.0
 40
0.0145189301584878
 50
246.4660814044746928
 51
259.0691306431743897
  0
ARC
  5
C423
  8
0
 10
450.1436453658365053
 20
105.6516378823867939
 30
0.0
 40
0.4760028772711134
 50
222.5960165039587935
 51
227.0571415157666877
  0
ARC
  5
C424
  8
0
 10
449.9065209079303145
 20
105.4336211900600944
 30
0.0
 40
0.1538859937173968
 50
212.5027404611610962
 51
222.5960165039628009
  0
ARC
  5
C425
  8
0
 10
449.7900420960805832
 20
105.3594081704732019
 30
0.0
 40
0.0157741336685405
 50
184.9516161974597139
 51
212.5027404611604993
  0
ARC
  5
C426
  8
0
 10
449.7890512241173155
 20
105.3593223235003933
 30
0.0
 40
0.0147795498609997
 50
141.1389279505661989
 51
184.9516161974532906
  0
LINE
  5
C427
  8
0
 10
449.7775428376418176
 20
105.3685955179243052
 30
0.0
 11
449.8156465502405013
 21
105.4109661490187051
 31
0.0
  0
ARC
  5
C428
  8
0
 10
449.6923806106909751
 20
105.1699154116254959
 30
0.0
 40
0.2655356843020728
 50
46.6728576640077932
 51
56.9227151343929592
  0
ARC
  5
C429
  8
0
 10
449.6211514419185846
 20
105.1619838839413035
 30
0.0
 40
0.3159438486253768
 50
46.8318149927725003
 51
52.0044524132109771
  0
ARC
  5
C42A
  8
0
 10
449.7828388307434011
 20
105.3702576382704024
 30
0.0
 40
0.0522831646512264
 50
51.1340356287928586
 51
68.0996021326456855
  0
ARC
  5
C42B
  8
0
 10
449.7997485768534034
 20
105.4119412179669979
 30
0.0
 40
0.0073018735138627
 50
69.2115303077443116
 51
97.4678001230099653
  0
ARC
  5
C42C
  8
0
 10
449.799319501876198
 20
105.4172703046858004
 30
0.0
 40
0.0019803277503879
 50
105.2216359573481981
 51
159.4827435209371913
  0
ARC
  5
C42D
  8
0
 10
449.8391633875618254
 20
105.4269864583946941
 30
0.0
 40
0.0426634566966164
 50
192.2085510625813072
 51
218.8258803397091015
  0
ARC
  5
C42E
  8
0
 10
449.7302825340091772
 20
105.209281466677993
 30
0.0
 40
0.1399908711282218
 50
46.5729735486874077
 51
54.0771760180082808
  0
ARC
  5
C42F
  8
0
 10
449.7992750305103868
 20
105.3045105534520047
 30
0.0
 40
0.0223960432619965
 50
54.0778070916954618
 51
64.1994214791078548
  0
ARC
  5
C430
  8
0
 10
449.8065909595970879
 20
105.3196438896841016
 30
0.0
 40
0.0055870967181137
 50
64.1994214791399145
 51
76.8905902742529577
  0
ARC
  5
C431
  8
0
 10
449.8076954368715974
 20
105.3243865695223036
 30
0.0
 40
0.0007175092511611
 50
76.890590274092574
 51
131.1931276120128018
  0
ARC
  5
C432
  8
0
 10
449.8077248620538739
 20
105.3246097364380063
 30
0.0
 40
0.0005935600035988
 50
147.7474669565004035
 51
191.9631177027816875
  0
ARC
  5
C433
  8
0
 10
449.8160443689664021
 20
105.3273902869528058
 30
0.0
 40
0.0093618336440673
 50
198.0683483958563045
 51
218.8551434421002
  0
ARC
  5
C434
  8
0
 10
449.9053035668810026
 20
105.3980408545212981
 30
0.0
 40
0.1231978308978852
 50
218.3998149968547864
 51
227.840453726131301
  0
ARC
  5
C435
  8
0
 10
449.5607535677348778
 20
105.0289853946843976
 30
0.0
 40
0.3925433047248991
 50
46.7024163459050499
 51
53.4421951250264087
  0
ARC
  5
C436
  8
0
 10
449.7462904097184833
 20
105.2791957160704044
 30
0.0
 40
0.0810483213602212
 50
53.4421951250177827
 51
62.9029006918206406
  0
ARC
  5
C437
  8
0
 10
449.7795765346758117
 20
105.3442506289350007
 30
0.0
 40
0.0079722801257748
 50
62.9029006918683393
 51
98.8583587764531586
  0
ARC
  5
C438
  8
0
 10
449.7811378902565025
 20
105.3509039063311974
 30
0.0
 40
0.0030457541273204
 50
156.3066638212634132
 51
205.2721504550642919
  0
ARC
  5
C439
  8
0
 10
449.7923693512636873
 20
105.3535022518359057
 30
0.0
 40
0.0145189301584878
 50
195.5762612871691886
 51
208.1793105258674927
  0
ARC
  5
C43A
  8
0
 10
449.892112303078477
 20
104.5867613815473049
 30
0.0
 40
0.5754752159633985
 50
45.9090454188623127
 51
49.8996296098193284
  0
ARC
  5
C43B
  8
0
 10
450.1675831559500125
 20
104.8444387453956068
 30
0.0
 40
0.1995944934806548
 50
41.9788747514680409
 51
51.2449984374648011
  0
ARC
  5
C43C
  8
0
 10
450.3076091713530786
 20
104.9688844213256971
 30
0.0
 40
0.0123174160695262
 50
15.4257600153275405
 51
47.3148277700616973
  0
ARC
  5
C43D
  8
0
 10
450.3181349976313754
 20
104.9717888089814011
 30
0.0
 40
0.0013982363158355
 50
291.2423501673731039
 51
15.4257600156214707
  0
ARC
  5
C43E
  8
0
 10
450.3197611263237263
 20
104.9821613520859955
 30
0.0
 40
0.011729328046824
 50
245.0991633617171033
 51
264.5229545784205811
  0
ARC
  5
C43F
  8
0
 10
450.4303380087799269
 20
105.2129895783219951
 30
0.0
 40
0.267675599416682
 50
240.0205013646217935
 51
244.4340089412586963
  0
ARC
  5
C440
  8
0
 10
449.8742342029717065
 20
104.5545108499912033
 30
0.0
 40
0.6117011841006882
 50
50.5645086393764984
 51
55.8240773859820507
  0
ARC
  5
C441
  8
0
 10
450.1760835085840995
 20
105.002545087831507
 30
0.0
 40
0.0715020705897464
 50
54.2598080210800404
 51
69.5968303460515187
  0
ARC
  5
C442
  8
0
 10
450.198158102511627
 20
105.0624889719165935
 30
0.0
 40
0.0076260146396362
 50
68.0325609812618666
 51
94.4153640551342619
  0
ARC
  5
C443
  8
0
 10
450.1979422401840907
 20
105.0652845528457959
 30
0.0
 40
0.0048221121313219
 50
94.4153640551408273
 51
113.2666743215148983
  0
ARC
  5
C444
  8
0
 10
450.1973199232081129
 20
105.0677965008840005
 30
0.0
 40
0.0023072718272709
 50
123.768516299709205
 51
148.9097548512297067
  0
ARC
  5
C445
  8
0
 10
450.196451058010723
 20
105.0687811414776007
 30
0.0
 40
0.0011261306639196
 50
169.4179831188606045
 51
201.8584210035411104
  0
ARC
  5
C446
  8
0
 10
450.3125059680455138
 20
105.1488114158522933
 30
0.0
 40
0.142072370769341
 50
214.4896617086099013
 51
223.5203855244452882
  0
LINE
  5
C447
  8
0
 10
450.2179145392196915
 20
105.0605367259412048
 30
0.0
 11
450.1832919465670102
 21
105.0212761315502945
 31
0.0
  0
LINE
  5
C448
  8
0
 10
450.3045826530483851
 20
104.9895902873106053
 30
0.0
 11
450.2669719403439785
 21
104.9498058196363957
 31
0.0
  0
ARC
  5
C449
  8
0
 10
450.2567784105090141
 20
104.9602670141945993
 30
0.0
 40
0.0146063219902665
 50
292.2298595227018723
 51
314.2575451374319755
  0
ARC
  5
C44A
  8
0
 10
450.2580363364344862
 20
104.9593842821409027
 30
0.0
 40
0.0133391744862587
 50
248.5839532302180999
 51
288.660428863620325
  0
ARC
  5
C44B
  8
0
 10
450.2882768018150159
 20
105.0194573379709055
 30
0.0
 40
0.080546660450082
 50
231.6725202638853034
 51
244.156784224969897
  0
ARC
  5
C44C
  8
0
 10
450.5301636906432918
 20
105.3474791617205
 30
0.0
 40
0.4880718031401407
 50
229.7849246651175008
 51
233.2773977846565003
  0
ARC
  5
C44D
  8
0
 10
450.5229102222783126
 20
105.3430174254389016
 30
0.0
 40
0.4799888006447149
 50
226.6413700108934108
 51
230.1022305255181095
  0
ARC
  5
C44E
  8
0
 10
450.2593522691813064
 20
105.0658122347783063
 30
0.0
 40
0.0975007498520389
 50
218.9050297848719993
 51
227.4091435004081063
  0
ARC
  5
C44F
  8
0
 10
450.1944702633272755
 20
105.0135226169830958
 30
0.0
 40
0.0141709434811737
 50
183.0747273231106931
 51
219.1346075117220948
  0
ARC
  5
C450
  8
0
 10
450.1928077977672729
 20
105.013178378214505
 30
0.0
 40
0.012495000326272
 50
139.603040955670906
 51
181.9073108389547997
  0
ARC
  5
C451
  8
0
 10
450.0282322575133094
 20
104.7513420254223035
 30
0.0
 40
0.2960478481578904
 50
47.865803014792121
 51
50.0591649118591135
  0
ARC
  5
C452
  8
0
 10
450.1168666020503224
 20
104.8493179790420982
 30
0.0
 40
0.1639292101115727
 50
45.5601207626264824
 51
47.8658030147932081
  0
ARC
  5
C453
  8
0
 10
450.19792956314609
 20
104.9319815740026058
 30
0.0
 40
0.0481515197156614
 50
40.5862899200960996
 51
45.5601207626339928
  0
ARC
  5
C454
  8
0
 10
450.2291043465056077
 20
104.9586886578285032
 30
0.0
 40
0.0071011184508354
 50
28.514372596024419
 51
40.586289920053531
  0
ARC
  5
C455
  8
0
 10
450.2350580890972083
 20
104.9619232103399042
 30
0.0
 40
0.0003254722975166
 50
332.4306833491198176
 51
28.5143725965155603
  0
ARC
  5
C456
  8
0
 10
450.2352127607413195
 20
104.9619048159156023
 30
0.0
 40
0.0001881538474914
 50
285.1389235464613989
 51
315.3450963185820228
  0
ARC
  5
C457
  8
0
 10
450.2351808243250275
 20
104.9623592693768046
 30
0.0
 40
0.0006412236066324
 50
246.486878498845698
 51
277.2637797433329183
  0
ARC
  5
C458
  8
0
 10
450.2413103160678816
 20
104.9766205208029959
 30
0.0
 40
0.0161639093224561
 50
235.0850129881702912
 51
246.7318283896971991
  0
ARC
  5
C459
  8
0
 10
450.3471199654645147
 20
105.1289012272500969
 30
0.0
 40
0.2015960611527888
 50
229.2606914523659896
 51
235.1973613828033081
  0
ARC
  5
C45A
  8
0
 10
450.3656392773419839
 20
105.1559618892597001
 30
0.0
 40
0.2342137179315194
 50
226.0145738638786099
 51
230.1483553118675047
  0
ARC
  5
C45B
  8
0
 10
450.2351607382162797
 20
105.0205653585131955
 30
0.0
 40
0.0461797888915376
 50
219.6483243790931965
 51
225.8308262027555031
  0
ARC
  5
C45C
  8
0
 10
450.2005367823630877
 20
104.9921233582233953
 30
0.0
 40
0.0013856122598902
 50
179.8224415072810984
 51
227.6547545863411131
  0
ARC
  5
C45D
  8
0
 10
450.1993202113343955
 20
104.991966278739298
 30
0.0
 40
0.0002336965613697
 50
73.7510970526976166
 51
136.3282695411614043
  0
ARC
  5
C45E
  8
0
 10
450.1936950060530762
 20
104.9777236973761063
 30
0.0
 40
0.0155459101473967
 50
53.7649391927885816
 51
68.5277222138050206
  0
ARC
  5
C45F
  8
0
 10
450.0786789118901083
 20
104.8140341575462031
 30
0.0
 40
0.2156004583445092
 50
49.6418623694206715
 51
54.8239974759572419
  0
ARC
  5
C460
  8
0
 10
449.9916845636440144
 20
104.7021815726763947
 30
0.0
 40
0.3702908410270352
 50
41.971999107395412
 51
50.6075414718093413
  0
ARC
  5
C461
  8
0
 10
449.9801274077959192
 20
104.7085024492324976
 30
0.0
 40
0.3729652054684832
 50
48.618239801443913
 51
56.993859351498287
  0
ARC
  5
C462
  8
0
 10
450.0668356576604765
 20
104.3976034494897931
 30
0.0
 40
0.5754752159633985
 50
45.9090454188623127
 51
49.8996296098193284
  0
ARC
  5
C463
  8
0
 10
450.3423065105318983
 20
104.655280813338095
 30
0.0
 40
0.1995944934806548
 50
41.9788747514680409
 51
51.2449984374648011
  0
ARC
  5
C464
  8
0
 10
450.4823325259350781
 20
104.7797264892681994
 30
0.0
 40
0.0123174160695262
 50
15.4257600153275405
 51
47.3148277700616973
  0
ARC
  5
C465
  8
0
 10
450.4928583522133749
 20
104.7826308769239034
 30
0.0
 40
0.0013982363158355
 50
291.2423501673731039
 51
15.4257600156214707
  0
ARC
  5
C466
  8
0
 10
450.4944844809057258
 20
104.7930034200284979
 30
0.0
 40
0.011729328046824
 50
245.0991633617171033
 51
264.5229545784205811
  0
ARC
  5
C467
  8
0
 10
450.6050613633619264
 20
105.0238316462644974
 30
0.0
 40
0.267675599416682
 50
240.0205013646217935
 51
244.4340089412586963
  0
ARC
  5
C468
  8
0
 10
450.0489575575538197
 20
104.3653529179337056
 30
0.0
 40
0.6117011841006882
 50
50.5645086393764984
 51
55.8240773859820507
  0
ARC
  5
C469
  8
0
 10
450.350806863166099
 20
104.8133871557739951
 30
0.0
 40
0.0715020705897464
 50
54.2598080210800404
 51
69.5968303460515187
  0
ARC
  5
C46A
  8
0
 10
450.3728814570936265
 20
104.8733310398591954
 30
0.0
 40
0.0076260146396362
 50
68.0325609812618666
 51
94.4153640551342619
  0
ARC
  5
C46B
  8
0
 10
450.3726655947660902
 20
104.8761266207883978
 30
0.0
 40
0.0048221121313219
 50
94.4153640551408273
 51
113.2666743215148983
  0
ARC
  5
C46C
  8
0
 10
450.3720432777902261
 20
104.8786385688265028
 30
0.0
 40
0.0023072718272709
 50
123.768516299709205
 51
148.9097548512297067
  0
ARC
  5
C46D
  8
0
 10
450.3711744125927225
 20
104.8796232094201031
 30
0.0
 40
0.0011261306639196
 50
169.4179831188606045
 51
201.8584210035411104
  0
ARC
  5
C46E
  8
0
 10
450.4872293226275133
 20
104.9596534837947956
 30
0.0
 40
0.142072370769341
 50
214.4896617086099013
 51
223.5203855244452882
  0
LINE
  5
C46F
  8
0
 10
450.392637893801691
 20
104.871378793883693
 30
0.0
 11
450.3580153011490097
 21
104.8321181994927969
 31
0.0
  0
LINE
  5
C470
  8
0
 10
450.4793060076303846
 20
104.8004323552530934
 30
0.0
 11
450.441695294925978
 21
104.760647887578898
 31
0.0
  0
ARC
  5
C471
  8
0
 10
450.4315017650910136
 20
104.7711090821372011
 30
0.0
 40
0.0146063219902665
 50
292.2298595227018723
 51
314.2575451374319755
  0
ARC
  5
C472
  8
0
 10
450.4327596910165994
 20
104.770226350083405
 30
0.0
 40
0.0133391744862587
 50
248.5839532302180999
 51
288.660428863620325
  0
ARC
  5
C473
  8
0
 10
450.4630001563969017
 20
104.8302994059133937
 30
0.0
 40
0.080546660450082
 50
231.6725202638853034
 51
244.156784224969897
  0
ARC
  5
C474
  8
0
 10
450.7048870452252913
 20
105.1583212296630023
 30
0.0
 40
0.4880718031401407
 50
229.7849246651175008
 51
233.2773977846565003
  0
ARC
  5
C475
  8
0
 10
450.6976335768603121
 20
105.1538594933814039
 30
0.0
 40
0.4799888006447149
 50
226.6413700108934108
 51
230.1022305255181095
  0
ARC
  5
C476
  8
0
 10
450.4340756237633059
 20
104.876654302720894
 30
0.0
 40
0.0975007498520389
 50
218.9050297848719993
 51
227.4091435004081063
  0
ARC
  5
C477
  8
0
 10
450.369193617909275
 20
104.8243646849255981
 30
0.0
 40
0.0141709434811737
 50
183.0747273231106931
 51
219.1346075117220948
  0
ARC
  5
C478
  8
0
 10
450.3675311523492724
 20
104.8240204461569931
 30
0.0
 40
0.012495000326272
 50
139.603040955670906
 51
181.9073108389547997
  0
ARC
  5
C479
  8
0
 10
450.2029556120953089
 20
104.5621840933648059
 30
0.0
 40
0.2960478481578904
 50
47.865803014792121
 51
50.0591649118591135
  0
ARC
  5
C47A
  8
0
 10
450.2915899566323787
 20
104.6601600469846005
 30
0.0
 40
0.1639292101115727
 50
45.5601207626264824
 51
47.8658030147932081
  0
ARC
  5
C47B
  8
0
 10
450.3726529177280895
 20
104.742823641945094
 30
0.0
 40
0.0481515197156614
 50
40.5862899200960996
 51
45.5601207626339928
  0
ARC
  5
C47C
  8
0
 10
450.4038277010876072
 20
104.769530725771105
 30
0.0
 40
0.0071011184508354
 50
28.514372596024419
 51
40.586289920053531
  0
ARC
  5
C47D
  8
0
 10
450.4097814436792078
 20
104.7727652782824066
 30
0.0
 40
0.0003254722975166
 50
332.4306833491198176
 51
28.5143725965155603
  0
ARC
  5
C47E
  8
0
 10
450.409936115323319
 20
104.7727468838581046
 30
0.0
 40
0.0001881538474914
 50
285.1389235464613989
 51
315.3450963185820228
  0
ARC
  5
C47F
  8
0
 10
450.4099041789070839
 20
104.773201337319307
 30
0.0
 40
0.0006412236066324
 50
246.486878498845698
 51
277.2637797433329183
  0
ARC
  5
C480
  8
0
 10
450.4160336706498811
 20
104.7874625887455977
 30
0.0
 40
0.0161639093224561
 50
235.0850129881702912
 51
246.7318283896971991
  0
ARC
  5
C481
  8
0
 10
450.5218433200465142
 20
104.9397432951925992
 30
0.0
 40
0.2015960611527888
 50
229.2606914523659896
 51
235.1973613828033081
  0
ARC
  5
C482
  8
0
 10
450.5403626319239834
 20
104.9668039572022025
 30
0.0
 40
0.2342137179315194
 50
226.0145738638786099
 51
230.1483553118675047
  0
ARC
  5
C483
  8
0
 10
450.4098840927982792
 20
104.8314074264557973
 30
0.0
 40
0.0461797888915376
 50
219.6483243790931965
 51
225.8308262027555031
  0
ARC
  5
C484
  8
0
 10
450.3752601369450872
 20
104.8029654261658976
 30
0.0
 40
0.0013856122598902
 50
179.8224415072810984
 51
227.6547545863411131
  0
ARC
  5
C485
  8
0
 10
450.374043565916395
 20
104.8028083466818003
 30
0.0
 40
0.0002336965613697
 50
73.7510970526976166
 51
136.3282695411614043
  0
ARC
  5
C486
  8
0
 10
450.3684183606350757
 20
104.7885657653185945
 30
0.0
 40
0.0155459101473967
 50
53.7649391927885816
 51
68.5277222138050206
  0
ARC
  5
C487
  8
0
 10
450.2534022664721078
 20
104.6248762254887055
 30
0.0
 40
0.2156004583445092
 50
49.6418623694206715
 51
54.8239974759572419
  0
ARC
  5
C488
  8
0
 10
450.1664079182261275
 20
104.513023640618897
 30
0.0
 40
0.3702908410270352
 50
41.971999107395412
 51
50.6075414718093413
  0
ARC
  5
C489
  8
0
 10
450.1548507623779187
 20
104.5193445171750994
 30
0.0
 40
0.3729652054684832
 50
48.618239801443913
 51
56.993859351498287
  0
ARC
  5
C48A
  8
0
 10
450.3072172600622025
 20
104.2709863683529932
 30
0.0
 40
0.5754752159633985
 50
45.9090454188623127
 51
49.8996296098193284
  0
ARC
  5
C48B
  8
0
 10
450.5826881129336243
 20
104.528663732201295
 30
0.0
 40
0.1995944934806548
 50
41.9788747514680409
 51
51.2449984374648011
  0
ARC
  5
C48C
  8
0
 10
450.7227141283368042
 20
104.6531094081313995
 30
0.0
 40
0.0123174160695262
 50
15.4257600153275405
 51
47.3148277700616973
  0
ARC
  5
C48D
  8
0
 10
450.7332399546149873
 20
104.6560137957871035
 30
0.0
 40
0.0013982363158355
 50
291.2423501673731039
 51
15.4257600156214707
  0
ARC
  5
C48E
  8
0
 10
450.7348660833072813
 20
104.666386338891698
 30
0.0
 40
0.011729328046824
 50
245.0991633617171033
 51
264.5229545784205811
  0
ARC
  5
C48F
  8
0
 10
450.8454429657635956
 20
104.8972145651276975
 30
0.0
 40
0.267675599416682
 50
240.0205013646217935
 51
244.4340089412586963
  0
ARC
  5
C490
  8
0
 10
450.1498011665630088
 20
104.0792661707179008
 30
0.0
 40
0.8235272715007491
 50
50.1140681590928878
 51
54.6469144959286481
  0
ARC
  5
C491
  8
0
 10
450.5845400709679893
 20
104.6929001623499005
 30
0.0
 40
0.0715020705897464
 50
54.2598080210800404
 51
69.5968303460515187
  0
ARC
  5
C492
  8
0
 10
450.6066146648955169
 20
104.7528440464350012
 30
0.0
 40
0.0076260146396362
 50
68.0325609812618666
 51
94.4153640551342619
  0
ARC
  5
C493
  8
0
 10
450.6063988025679805
 20
104.7556396273642036
 30
0.0
 40
0.0048221121313219
 50
94.4153640551408273
 51
113.2666743215148983
  0
ARC
  5
C494
  8
0
 10
450.6057764855921164
 20
104.758151575402394
 30
0.0
 40
0.0023072718272709
 50
123.768516299709205
 51
148.9097548512297067
  0
ARC
  5
C495
  8
0
 10
450.6049076203946129
 20
104.7591362159959942
 30
0.0
 40
0.0011261306639196
 50
169.4179831188606045
 51
201.8584210035411104
  0
ARC
  5
C496
  8
0
 10
450.7209625304292899
 20
104.839166490370701
 30
0.0
 40
0.142072370769341
 50
214.4896617086099013
 51
223.5203855244452882
  0
LINE
  5
C497
  8
0
 10
450.6263711016035813
 20
104.7508918004595984
 30
0.0
 11
450.5917485089510137
 21
104.7116312060686028
 31
0.0
  0
LINE
  5
C498
  8
0
 10
450.7196876100319969
 20
104.6738152741162935
 30
0.0
 11
450.682076897327704
 21
104.6340308064420981
 31
0.0
  0
ARC
  5
C499
  8
0
 10
450.6718833674926259
 20
104.6444920010003017
 30
0.0
 40
0.0146063219902665
 50
292.2298595227018723
 51
314.2575451374319755
  0
ARC
  5
C49A
  8
0
 10
450.6731412934183254
 20
104.6436092689466051
 30
0.0
 40
0.0133391744862587
 50
248.5839532302180999
 51
288.660428863620325
  0
ARC
  5
C49B
  8
0
 10
450.7033817587986846
 20
104.7036823247765938
 30
0.0
 40
0.080546660450082
 50
231.6725202638853034
 51
244.156784224969897
  0
ARC
  5
C49C
  8
0
 10
450.9452686476270173
 20
105.0317041485262024
 30
0.0
 40
0.4880718031401407
 50
229.7849246651175008
 51
233.2773977846565003
  0
ARC
  5
C49D
  8
0
 10
451.1672547139040148
 20
105.2865783999317983
 30
0.0
 40
0.8260425190477562
 50
226.8032990711537877
 51
229.4414007589996061
  0
ARC
  5
C49E
  8
0
 10
450.6678088315651962
 20
104.7561673092966998
 30
0.0
 40
0.0975007498520389
 50
218.9050297848719993
 51
227.4091435004081063
  0
ARC
  5
C49F
  8
0
 10
450.6029268257112221
 20
104.7038776915015035
 30
0.0
 40
0.0141709434811737
 50
183.0747273231106931
 51
219.1346075117220948
  0
ARC
  5
C4A0
  8
0
 10
450.6012643601512195
 20
104.703533452732799
 30
0.0
 40
0.012495000326272
 50
139.603040955670906
 51
181.9073108389547997
  0
ARC
  5
C4A1
  8
0
 10
450.4433372144969212
 20
104.435567012228006
 30
0.0
 40
0.2960478481578904
 50
47.865803014792121
 51
50.0591649118591135
  0
ARC
  5
C4A2
  8
0
 10
450.5319715590338774
 20
104.5335429658478006
 30
0.0
 40
0.1639292101115727
 50
45.5601207626264824
 51
47.8658030147932081
  0
ARC
  5
C4A3
  8
0
 10
450.6130345201297018
 20
104.6162065608082941
 30
0.0
 40
0.0481515197156614
 50
40.5862899200960996
 51
45.5601207626339928
  0
ARC
  5
C4A4
  8
0
 10
450.6442093034893901
 20
104.6429136446342056
 30
0.0
 40
0.0071011184508354
 50
28.514372596024419
 51
40.586289920053531
  0
ARC
  5
C4A5
  8
0
 10
450.6501630460808769
 20
104.6461481971456067
 30
0.0
 40
0.0003254722975166
 50
332.4306833491198176
 51
28.5143725965155603
  0
ARC
  5
C4A6
  8
0
 10
450.6503177177249881
 20
104.6461298027213047
 30
0.0
 40
0.0001881538474914
 50
285.1389235464613989
 51
315.3450963185820228
  0
ARC
  5
C4A7
  8
0
 10
450.6502857813086962
 20
104.6465842561823933
 30
0.0
 40
0.0006412236066324
 50
246.486878498845698
 51
277.2637797433329183
  0
ARC
  5
C4A8
  8
0
 10
450.6564152730516071
 20
104.6608455076086983
 30
0.0
 40
0.0161639093224561
 50
235.0850129881702912
 51
246.7318283896971991
  0
ARC
  5
C4A9
  8
0
 10
450.7622249224481266
 20
104.8131262140557993
 30
0.0
 40
0.2015960611527888
 50
229.2606914523659896
 51
235.1973613828033081
  0
ARC
  5
C4AA
  8
0
 10
450.9915720594091795
 20
105.0779595281934036
 30
0.0
 40
0.5519337154265749
 50
226.4705432753939078
 51
229.1632971369149914
  0
ARC
  5
C4AB
  8
0
 10
450.6436173006002264
 20
104.7109204330316032
 30
0.0
 40
0.0461797888915376
 50
219.6483243790931965
 51
225.8308262027555031
  0
ARC
  5
C4AC
  8
0
 10
450.6089933447469775
 20
104.6824784327417035
 30
0.0
 40
0.0013856122598902
 50
179.8224415072810984
 51
227.6547545863411131
  0
ARC
  5
C4AD
  8
0
 10
450.6077767737181716
 20
104.6823213532576062
 30
0.0
 40
0.0002336965613697
 50
73.7510970526976166
 51
136.3282695411614043
  0
ARC
  5
C4AE
  8
0
 10
450.6021515684370229
 20
104.6680787718944998
 30
0.0
 40
0.0155459101473967
 50
53.7649391927885816
 51
68.5277222138050206
  0
ARC
  5
C4AF
  8
0
 10
450.3302666073175828
 20
104.3149908215323052
 30
0.0
 40
0.4611788874187221
 50
48.9058317701965422
 51
52.4488970521640709
  0
ARC
  5
C4B0
  8
0
 10
450.3147830831164242
 20
104.294887764140995
 30
0.0
 40
0.4999422060251447
 50
42.7181820144988791
 51
50.1496487994794293
  0
ARC
  5
C4B1
  8
0
 10
450.3885839701798091
 20
104.3988575237509053
 30
0.0
 40
0.3729652054684832
 50
48.618239801443913
 51
56.993859351498287
  0
ARC
  5
C4B2
  8
0
 10
450.4901966848123038
 20
104.0865632102197935
 30
0.0
 40
0.5754752159633985
 50
45.9090454188623127
 51
49.8996296098193284
  0
ARC
  5
C4B3
  8
0
 10
450.7656675376837256
 20
104.3442405740681949
 30
0.0
 40
0.1995944934806548
 50
41.9788747514680409
 51
51.2449984374648011
  0
ARC
  5
C4B4
  8
0
 10
450.9056935530869055
 20
104.4686862499981999
 30
0.0
 40
0.0123174160695262
 50
15.4257600153275405
 51
47.3148277700616973
  0
ARC
  5
C4B5
  8
0
 10
450.9162193793652023
 20
104.4715906376539039
 30
0.0
 40
0.0013982363158355
 50
291.2423501673731039
 51
15.4257600156214707
  0
ARC
  5
C4B6
  8
0
 10
450.9178455080574963
 20
104.4819631807584983
 30
0.0
 40
0.011729328046824
 50
245.0991633617171033
 51
264.5229545784205811
  0
ARC
  5
C4B7
  8
0
 10
451.0284223905136969
 20
104.7127914069944978
 30
0.0
 40
0.267675599416682
 50
240.0205013646217935
 51
244.4340089412586963
  0
ARC
  5
C4B8
  8
0
 10
450.0088862068338926
 20
103.5280929768618989
 30
0.0
 40
1.3127116629978619
 50
49.5314199359879979
 51
53.1215878819385878
  0
ARC
  5
C4B9
  8
0
 10
450.7549041303022932
 20
104.5201088794562025
 30
0.0
 40
0.0715020705897464
 50
54.2598080210800404
 51
69.5968303460515187
  0
ARC
  5
C4BA
  8
0
 10
450.7769787242298207
 20
104.5800527635413033
 30
0.0
 40
0.0076260146396362
 50
68.0325609812618666
 51
94.4153640551342619
  0
ARC
  5
C4BB
  8
0
 10
450.7767628619022275
 20
104.5828483444705057
 30
0.0
 40
0.0048221121313219
 50
94.4153640551408273
 51
113.2666743215148983
  0
ARC
  5
C4BC
  8
0
 10
450.7761405449264203
 20
104.585360292508696
 30
0.0
 40
0.0023072718272709
 50
123.768516299709205
 51
148.9097548512297067
  0
ARC
  5
C4BD
  8
0
 10
450.7752716797289168
 20
104.5863449331022963
 30
0.0
 40
0.0011261306639196
 50
169.4179831188606045
 51
201.8584210035411104
  0
ARC
  5
C4BE
  8
0
 10
450.8913265897635938
 20
104.6663752074769036
 30
0.0
 40
0.142072370769341
 50
214.4896617086099013
 51
223.5203855244452882
  0
LINE
  5
C4BF
  8
0
 10
450.7967351609378852
 20
104.5781005175659004
 30
0.0
 11
450.7621125682852039
 21
104.5388399231749048
 31
0.0
  0
LINE
  5
C4C0
  8
0
 10
450.9026670347822119
 20
104.4893921159831933
 30
0.0
 11
450.8650563220776917
 21
104.4496076483088984
 31
0.0
  0
ARC
  5
C4C1
  8
0
 10
450.8548627922427841
 20
104.4600688428672015
 30
0.0
 40
0.0146063219902665
 50
292.2298595227018723
 51
314.2575451374319755
  0
ARC
  5
C4C2
  8
0
 10
450.856120718168313
 20
104.4591861108134054
 30
0.0
 40
0.0133391744862587
 50
248.5839532302180999
 51
288.660428863620325
  0
ARC
  5
C4C3
  8
0
 10
450.8863611835486722
 20
104.5192591666434936
 30
0.0
 40
0.080546660450082
 50
231.6725202638853034
 51
244.156784224969897
  0
ARC
  5
C4C4
  8
0
 10
451.1282480723771187
 20
104.8472809903930028
 30
0.0
 40
0.4880718031401407
 50
229.7849246651175008
 51
233.2773977846565003
  0
ARC
  5
C4C5
  8
0
 10
451.959267584167776
 20
105.7830128729715966
 30
0.0
 40
1.7394421837757781
 50
226.964749999727502
 51
228.7827031944495957
  0
ARC
  5
C4C6
  8
0
 10
450.8381728908995001
 20
104.5833760264030019
 30
0.0
 40
0.0975007498520389
 50
218.9050297848719993
 51
227.4091435004081063
  0
ARC
  5
C4C7
  8
0
 10
450.773290885045526
 20
104.5310864086077061
 30
0.0
 40
0.0141709434811737
 50
183.0747273231106931
 51
219.1346075117220948
  0
ARC
  5
C4C8
  8
0
 10
450.7716284194855234
 20
104.5307421698391011
 30
0.0
 40
0.012495000326272
 50
139.603040955670906
 51
181.9073108389547997
  0
ARC
  5
C4C9
  8
0
 10
450.6263166392470794
 20
104.2511438540948063
 30
0.0
 40
0.2960478481578904
 50
47.865803014792121
 51
50.0591649118591135
  0
ARC
  5
C4CA
  8
0
 10
450.7149509837840924
 20
104.3491198077146009
 30
0.0
 40
0.1639292101115727
 50
45.5601207626264824
 51
47.8658030147932081
  0
ARC
  5
C4CB
  8
0
 10
450.7960139448798031
 20
104.4317834026750944
 30
0.0
 40
0.0481515197156614
 50
40.5862899200960996
 51
45.5601207626339928
  0
ARC
  5
C4CC
  8
0
 10
450.8271887282393777
 20
104.4584904865011055
 30
0.0
 40
0.0071011184508354
 50
28.514372596024419
 51
40.586289920053531
  0
ARC
  5
C4CD
  8
0
 10
450.8331424708309783
 20
104.461725039012407
 30
0.0
 40
0.0003254722975166
 50
332.4306833491198176
 51
28.5143725965155603
  0
ARC
  5
C4CE
  8
0
 10
450.8332971424749758
 20
104.4617066445881051
 30
0.0
 40
0.0001881538474914
 50
285.1389235464613989
 51
315.3450963185820228
  0
ARC
  5
C4CF
  8
0
 10
450.8332652060587975
 20
104.4621610980492932
 30
0.0
 40
0.0006412236066324
 50
246.486878498845698
 51
277.2637797433329183
  0
ARC
  5
C4D0
  8
0
 10
450.8393946978015947
 20
104.4764223494755981
 30
0.0
 40
0.0161639093224561
 50
235.0850129881702912
 51
246.7318283896971991
  0
ARC
  5
C4D1
  8
0
 10
450.9452043471982847
 20
104.6287030559225997
 30
0.0
 40
0.2015960611527888
 50
229.2606914523659896
 51
235.1973613828033081
  0
ARC
  5
C4D2
  8
0
 10
451.8246218317069065
 20
105.6158740406666965
 30
0.0
 40
1.5236464283916309
 50
226.8098087902845066
 51
228.4304677993418977
  0
ARC
  5
C4D3
  8
0
 10
450.8139813599344734
 20
104.5381291501379053
 30
0.0
 40
0.0461797888915376
 50
219.6483243790931965
 51
225.8308262027555031
  0
ARC
  5
C4D4
  8
0
 10
450.7793574040812814
 20
104.5096871498480056
 30
0.0
 40
0.0013856122598902
 50
179.8224415072810984
 51
227.6547545863411131
  0
ARC
  5
C4D5
  8
0
 10
450.7781408330525892
 20
104.5095300703638941
 30
0.0
 40
0.0002336965613697
 50
73.7510970526976166
 51
136.3282695411614043
  0
ARC
  5
C4D6
  8
0
 10
450.7725156277713268
 20
104.4952874890008019
 30
0.0
 40
0.0155459101473967
 50
53.7649391927885816
 51
68.5277222138050206
  0
ARC
  5
C4D7
  8
0
 10
450.0301451835316016
 20
103.5953467481277954
 30
0.0
 40
1.182142847318191
 50
48.3106611297524466
 51
50.5235944740615892
  0
ARC
  5
C4D8
  8
0
 10
450.589768945377898
 20
104.2019834013488975
 30
0.0
 40
0.3702908410270352
 50
41.971999107395412
 51
50.6075414718093413
  0
ARC
  5
C4D9
  8
0
 10
450.2809252921928191
 20
103.8800079172179949
 30
0.0
 40
0.8158434335522613
 50
48.1945734892874995
 51
53.8569037611507611
  0
ARC
  5
C4DA
  8
0
 10
450.6791878074399733
 20
103.925873225652893
 30
0.0
 40
0.5754752159633985
 50
45.9090454188623127
 51
49.8996296098193284
  0
ARC
  5
C4DB
  8
0
 10
450.9546586603113951
 20
104.1835505895012943
 30
0.0
 40
0.1995944934806548
 50
41.9788747514680409
 51
51.2449984374648011
  0
ARC
  5
C4DC
  8
0
 10
451.094684675714575
 20
104.3079962654312993
 30
0.0
 40
0.0123174160695262
 50
15.4257600153275405
 51
47.3148277700616973
  0
ARC
  5
C4DD
  8
0
 10
451.1052105019928149
 20
104.3109006530870033
 30
0.0
 40
0.0013982363158355
 50
291.2423501673731039
 51
15.4257600156214707
  0
ARC
  5
C4DE
  8
0
 10
451.106836630685109
 20
104.3212731961916973
 30
0.0
 40
0.011729328046824
 50
245.0991633617171033
 51
264.5229545784205811
  0
ARC
  5
C4DF
  8
0
 10
451.2174135131413095
 20
104.5521014224275973
 30
0.0
 40
0.267675599416682
 50
240.0205013646217935
 51
244.4340089412586963
  0
ARC
  5
C4E0
  8
0
 10
450.6613097073332028
 20
103.8936226940968055
 30
0.0
 40
0.6117011841006882
 50
50.5645086393764984
 51
55.8240773859820507
  0
ARC
  5
C4E1
  8
0
 10
450.9631590129455958
 20
104.3416569319371945
 30
0.0
 40
0.0715020705897464
 50
54.2598080210800404
 51
69.5968303460515187
  0
ARC
  5
C4E2
  8
0
 10
450.9852336068731233
 20
104.4016008160222952
 30
0.0
 40
0.0076260146396362
 50
68.0325609812618666
 51
94.4153640551342619
  0
ARC
  5
C4E3
  8
0
 10
450.9850177445454733
 20
104.4043963969514976
 30
0.0
 40
0.0048221121313219
 50
94.4153640551408273
 51
113.2666743215148983
  0
ARC
  5
C4E4
  8
0
 10
450.9843954275696092
 20
104.4069083449897022
 30
0.0
 40
0.0023072718272709
 50
123.768516299709205
 51
148.9097548512297067
  0
ARC
  5
C4E5
  8
0
 10
450.9835265623721057
 20
104.4078929855833024
 30
0.0
 40
0.0011261306639196
 50
169.4179831188606045
 51
201.8584210035411104
  0
ARC
  5
C4E6
  8
0
 10
451.0995814724067827
 20
104.4879232599578955
 30
0.0
 40
0.142072370769341
 50
214.4896617086099013
 51
223.5203855244452882
  0
LINE
  5
C4E7
  8
0
 10
451.0049900435810741
 20
104.3996485700469066
 30
0.0
 11
450.9703674509283928
 21
104.3603879756558968
 31
0.0
  0
LINE
  5
C4E8
  8
0
 10
451.0916581574098814
 20
104.328702131416307
 30
0.0
 11
451.054047444705418
 21
104.2889176637419979
 31
0.0
  0
ARC
  5
C4E9
  8
0
 10
451.0438539148703967
 20
104.299378858300301
 30
0.0
 40
0.0146063219902665
 50
292.2298595227018723
 51
314.2575451374319755
  0
ARC
  5
C4EA
  8
0
 10
451.0451118407959825
 20
104.2984961262465049
 30
0.0
 40
0.0133391744862587
 50
248.5839532302180999
 51
288.660428863620325
  0
ARC
  5
C4EB
  8
0
 10
451.0753523061763985
 20
104.3585691820764936
 30
0.0
 40
0.080546660450082
 50
231.6725202638853034
 51
244.156784224969897
  0
ARC
  5
C4EC
  8
0
 10
451.3172391950047881
 20
104.6865910058262017
 30
0.0
 40
0.4880718031401407
 50
229.7849246651175008
 51
233.2773977846565003
  0
ARC
  5
C4ED
  8
0
 10
451.3099857266396953
 20
104.6821292695446033
 30
0.0
 40
0.4799888006447149
 50
226.6413700108934108
 51
230.1022305255181095
  0
ARC
  5
C4EE
  8
0
 10
451.046427773542689
 20
104.4049240788839938
 30
0.0
 40
0.0975007498520389
 50
218.9050297848719993
 51
227.4091435004081063
  0
ARC
  5
C4EF
  8
0
 10
450.9815457676887718
 20
104.352634461088698
 30
0.0
 40
0.0141709434811737
 50
183.0747273231106931
 51
219.1346075117220948
  0
ARC
  5
C4F0
  8
0
 10
450.979883302128826
 20
104.352290222320093
 30
0.0
 40
0.012495000326272
 50
139.603040955670906
 51
181.9073108389547997
  0
ARC
  5
C4F1
  8
0
 10
450.815307761874692
 20
104.0904538695279058
 30
0.0
 40
0.2960478481578904
 50
47.865803014792121
 51
50.0591649118591135
  0
ARC
  5
C4F2
  8
0
 10
450.903942106411705
 20
104.1884298231477004
 30
0.0
 40
0.1639292101115727
 50
45.5601207626264824
 51
47.8658030147932081
  0
ARC
  5
C4F3
  8
0
 10
450.9850050675074726
 20
104.2710934181081939
 30
0.0
 40
0.0481515197156614
 50
40.5862899200960996
 51
45.5601207626339928
  0
ARC
  5
C4F4
  8
0
 10
451.0161798508671041
 20
104.2978005019342049
 30
0.0
 40
0.0071011184508354
 50
28.514372596024419
 51
40.586289920053531
  0
ARC
  5
C4F5
  8
0
 10
451.0221335934587046
 20
104.3010350544455065
 30
0.0
 40
0.0003254722975166
 50
332.4306833491198176
 51
28.5143725965155603
  0
ARC
  5
C4F6
  8
0
 10
451.0222882651027021
 20
104.3010166600212045
 30
0.0
 40
0.0001881538474914
 50
285.1389235464613989
 51
315.3450963185820228
  0
ARC
  5
C4F7
  8
0
 10
451.0222563286865238
 20
104.3014711134824068
 30
0.0
 40
0.0006412236066324
 50
246.486878498845698
 51
277.2637797433329183
  0
ARC
  5
C4F8
  8
0
 10
451.028385820429321
 20
104.3157323649086976
 30
0.0
 40
0.0161639093224561
 50
235.0850129881702912
 51
246.7318283896971991
  0
ARC
  5
C4F9
  8
0
 10
451.1341954698258974
 20
104.4680130713556991
 30
0.0
 40
0.2015960611527888
 50
229.2606914523659896
 51
235.1973613828033081
  0
ARC
  5
C4FA
  8
0
 10
451.1527147817034233
 20
104.4950737333654018
 30
0.0
 40
0.2342137179315194
 50
226.0145738638786099
 51
230.1483553118675047
  0
ARC
  5
C4FB
  8
0
 10
451.022236242577776
 20
104.3596772026188972
 30
0.0
 40
0.0461797888915376
 50
219.6483243790931965
 51
225.8308262027555031
  0
ARC
  5
C4FC
  8
0
 10
450.987612286724584
 20
104.3312352023289975
 30
0.0
 40
0.0013856122598902
 50
179.8224415072810984
 51
227.6547545863411131
  0
ARC
  5
C4FD
  8
0
 10
450.9863957156957781
 20
104.3310781228449002
 30
0.0
 40
0.0002336965613697
 50
73.7510970526976166
 51
136.3282695411614043
  0
ARC
  5
C4FE
  8
0
 10
450.9807705104145725
 20
104.3168355414817938
 30
0.0
 40
0.0155459101473967
 50
53.7649391927885816
 51
68.5277222138050206
  0
ARC
  5
C4FF
  8
0
 10
450.865754416251491
 20
104.1531460016518054
 30
0.0
 40
0.2156004583445092
 50
49.6418623694206715
 51
54.8239974759572419
  0
ARC
  5
C500
  8
0
 10
450.7787600680055107
 20
104.0412934167819969
 30
0.0
 40
0.3702908410270352
 50
41.971999107395412
 51
50.6075414718093413
  0
ARC
  5
C501
  8
0
 10
450.7672029121573019
 20
104.0476142933381993
 30
0.0
 40
0.3729652054684832
 50
48.618239801443913
 51
56.993859351498287
  0
ARC
  5
C502
  8
0
 10
449.6621401033236793
 20
104.7221003991205066
 30
0.0
 40
0.5754752159633985
 50
45.9090454188623127
 51
49.8996296098193284
  0
ARC
  5
C503
  8
0
 10
449.9376109561952148
 20
104.9797777629687943
 30
0.0
 40
0.1995944934806548
 50
41.9788747514680409
 51
51.2449984374648011
  0
ARC
  5
C504
  8
0
 10
450.0776369715983947
 20
105.1042234388988987
 30
0.0
 40
0.0123174160695262
 50
15.4257600153275405
 51
47.3148277700616973
  0
ARC
  5
C505
  8
0
 10
450.0881627978765778
 20
105.1071278265546027
 30
0.0
 40
0.0013982363158355
 50
291.2423501673731039
 51
15.4257600156214707
  0
ARC
  5
C506
  8
0
 10
450.0897889265688718
 20
105.1175003696591972
 30
0.0
 40
0.011729328046824
 50
245.0991633617171033
 51
264.5229545784205811
  0
ARC
  5
C507
  8
0
 10
450.2003658090250724
 20
105.3483285958951967
 30
0.0
 40
0.267675599416682
 50
240.0205013646217935
 51
244.4340089412586963
  0
ARC
  5
C508
  8
0
 10
449.6442620032170225
 20
104.6898498675644049
 30
0.0
 40
0.6117011841006882
 50
50.5645086393764984
 51
55.8240773859820507
  0
ARC
  5
C509
  8
0
 10
449.9461113088293018
 20
105.1378841054046944
 30
0.0
 40
0.0715020705897464
 50
54.2598080210800404
 51
69.5968303460515187
  0
ARC
  5
C50A
  8
0
 10
449.9681859027567725
 20
105.1978279894898947
 30
0.0
 40
0.0076260146396362
 50
68.0325609812618666
 51
94.4153640551342619
  0
ARC
  5
C50B
  8
0
 10
449.967970040429293
 20
105.2006235704189976
 30
0.0
 40
0.0048221121313219
 50
94.4153640551408273
 51
113.2666743215148983
  0
ARC
  5
C50C
  8
0
 10
449.9673477234533721
 20
105.2031355184572021
 30
0.0
 40
0.0023072718272709
 50
123.768516299709205
 51
148.9097548512297067
  0
ARC
  5
C50D
  8
0
 10
449.9664788582559254
 20
105.2041201590508024
 30
0.0
 40
0.0011261306639196
 50
169.4179831188606045
 51
201.8584210035411104
  0
ARC
  5
C50E
  8
0
 10
450.0825337682906024
 20
105.284150433425495
 30
0.0
 40
0.142072370769341
 50
214.4896617086099013
 51
223.5203855244452882
  0
LINE
  5
C50F
  8
0
 10
449.9879423394648938
 20
105.1958757435144065
 30
0.0
 11
449.9533197468123262
 21
105.1566151491234962
 31
0.0
  0
LINE
  5
C510
  8
0
 10
450.0746104532935874
 20
105.1249293048838069
 30
0.0
 11
450.0369997405891809
 21
105.0851448372095973
 31
0.0
  0
ARC
  5
C511
  8
0
 10
450.0268062107542164
 20
105.0956060317678009
 30
0.0
 40
0.0146063219902665
 50
292.2298595227018723
 51
314.2575451374319755
  0
ARC
  5
C512
  8
0
 10
450.0280641366798022
 20
105.0947232997141043
 30
0.0
 40
0.0133391744862587
 50
248.5839532302180999
 51
288.660428863620325
  0
ARC
  5
C513
  8
0
 10
450.0583046020602183
 20
105.154796355544093
 30
0.0
 40
0.080546660450082
 50
231.6725202638853034
 51
244.156784224969897
  0
ARC
  5
C514
  8
0
 10
450.3001914908884942
 20
105.4828181792937016
 30
0.0
 40
0.4880718031401407
 50
229.7849246651175008
 51
233.2773977846565003
  0
ARC
  5
C515
  8
0
 10
450.2929380225235718
 20
105.4783564430121032
 30
0.0
 40
0.4799888006447149
 50
226.6413700108934108
 51
230.1022305255181095
  0
ARC
  5
C516
  8
0
 10
450.0293800694265087
 20
105.2011512523514938
 30
0.0
 40
0.0975007498520389
 50
218.9050297848719993
 51
227.4091435004081063
  0
ARC
  5
C517
  8
0
 10
449.9644980635724778
 20
105.1488616345562974
 30
0.0
 40
0.0141709434811737
 50
183.0747273231106931
 51
219.1346075117220948
  0
ARC
  5
C518
  8
0
 10
449.9628355980124752
 20
105.1485173957875929
 30
0.0
 40
0.012495000326272
 50
139.603040955670906
 51
181.9073108389547997
  0
ARC
  5
C519
  8
0
 10
449.7982600577585117
 20
104.8866810429955052
 30
0.0
 40
0.2960478481578904
 50
47.865803014792121
 51
50.0591649118591135
  0
ARC
  5
C51A
  8
0
 10
449.8868944022955247
 20
104.9846569966152998
 30
0.0
 40
0.1639292101115727
 50
45.5601207626264824
 51
47.8658030147932081
  0
ARC
  5
C51B
  8
0
 10
449.9679573633912923
 20
105.0673205915757933
 30
0.0
 40
0.0481515197156614
 50
40.5862899200960996
 51
45.5601207626339928
  0
ARC
  5
C51C
  8
0
 10
449.9991321467509238
 20
105.0940276754017049
 30
0.0
 40
0.0071011184508354
 50
28.514372596024419
 51
40.586289920053531
  0
ARC
  5
C51D
  8
0
 10
450.0050858893424106
 20
105.0972622279131059
 30
0.0
 40
0.0003254722975166
 50
332.4306833491198176
 51
28.5143725965155603
  0
ARC
  5
C51E
  8
0
 10
450.0052405609864081
 20
105.0972438334888039
 30
0.0
 40
0.0001881538474914
 50
285.1389235464613989
 51
315.3450963185820228
  0
ARC
  5
C51F
  8
0
 10
450.0052086245702867
 20
105.0976982869500063
 30
0.0
 40
0.0006412236066324
 50
246.486878498845698
 51
277.2637797433329183
  0
ARC
  5
C520
  8
0
 10
450.0113381163130839
 20
105.111959538376297
 30
0.0
 40
0.0161639093224561
 50
235.0850129881702912
 51
246.7318283896971991
  0
ARC
  5
C521
  8
0
 10
450.1171477657097739
 20
105.2642402448232986
 30
0.0
 40
0.2015960611527888
 50
229.2606914523659896
 51
235.1973613828033081
  0
ARC
  5
C522
  8
0
 10
450.1356670775870725
 20
105.2913009068329018
 30
0.0
 40
0.2342137179315194
 50
226.0145738638786099
 51
230.1483553118675047
  0
ARC
  5
C523
  8
0
 10
450.005188538461482
 20
105.1559043760864967
 30
0.0
 40
0.0461797888915376
 50
219.6483243790931965
 51
225.8308262027555031
  0
ARC
  5
C524
  8
0
 10
449.97056458260829
 20
105.1274623757965969
 30
0.0
 40
0.0013856122598902
 50
179.8224415072810984
 51
227.6547545863411131
  0
ARC
  5
C525
  8
0
 10
449.9693480115794841
 20
105.1273052963124996
 30
0.0
 40
0.0002336965613697
 50
73.7510970526976166
 51
136.3282695411614043
  0
ARC
  5
C526
  8
0
 10
449.9637228062982786
 20
105.1130627149492938
 30
0.0
 40
0.0155459101473967
 50
53.7649391927885816
 51
68.5277222138050206
  0
ARC
  5
C527
  8
0
 10
449.848706712135197
 20
104.9493731751194048
 30
0.0
 40
0.2156004583445092
 50
49.6418623694206715
 51
54.8239974759572419
  0
ARC
  5
C528
  8
0
 10
449.7617123638892735
 20
104.8375205902495964
 30
0.0
 40
0.3702908410270352
 50
41.971999107395412
 51
50.6075414718093413
  0
ARC
  5
C529
  8
0
 10
449.7501552080411216
 20
104.8438414668057987
 30
0.0
 40
0.3729652054684832
 50
48.618239801443913
 51
56.993859351498287
  0
ARC
  5
C52A
  8
0
 10
449.8432984557272789
 20
104.531929056671899
 30
0.0
 40
0.5754752159633985
 50
45.9090454188623127
 51
49.8996296098193284
  0
ARC
  5
C52B
  8
0
 10
450.1187693085987007
 20
104.7896064205203004
 30
0.0
 40
0.1995944934806548
 50
41.9788747514680409
 51
51.2449984374648011
  0
ARC
  5
C52C
  8
0
 10
450.2587953240018805
 20
104.9140520964503054
 30
0.0
 40
0.0123174160695262
 50
15.4257600153275405
 51
47.3148277700616973
  0
ARC
  5
C52D
  8
0
 10
450.2693211502800068
 20
104.9169564841059952
 30
0.0
 40
0.0013982363158355
 50
291.2423501673731039
 51
15.4257600156214707
  0
ARC
  5
C52E
  8
0
 10
450.2709472789724146
 20
104.9273290272107033
 30
0.0
 40
0.011729328046824
 50
245.0991633617171033
 51
264.5229545784205811
  0
ARC
  5
C52F
  8
0
 10
450.381524161428672
 20
105.1581572534466034
 30
0.0
 40
0.267675599416682
 50
240.0205013646217935
 51
244.4340089412586963
  0
ARC
  5
C530
  8
0
 10
449.8254203556203947
 20
104.4996785251158968
 30
0.0
 40
0.6117011841006882
 50
50.5645086393764984
 51
55.8240773859820507
  0
ARC
  5
C531
  8
0
 10
450.1272696612327877
 20
104.9477127629562005
 30
0.0
 40
0.0715020705897464
 50
54.2598080210800404
 51
69.5968303460515187
  0
ARC
  5
C532
  8
0
 10
450.1493442551603721
 20
105.0076566470413013
 30
0.0
 40
0.0076260146396362
 50
68.0325609812618666
 51
94.4153640551342619
  0
ARC
  5
C533
  8
0
 10
450.1491283928327789
 20
105.0104522279705037
 30
0.0
 40
0.0048221121313219
 50
94.4153640551408273
 51
113.2666743215148983
  0
ARC
  5
C534
  8
0
 10
450.1485060758569148
 20
105.012964176008694
 30
0.0
 40
0.0023072718272709
 50
123.768516299709205
 51
148.9097548512297067
  0
ARC
  5
C535
  8
0
 10
450.1476372106594113
 20
105.0139488166022943
 30
0.0
 40
0.0011261306639196
 50
169.4179831188606045
 51
201.8584210035411104
  0
ARC
  5
C536
  8
0
 10
450.2636921206940883
 20
105.0939790909769016
 30
0.0
 40
0.142072370769341
 50
214.4896617086099013
 51
223.5203855244452882
  0
LINE
  5
C537
  8
0
 10
450.1691006918684934
 20
105.0057044010658984
 30
0.0
 11
450.1344780992158121
 21
104.9664438066749028
 31
0.0
  0
LINE
  5
C538
  8
0
 10
450.2557688056970733
 20
104.9347579624352989
 30
0.0
 11
450.2181580929927236
 21
104.894973494761004
 31
0.0
  0
ARC
  5
C539
  8
0
 10
450.2079645631577023
 20
104.905434689319307
 30
0.0
 40
0.0146063219902665
 50
292.2298595227018723
 51
314.2575451374319755
  0
ARC
  5
C53A
  8
0
 10
450.2092224890832881
 20
104.9045519572654968
 30
0.0
 40
0.0133391744862587
 50
248.5839532302180999
 51
288.660428863620325
  0
ARC
  5
C53B
  8
0
 10
450.2394629544637041
 20
104.9646250130955991
 30
0.0
 40
0.080546660450082
 50
231.6725202638853034
 51
244.156784224969897
  0
ARC
  5
C53C
  8
0
 10
450.4813498432920937
 20
105.2926468368451935
 30
0.0
 40
0.4880718031401407
 50
229.7849246651175008
 51
233.2773977846565003
  0
ARC
  5
C53D
  8
0
 10
450.4740963749270009
 20
105.2881851005635951
 30
0.0
 40
0.4799888006447149
 50
226.6413700108934108
 51
230.1022305255181095
  0
ARC
  5
C53E
  8
0
 10
450.2105384218299946
 20
105.0109799099029999
 30
0.0
 40
0.0975007498520389
 50
218.9050297848719993
 51
227.4091435004081063
  0
ARC
  5
C53F
  8
0
 10
450.1456564159760205
 20
104.9586902921078035
 30
0.0
 40
0.0141709434811737
 50
183.0747273231106931
 51
219.1346075117220948
  0
ARC
  5
C540
  8
0
 10
450.1439939504160748
 20
104.9583460533390991
 30
0.0
 40
0.012495000326272
 50
139.603040955670906
 51
181.9073108389547997
  0
ARC
  5
C541
  8
0
 10
449.9794184101619976
 20
104.6965097005469971
 30
0.0
 40
0.2960478481578904
 50
47.865803014792121
 51
50.0591649118591135
  0
ARC
  5
C542
  8
0
 10
450.0680527546990106
 20
104.7944856541667065
 30
0.0
 40
0.1639292101115727
 50
45.5601207626264824
 51
47.8658030147932081
  0
ARC
  5
C543
  8
0
 10
450.1491157157947782
 20
104.8771492491271999
 30
0.0
 40
0.0481515197156614
 50
40.5862899200960996
 51
45.5601207626339928
  0
ARC
  5
C544
  8
0
 10
450.1802904991544096
 20
104.9038563329531968
 30
0.0
 40
0.0071011184508354
 50
28.514372596024419
 51
40.586289920053531
  0
ARC
  5
C545
  8
0
 10
450.1862442417460102
 20
104.9070908854644983
 30
0.0
 40
0.0003254722975166
 50
332.4306833491198176
 51
28.5143725965155603
  0
ARC
  5
C546
  8
0
 10
450.1863989133900077
 20
104.9070724910401964
 30
0.0
 40
0.0001881538474914
 50
285.1389235464613989
 51
315.3450963185820228
  0
ARC
  5
C547
  8
0
 10
450.1863669769737726
 20
104.9075269445013987
 30
0.0
 40
0.0006412236066324
 50
246.486878498845698
 51
277.2637797433329183
  0
ARC
  5
C548
  8
0
 10
450.1924964687166835
 20
104.9217881959277037
 30
0.0
 40
0.0161639093224561
 50
235.0850129881702912
 51
246.7318283896971991
  0
ARC
  5
C549
  8
0
 10
450.298306118113203
 20
105.0740689023747052
 30
0.0
 40
0.2015960611527888
 50
229.2606914523659896
 51
235.1973613828033081
  0
ARC
  5
C54A
  8
0
 10
450.3168254299906152
 20
105.1011295643843937
 30
0.0
 40
0.2342137179315194
 50
226.0145738638786099
 51
230.1483553118675047
  0
ARC
  5
C54B
  8
0
 10
450.1863468908650248
 20
104.9657330336379033
 30
0.0
 40
0.0461797888915376
 50
219.6483243790931965
 51
225.8308262027555031
  0
ARC
  5
C54C
  8
0
 10
450.1517229350118896
 20
104.9372910333480036
 30
0.0
 40
0.0013856122598902
 50
179.8224415072810984
 51
227.6547545863411131
  0
ARC
  5
C54D
  8
0
 10
450.1505063639830837
 20
104.9371339538639063
 30
0.0
 40
0.0002336965613697
 50
73.7510970526976166
 51
136.3282695411614043
  0
ARC
  5
C54E
  8
0
 10
450.1448811587018213
 20
104.9228913725007999
 30
0.0
 40
0.0155459101473967
 50
53.7649391927885816
 51
68.5277222138050206
  0
ARC
  5
C54F
  8
0
 10
450.0298650645389102
 20
104.7592018326708967
 30
0.0
 40
0.2156004583445092
 50
49.6418623694206715
 51
54.8239974759572419
  0
ARC
  5
C550
  8
0
 10
449.9428707162928163
 20
104.6473492478011025
 30
0.0
 40
0.3702908410270352
 50
41.971999107395412
 51
50.6075414718093413
  0
ARC
  5
C551
  8
0
 10
449.9313135604444938
 20
104.6536701243572054
 30
0.0
 40
0.3729652054684832
 50
48.618239801443913
 51
56.993859351498287
  0
LINE
  5
C552
  8
0
 10
451.1627952183908974
 20
104.2691193112182049
 30
0.0
 11
451.1057171020236183
 21
104.3095974181872947
 31
0.0
  0
LINE
  5
C553
  8
0
 10
450.8859608502290257
 20
104.4717203780253953
 30
0.0
 11
450.9867517158007217
 21
104.4015866827716934
 31
0.0
  0
LINE
  5
C554
  8
0
 10
450.7794238646114877
 20
104.5584702203703955
 30
0.0
 11
450.6798905722798736
 21
104.6322760559456952
 31
0.0
  0
LINE
  5
C555
  8
0
 10
450.8510652162902943
 20
104.446857790931702
 30
0.0
 11
450.836990052000715
 21
104.4319676578029998
 31
0.0
  0
ARC
  5
C556
  8
0
 10
450.8284071411773084
 20
104.4400808075565976
 30
0.0
 40
0.0118105697207404
 50
232.4079924416236054
 51
316.6116512962149159
  0
LINE
  5
C557
  8
0
 10
450.8212022845532942
 20
104.4307224103563954
 30
0.0
 11
450.7525172133014166
 21
104.4836017742032936
 31
0.0
  0
ARC
  5
C558
  8
0
 10
450.7597184635170038
 20
104.492955487035303
 30
0.0
 40
0.0118046579116614
 50
138.6027086520662124
 51
232.407992441639891
  0
LINE
  5
C559
  8
0
 10
450.7508632898998258
 20
104.5007616287597045
 30
0.0
 11
450.765947034740293
 21
104.5178792942418937
 31
0.0
  0
LINE
  5
C55A
  8
0
 10
450.6682706601961854
 20
104.631191116588397
 30
0.0
 11
450.6333505267535884
 21
104.5889808822688991
 31
0.0
  0
ARC
  5
C55B
  8
0
 10
450.6244853843331839
 20
104.5974670398339015
 30
0.0
 40
0.0122721481555543
 50
233.3730789153179899
 51
316.2512480718186794
  0
ARC
  5
C55C
  8
0
 10
451.1529331559171965
 20
105.3458653934558953
 30
0.0
 40
0.9284328936067113
 50
229.2637092745742109
 51
234.7553817192813881
  0
ARC
  5
C55D
  8
0
 10
450.5554973506256147
 20
104.6506928980671063
 30
0.0
 40
0.0118486716704183
 50
136.0884920449734921
 51
224.3902616278269875
  0
LINE
  5
C55E
  8
0
 10
450.5469614274293804
 20
104.6589105032865064
 30
0.0
 11
450.5888327439897125
 21
104.7024037513485979
 31
0.0
  0
LINE
  5
C55F
  8
0
 10
450.4370276762990102
 20
104.7575883962299059
 30
0.0
 11
450.4193435198172892
 21
104.7383570715280001
 31
0.0
  0
ARC
  5
C560
  8
0
 10
450.4101281975998177
 20
104.7486962485374988
 30
0.0
 40
0.0138499366354074
 50
247.2311043114102063
 51
311.7106609554733154
  0
LINE
  5
C561
  8
0
 10
450.4047680633329946
 20
104.7359255905495985
 30
0.0
 11
450.3375450865345897
 21
104.7921103074814937
 31
0.0
  0
ARC
  5
C562
  8
0
 10
450.3451200662337897
 20
104.8011729590365064
 30
0.0
 40
0.0118113220729689
 50
138.1137829714083978
 51
230.109537475313914
  0
LINE
  5
C563
  8
0
 10
450.3363268655730849
 20
104.8090588293914038
 30
0.0
 11
450.3633687469226743
 21
104.839212088099103
 31
0.0
  0
LINE
  5
C564
  8
0
 10
450.1479748054538845
 20
105.0151343216866024
 30
0.0
 11
450.0456280644348794
 21
105.0942718450867943
 31
0.0
  0
LINE
  5
C565
  8
0
 10
450.0873722150537901
 20
105.0619940347381061
 30
0.0
 11
450.0551720203720834
 21
105.0276652821837047
 31
0.0
  0
ARC
  5
C566
  8
0
 10
450.0464472954120083
 20
105.0368106442380025
 30
0.0
 40
0.0126395598315314
 50
224.0706692401566045
 51
313.6515857152124909
  0
LINE
  5
C567
  8
0
 10
450.0373659934446096
 20
105.0280192605408018
 30
0.0
 11
449.8074085139862746
 21
105.2294984774974012
 31
0.0
  0
ARC
  5
C568
  8
0
 10
449.816810605956789
 20
105.2409330548978943
 30
0.0
 40
0.0148178885612018
 50
188.5827776025917899
 51
231.0579588189904996
  0
LINE
  5
C569
  8
0
 10
449.9531003055245719
 20
105.1820347308397032
 30
0.0
 11
449.9206174406872947
 21
105.1464477253426963
 31
0.0
  0
ARC
  5
C56A
  8
0
 10
449.9108840016917839
 20
105.1553321475881972
 30
0.0
 40
0.0131784973846382
 50
248.4872943520028059
 51
317.6110087326380835
  0
LINE
  5
C56B
  8
0
 10
449.9692678702493254
 20
105.1239176171604015
 30
0.0
 11
449.958374919891412
 21
105.1119837102774
 31
0.0
  0
ARC
  5
C56C
  8
0
 10
449.9500068694928245
 20
105.1196218424061044
 30
0.0
 40
0.0113298424477255
 50
229.5132135691439998
 51
317.6110087326657094
  0
LINE
  5
C56D
  8
0
 10
450.0323321219623267
 20
105.0820853458606052
 30
0.0
 11
450.0142718183500961
 21
105.0624980200940968
 31
0.0
  0
ARC
  5
C56E
  8
0
 10
450.005085689787677
 20
105.0725072689456994
 30
0.0
 40
0.0135856549543153
 50
254.9868105439421981
 51
312.5445940564432021
  0
LINE
  5
C56F
  8
0
 10
449.9661356790658147
 20
105.1711478885689957
 30
0.0
 11
449.8932023958199125
 21
105.2306440221166071
 31
0.0
  0
ARC
  5
C570
  8
0
 10
449.6580944037795007
 20
105.0066981032102973
 30
0.0
 40
0.3291166933781726
 50
41.7253980567360614
 51
50.9342316938409283
  0
ARC
  5
C571
  8
0
 10
449.6644512638619062
 20
105.0123669156981947
 30
0.0
 40
0.3205993519425521
 50
40.6163904582186177
 51
41.7253980567360614
  0
ARC
  5
C572
  8
0
 10
449.9040261516670967
 20
105.2178263402081058
 30
0.0
 40
0.0049893045948908
 50
15.6261565412680792
 51
40.6163904582630408
  0
ARC
  5
C573
  8
0
 10
449.9082488816325167
 20
105.2190074258939063
 30
0.0
 40
0.0006045113547757
 50
265.9613903754640205
 51
15.6261565415525094
  0
LINE
  5
C574
  8
0
 10
449.8962208191554168
 20
105.2338864940577992
 30
0.0
 11
449.8648137965174101
 21
105.2001581452284995
 31
0.0
  0
ARC
  5
C575
  8
0
 10
449.8561051920785872
 20
105.2096562966494986
 30
0.0
 40
0.0128862202249832
 50
225.6709487848521007
 51
312.5168896390667896
  0
LINE
  5
C576
  8
0
 10
449.8471005838511019
 20
105.2004382869751993
 30
0.0
 11
449.8021586587088905
 21
105.2387216609354965
 31
0.0
  0
LINE
  5
C577
  8
0
 10
449.8021586587088905
 20
105.2387216609354965
 30
0.0
 11
449.7145364121113857
 21
105.3189127607193001
 31
0.0
  0
ARC
  5
C578
  8
0
 10
449.7239683937139034
 20
105.3292187849552022
 30
0.0
 40
0.0139705551965719
 50
147.0906314210160133
 51
227.5355276191720861
  0
LINE
  5
C579
  8
0
 10
449.7122396790156813
 20
105.3368091514830951
 30
0.0
 11
449.7358414562382904
 21
105.3732788674576994
 31
0.0
  0
ARC
  5
C57A
  8
0
 10
458.4893969952811972
 20
115.9482915639095069
 30
0.0
 40
13.7274920872870307
 50
230.4217458298234931
 51
230.7604598730368934
  0
ARC
  5
C57B
  8
0
 10
449.6108300309475112
 20
105.1962079259276948
 30
0.0
 40
0.2166687779883391
 50
52.3499686361764702
 51
57.724829135308859
  0
ARC
  5
C57C
  8
0
 10
449.7252553629836029
 20
105.3776463965747041
 30
0.0
 40
0.0021667494745095
 50
54.0268068865184503
 51
103.6842135096550948
  0
ARC
  5
C57D
  8
0
 10
449.753530544989701
 20
105.4074222549823929
 30
0.0
 40
0.0399299212107109
 50
223.8664208143885901
 51
231.15691806380039
  0
LINE
  5
C57E
  8
0
 10
449.7284869122700002
 20
105.376322173501805
 30
0.0
 11
449.7343484746223226
 21
105.3709718964623931
 31
0.0
  0
LINE
  5
C57F
  8
0
 10
450.5847061821182251
 20
104.6981173425641032
 30
0.0
 11
450.4641983495558861
 21
104.7844515324748045
 31
0.0
  0
LINE
  5
C580
  8
0
 10
450.3753265974754072
 20
104.8517484966883018
 30
0.0
 11
450.2693121901684776
 21
104.9204641370508995
 31
0.0
  0
LINE
  5
C581
  8
0
 10
449.7247427740858257
 20
105.379751641431497
 30
0.0
 11
449.6641353729550019
 21
105.4302190132056012
 31
0.0
  0
ARC
  5
C582
  8
0
 10
451.2689555606733052
 20
104.1749270792050055
 30
0.0
 40
0.0197011269219748
 50
147.0494147131674936
 51
220.8955870338911893
  0
ARC
  5
C583
  8
0
 10
450.7578240439955835
 20
103.6862600938336954
 30
0.0
 40
0.687466102671918
 50
18.8505240687586593
 51
43.7935373833914525
  0
LINE
  5
C584
  8
0
 10
451.4084177060142906
 20
103.9083806225200988
 30
0.0
 11
451.4085622683530232
 21
103.908018246122495
 31
0.0
  0
LINE
  5
C585
  8
0
 10
451.4085622683530232
 20
103.908018246122495
 30
0.0
 11
451.4301132292143848
 21
103.8504787672199967
 31
0.0
  0
ARC
  5
C586
  8
0
 10
451.4190875693396947
 20
103.8463491927268052
 30
0.0
 40
0.0117736383996241
 50
289.3939004244219859
 51
20.5330437072422889
  0
LINE
  5
C587
  8
0
 10
451.4229971321449852
 20
103.8352436139558961
 30
0.0
 11
451.1342278537831021
 21
103.7327849698384057
 31
0.0
  0
ARC
  5
C588
  8
0
 10
451.1270651862870977
 20
103.7533050420793046
 30
0.0
 40
0.0217329938165866
 50
205.7994994705782972
 51
289.241895474461387
  0
LINE
  5
C589
  8
0
 10
451.1074984813643027
 20
103.7438463382199956
 30
0.0
 11
450.8571916573993121
 21
104.4458899961501004
 31
0.0
  0
LINE
  5
C58A
  8
0
 10
453.4830354388524256
 20
100.4430454117985931
 30
0.0
 11
451.9609078012300074
 21
104.6317989771762029
 31
0.0
  0
ARC
  5
C58B
  8
0
 10
454.7147604802535739
 20
66.9650374477968739
 30
0.0
 40
0.0371412818416211
 50
298.0317689227763935
 51
359.5235886043155915
  0
LINE
  5
C58C
  8
0
 10
454.7322154364591142
 20
66.932253315648822
 30
0.0
 11
454.7328109925538229
 21
68.0055927595115435
 31
0.0
  0
ARC
  5
C58D
  8
0
 10
453.9616646061580241
 20
69.2612403070489933
 30
0.0
 40
0.944881889798809
 50
170.2974300420254963
 51
175.8308985453784885
  0
LINE
  5
C58E
  8
0
 10
449.1625119692661201
 20
67.9995252672698172
 30
0.0
 11
453.8262397089591218
 21
67.9588687844564845
 31
0.0
  0
LINE
  5
C58F
  8
0
 10
434.066127156462187
 20
113.5790363929641984
 30
0.0
 11
441.9258627871561202
 21
113.5790363929641984
 31
0.0
  0
ARC
  5
C590
  8
0
 10
451.6542426223193729
 20
72.1615379680312543
 30
0.0
 40
1.732364033740776
 50
243.1444741630670876
 51
270.0043180982631839
  0
ARC
  5
C591
  8
0
 10
451.6598455729683792
 20
72.1600579752416991
 30
0.0
 40
1.7308926868097121
 50
269.8188533398811728
 51
294.2952114448784187
  0
ARC
  5
C592
  8
0
 10
454.4324673499093024
 20
76.3141355320162802
 30
0.0
 40
0.1168516068478357
 50
89.7374296674817344
 51
108.1809272653348017
  0
ARC
  5
C593
  8
0
 10
454.4172853406371928
 20
76.3603637338700736
 30
0.0
 40
0.0681942327697878
 50
108.1809272653348017
 51
128.3695936945931919
  0
ARC
  5
C594
  8
0
 10
454.387330307278603
 20
76.3981988099026808
 30
0.0
 40
0.0199366219512748
 50
128.3695936945902076
 51
161.3920783201814118
  0
ARC
  5
C595
  8
0
 10
454.377060726647926
 20
76.4016564863717491
 30
0.0
 40
0.0091005796434933
 50
161.392078320178797
 51
223.7780447737384861
  0
ARC
  5
C596
  8
0
 10
454.3937603865497863
 20
76.4176586050367774
 30
0.0
 40
0.0322294888829964
 50
223.7780447737401914
 51
262.4868393540892839
  0
ARC
  5
C597
  8
0
 10
454.4310438177997185
 20
76.5753647963938135
 30
0.0
 40
0.1941457660815722
 50
257.6581276786184844
 51
271.5044739964328073
  0
ARC
  5
C598
  8
0
 10
454.4430834965232862
 20
76.500808897106694
 30
0.0
 40
0.1197243915723529
 50
266.6757623209567214
 51
284.5732585584090089
  0
ARC
  5
C599
  8
0
 10
454.4862726004672027
 20
76.4018632799714368
 30
0.0
 40
0.0116202893364921
 50
345.9553552268491785
 51
40.9395462308706684
  0
ARC
  5
C59A
  8
0
 10
454.4671585159226197
 20
76.3876964662083253
 30
0.0
 40
0.0353890659527685
 50
37.9865795005626694
 51
59.8362775034536227
  0
ARC
  5
C59B
  8
0
 10
454.4391236013390767
 20
76.3379287878007631
 30
0.0
 40
0.0925078242362591
 50
60.312015387513199
 51
82.848260294109636
  0
ARC
  5
C59C
  8
0
 10
454.433187721105412
 20
76.3103497066194052
 30
0.0
 40
0.1206363468901809
 50
81.6816304462374347
 51
90.0878058376559068
  0
ARC
  5
C59D
  8
0
 10
454.4647490607359259
 20
76.4345997467413838
 30
0.0
 40
0.0503785963069395
 50
279.6664843449627824
 51
303.9360763840329014
  0
ARC
  5
C59E
  8
0
 10
454.4862722333248257
 20
76.402613410870444
 30
0.0
 40
0.0118250926951816
 50
303.9360763840325035
 51
342.4276198889298257
  0
LINE
  5
C59F
  8
0
 10
454.4052713533969836
 20
76.427778287159839
 30
0.0
 11
454.3878978103591066
 21
76.4190099849488149
 31
0.0
  0
LINE
  5
C5A0
  8
0
 10
454.3878978103591066
 20
76.4190099849488149
 30
0.0
 11
454.4055355614592031
 21
76.402975683648819
 31
0.0
  0
LINE
  5
C5A1
  8
0
 10
454.4055355614592031
 20
76.402975683648819
 30
0.0
 11
454.4506405969592038
 21
76.4008039231488141
 31
0.0
  0
LINE
  5
C5A2
  8
0
 10
454.4506405969592038
 20
76.4008039231488141
 30
0.0
 11
454.4781078812591204
 21
76.4146664639488051
 31
0.0
  0
LINE
  5
C5A3
  8
0
 10
454.4781078812591204
 20
76.4146664639488051
 30
0.0
 11
454.4647398599873895
 21
76.426819196944777
 31
0.0
  0
LINE
  5
C5A4
  8
0
 10
454.4506405969592038
 20
76.4008039231488141
 30
0.0
 11
454.4506405969592038
 21
76.4297319259933658
 31
0.0
  0
LINE
  5
C5A5
  8
0
 10
454.4055355614592031
 20
76.402975683648819
 30
0.0
 11
454.4055355614592031
 21
76.4279116310685112
 31
0.0
  0
LINE
  5
C5A6
  8
0
 10
452.6768695292572033
 20
69.3299336132140809
 30
0.0
 11
454.7125276426830283
 21
69.3299336132140809
 31
0.0
  0
LINE
  5
C5A7
  8
0
 10
452.2739885676631957
 20
75.4322953234488125
 30
0.0
 11
454.2361524592578235
 21
75.4322953234488125
 31
0.0
  0
LINE
  5
C5A8
  8
0
 10
454.2361524592578235
 20
75.4322953234488125
 30
0.0
 11
452.2739885676631957
 21
75.4322953234488125
 31
0.0
  0
LINE
  5
C5A9
  8
0
 10
454.2361524592578235
 20
75.4322953234488125
 30
0.0
 11
452.2739885676631957
 21
75.4322953234488125
 31
0.0
  0
ENDSEC
  0
EOF
