  0
SECTION
  2
HEADER
  9
$ACADVER
  1
AC1009
  9
$INSBASE
 10
3803.9038041925200559
 20
78.3697139868122861
 30
0.0
  9
$EXTMIN
 10
3801.5711325927209145
 20
72.1940500403084542
 30
0.0
  9
$EXTMAX
 10
3806.2364757923210163
 20
83.8280739304352807
 30
0.0
  9
$LIMMIN
 10
0.0
 20
0.0
  9
$LIMMAX
 10
11.6929133858000007
 20
8.2677165353999982
  9
$ORTHOMODE
 70
     1
  9
$REGENMODE
 70
     1
  9
$FILLMODE
 70
     1
  9
$QTEXTMODE
 70
     0
  9
$MIRRTEXT
 70
     0
  9
$DRAGMODE
 70
     2
  9
$LTSCALE
 40
0.6431102362
  9
$OSMODE
 70
  4095
  9
$ATTMODE
 70
     1
  9
$TEXTSIZE
 40
0.2
  9
$TRACEWID
 40
0.05
  9
$TEXTSTYLE
  7
STANDARD
  9
$CLAYER
  8
0
  9
$CELTYPE
  6
BYLAYER
  9
$CECOLOR
 62
   256
  9
$DIMSCALE
 40
1.0
  9
$DIMASZ
 40
0.1875
  9
$DIMEXO
 40
0.0625
  9
$DIMDLI
 40
0.4443307087
  9
$DIMRND
 40
0.0
  9
$DIMDLE
 40
0.0
  9
$DIMEXE
 40
0.125
  9
$DIMTP
 40
0.01
  9
$DIMTM
 40
0.01
  9
$DIMTXT
 40
2.0
  9
$DIMCEN
 40
0.1052362205
  9
$DIMTSZ
 40
0.0
  9
$DIMTOL
 70
     1
  9
$DIMLIM
 70
     0
  9
$DIMTIH
 70
     1
  9
$DIMTOH
 70
     1
  9
$DIMSE1
 70
     0
  9
$DIMSE2
 70
     0
  9
$DIMTAD
 70
     0
  9
$DIMZIN
 70
     0
  9
$DIMBLK
  1

  9
$DIMASO
 70
     1
  9
$DIMSHO
 70
     1
  9
$DIMPOST
  1
\X
  9
$DIMAPOST
  1

  9
$DIMALT
 70
     1
  9
$DIMALTD
 70
     2
  9
$DIMALTF
 40
25.3999999999999986
  9
$DIMLFAC
 40
1.0
  9
$DIMTOFL
 70
     0
  9
$DIMTVP
 40
0.0
  9
$DIMTIX
 70
     0
  9
$DIMSOXD
 70
     0
  9
$DIMSAH
 70
     0
  9
$DIMBLK1
  1

  9
$DIMBLK2
  1

  9
$DIMSTYLE
  2
STANDARD
  9
$DIMCLRD
 70
     0
  9
$DIMCLRE
 70
     0
  9
$DIMCLRT
 70
     0
  9
$DIMTFAC
 40
1.0
  9
$DIMGAP
 40
0.09
  9
$LUNITS
 70
     2
  9
$LUPREC
 70
     4
  9
$SKETCHINC
 40
0.1
  9
$FILLETRAD
 40
0.0
  9
$AUNITS
 70
     0
  9
$AUPREC
 70
     0
  9
$MENU
  1
.
  9
$ELEVATION
 40
0.0
  9
$PELEVATION
 40
0.0
  9
$THICKNESS
 40
0.0
  9
$LIMCHECK
 70
     0
  9
$BLIPMODE
 70
     0
  9
$CHAMFERA
 40
0.0
  9
$CHAMFERB
 40
0.0
  9
$SKPOLY
 70
     0
  9
$TDCREATE
 40
2458060.468368056230247
  9
$TDUPDATE
 40
2459821.8984143519774079
  9
$TDINDWG
 40
0.4438612269
  9
$TDUSRTIMER
 40
0.4438612269
  9
$USRTIMER
 70
     1
  9
$ANGBASE
 50
0.0
  9
$ANGDIR
 70
     0
  9
$PDMODE
 70
     0
  9
$PDSIZE
 40
0.3125
  9
$PLINEWID
 40
0.0
  9
$COORDS
 70
     1
  9
$SPLFRAME
 70
     0
  9
$SPLINETYPE
 70
     6
  9
$SPLINESEGS
 70
     8
  9
$ATTDIA
 70
     1
  9
$ATTREQ
 70
     1
  9
$HANDLING
 70
     1
  9
$HANDSEED
  5
B207
  9
$SURFTAB1
 70
     6
  9
$SURFTAB2
 70
     6
  9
$SURFTYPE
 70
     6
  9
$SURFU
 70
     6
  9
$SURFV
 70
     6
  9
$UCSNAME
  2

  9
$UCSORG
 10
0.0
 20
0.0
 30
0.0
  9
$UCSXDIR
 10
1.0
 20
0.0
 30
0.0
  9
$UCSYDIR
 10
0.0
 20
1.0
 30
0.0
  9
$PUCSNAME
  2

  9
$PUCSORG
 10
0.0
 20
0.0
 30
0.0
  9
$PUCSXDIR
 10
1.0
 20
0.0
 30
0.0
  9
$PUCSYDIR
 10
0.0
 20
1.0
 30
0.0
  9
$USERI1
 70
     0
  9
$USERI2
 70
     0
  9
$USERI3
 70
     0
  9
$USERI4
 70
     0
  9
$USERI5
 70
     0
  9
$USERR1
 40
0.0
  9
$USERR2
 40
0.0
  9
$USERR3
 40
0.0
  9
$USERR4
 40
0.0
  9
$USERR5
 40
0.0
  9
$WORLDVIEW
 70
     1
  9
$SHADEDGE
 70
     3
  9
$SHADEDIF
 70
    70
  9
$TILEMODE
 70
     1
  9
$MAXACTVP
 70
    64
  9
$PLIMCHECK
 70
     0
  9
$PEXTMIN
 10
1.0000000000000000E+20
 20
1.0000000000000000E+20
 30
1.0000000000000000E+20
  9
$PEXTMAX
 10
-1.0000000000000000E+20
 20
-1.0000000000000000E+20
 30
-1.0000000000000000E+20
  9
$PLIMMIN
 10
0.0
 20
0.0
  9
$PLIMMAX
 10
12.0
 20
9.0
  9
$UNITMODE
 70
     0
  9
$VISRETAIN
 70
     1
  9
$PLINEGEN
 70
     0
  9
$PSLTSCALE
 70
     1
  0
ENDSEC
  0
SECTION
  2
TABLES
  0
TABLE
  2
VPORT
 70
     1
  0
VPORT
  2
*ACTIVE
 70
     0
 10
0.0
 20
0.0
 11
1.0
 21
1.0
 12
-65.3986860418544893
 22
-52.1602833705527971
 13
0.0
 23
0.0
 14
1.0
 24
1.0
 15
0.0
 25
0.0
 16
0.0
 26
0.0
 36
50.1863853749498219
 17
3869.302490234375
 27
130.1713453559245863
 37
0.0
 40
11.7173223905334503
 41
2.2831541218637992
 42
50.0
 43
0.0
 44
0.0
 50
0.0
 51
0.0
 71
     0
 72
   100
 73
     1
 74
     1
 75
     0
 76
     0
 77
     0
 78
     0
  0
ENDTAB
  0
TABLE
  2
LTYPE
 70
     2
  0
LTYPE
  2
CONTINUOUS
 70
     0
  3
Solid line
 72
    65
 73
     0
 40
0.0
  0
LTYPE
  2
PHANTOM2
 70
     0
  3
___ _ _ ___ _ _ ___ _ _ ___ _ _
 72
    65
 73
     6
 40
1.25
 49
0.625
 49
-0.125
 49
0.125
 49
-0.125
 49
0.125
 49
-0.125
  0
ENDTAB
  0
TABLE
  2
LAYER
 70
     2
  0
LAYER
  2
0
 70
     0
 62
   255
  6
CONTINUOUS
  0
LAYER
  2
DEFPOINTS
 70
     0
 62
     7
  6
CONTINUOUS
  0
ENDTAB
  0
TABLE
  2
STYLE
 70
     1
  0
STYLE
  2
STANDARD
 70
     0
 40
0.0
 41
0.8
 50
0.0
 71
     0
 42
0.2
  3
txt
  4

  0
ENDTAB
  0
TABLE
  2
VIEW
 70
     0
  0
ENDTAB
  0
TABLE
  2
UCS
 70
     0
  0
ENDTAB
  0
TABLE
  2
APPID
 70
     9
  0
APPID
  2
ACAD
 70
     0
  0
APPID
  2
ACAD_MLEADERVER
 70
     0
  0
APPID
  2
ACAD_EXEMPT_FROM_CAD_STANDARDS
 70
     0
  0
APPID
  2
ACAD_NAV_VCDISPLAY
 70
     0
  0
APPID
  2
ACAECLAYERSTANDARD
 70
     0
  0
APPID
  2
ACCMTRANSPARENCY
 70
     0
  0
APPID
  2
ACAD_DSTYLE_DIMJAG
 70
     0
  0
APPID
  2
ACAD_DSTYLE_DIMTALN
 70
     0
  0
APPID
  2
ACDBATTR
 70
     0
  0
ENDTAB
  0
TABLE
  2
DIMSTYLE
 70
     1
  0
DIMSTYLE
  2
STANDARD
 70
     0
  3

  4

  5

  6

  7

 40
1.0
 41
0.1875
 42
0.0625
 43
0.38
 44
0.125
 45
0.0
 46
0.0
 47
0.01
 48
0.01
140
0.15625
141
0.09
142
0.0
143
25.3999999999999986
144
1.0
145
0.0
146
1.0
147
0.09
 71
     1
 72
     0
 73
     1
 74
     1
 75
     0
 76
     0
 77
     0
 78
     4
170
     0
171
     2
172
     0
173
     0
174
     0
175
     0
176
     0
177
     0
178
     0
  0
ENDTAB
  0
ENDSEC
  0
SECTION
  2
BLOCKS
  0
BLOCK
  8
0
  2
$MODEL_SPACE
 70
     0
 10
0.0
 20
0.0
 30
0.0
  3
$MODEL_SPACE
  1

  0
ENDBLK
  5
21
  8
0
  0
BLOCK
 67
     1
  8
0
  2
$PAPER_SPACE
 70
     0
 10
0.0
 20
0.0
 30
0.0
  3
$PAPER_SPACE
  1

  0
ENDBLK
  5
1D
 67
     1
  8
0
  0
ENDSEC
  0
SECTION
  2
ENTITIES
  0
ATTDEF
  5
AEB1
  8
DEFPOINTS
 10
3803.9036455421619394
 20
78.3737279969295173
 30
0.0
 40
0.001
  1
K-5487T-2
  3

  2
MODELNUMBER
 70
     0
1001
ACDBATTR
1070
     0
1070
     1
  0
ATTDEF
  5
AEB2
  8
DEFPOINTS
 10
3803.9036455421619394
 20
78.3720613302628522
 30
0.0
 40
0.001
  1

  3

  2
TRADENAME
 70
     0
1001
ACDBATTR
1070
     0
1070
     1
  0
ATTDEF
  5
AEB3
  8
DEFPOINTS
 10
3803.9036455421619394
 20
78.370394663596187
 30
0.0
 40
0.001
  1
SOAP DISPENSER
  3

  2
PRODUCT
 70
     0
1001
ACDBATTR
1070
     0
1070
     1
  0
LINE
  5
B024
  8
0
 10
3803.9733795279657897
 20
72.1985922014796131
 30
0.0
 11
3803.8342288570761411
 21
72.1985922014796131
 31
0.0
  0
ARC
  5
B025
  8
0
 10
3803.8342242278399681
 20
72.2104037435932753
 30
0.0
 40
0.0118115430208165
 50
180.5018763095648069
 51
270.0224556314923916
  0
LINE
  5
B026
  8
0
 10
3803.8224131379479331
 20
72.2103002829567941
 30
0.0
 11
3803.819117800866934
 21
72.5864967167933059
 31
0.0
  0
LINE
  5
B027
  8
0
 10
3803.819117800866934
 20
72.5864967167933059
 30
0.0
 11
3803.9884783196730496
 21
72.5864968243725741
 31
0.0
  0
LINE
  5
B028
  8
0
 10
3803.9962828572211038
 20
72.5947984207796253
 30
0.0
 11
3803.8113255278208271
 21
72.5947984207796253
 31
0.0
  0
ARC
  5
B029
  8
0
 10
3803.7857007746088129
 20
72.2137338270601248
 30
0.0
 40
0.0196837867516588
 50
269.9963536616230044
 51
0.0036464294534874
  0
LINE
  5
B02A
  8
0
 10
3803.7856995219208329
 20
72.1940500403483156
 30
0.0
 11
3803.7489037457271479
 21
72.1940500403483156
 31
0.0
  0
ARC
  5
B02B
  8
0
 10
3803.7489037457871746
 20
72.2138255407988368
 30
0.0
 40
0.0197755004505071
 50
187.6700436352884083
 51
269.9999998274631139
  0
ARC
  5
B02C
  8
0
 10
3804.7796027988729293
 20
72.2994563801673138
 30
0.0
 40
1.0540003484931411
 50
183.7971765619307973
 51
184.8040237781009125
  0
ARC
  5
B02D
  8
0
 10
3803.7146649680730661
 20
72.2271156627223121
 30
0.0
 40
0.0134924992603809
 50
10.8500925448058805
 51
42.6185922047758723
  0
ARC
  5
B02E
  8
0
 10
3803.6754319061069509
 20
72.1849047449454986
 30
0.0
 40
0.0710872290689321
 50
46.245380180799998
 51
77.1693768360856609
  0
ARC
  5
B02F
  8
0
 10
3803.6506716443800542
 20
72.1053957337247482
 30
0.0
 40
0.1542458727260588
 50
74.7595869546249361
 51
87.0796784921629268
  0
ARC
  5
B030
  8
0
 10
3803.8976614965290537
 20
76.66871381847956
 30
0.0
 40
4.415752262322985
 50
262.5463445092181018
 51
266.8956751890738133
  0
ARC
  5
B031
  8
0
 10
3803.8005521644058717
 20
76.0189721697997243
 30
0.0
 40
3.7589225843401142
 50
251.3455549892074998
 51
262.7292797359352789
  0
ARC
  5
B032
  8
0
 10
3803.3912447872780831
 20
74.8065522346187493
 30
0.0
 40
2.4792762940724029
 50
238.6444557471928078
 51
251.3455549892074998
  0
ARC
  5
B033
  8
0
 10
3802.8586536215948399
 20
73.9325035749944135
 30
0.0
 40
1.455745928545978
 50
221.4296996605303889
 51
238.6444557471928078
  0
ARC
  5
B034
  8
0
 10
3802.3917252895771526
 20
73.5204205215523672
 30
0.0
 40
0.8329823215692707
 50
203.9945910767023065
 51
221.429699660529792
  0
ARC
  5
B035
  8
0
 10
3802.2724440212577974
 20
73.4661570927157044
 30
0.0
 40
0.7019434492163139
 50
182.4315589513253997
 51
203.9073820544832074
  0
LINE
  5
B036
  8
0
 10
3801.5711325927209145
 20
73.4363764597296154
 30
0.0
 11
3801.5711325927209145
 21
82.6290788701796259
 31
0.0
  0
ARC
  5
B037
  8
0
 10
3802.2149062813959972
 20
82.6257119574099335
 30
0.0
 40
0.6437824930302336
 50
164.72885532509261
 51
179.7003479075661119
  0
ARC
  5
B038
  8
0
 10
3802.2874538321048021
 20
82.6057760808611192
 30
0.0
 40
0.7190192696420417
 50
151.1652272969816977
 51
164.7189866160667009
  0
ARC
  5
B039
  8
0
 10
3802.5144910792892006
 20
82.480781805765389
 30
0.0
 40
0.978190024967782
 50
132.5042244043461039
 51
151.1652272969816977
  0
ARC
  5
B03A
  8
0
 10
3803.0115565935739141
 20
81.9384102732162347
 30
0.0
 40
1.7138808600409881
 50
120.4071754213368024
 51
132.5042244043461039
  0
ARC
  5
B03B
  8
0
 10
3803.3368618669260286
 20
81.3840999198528863
 30
0.0
 40
2.35659657380257
 50
109.4295823403289063
 51
120.4071754213368024
  0
ARC
  5
B03C
  8
0
 10
3803.8111054464520748
 20
80.0396283229917032
 30
0.0
 40
3.7822581211160191
 50
102.8485765476376059
 51
109.4295823403289063
  0
ARC
  5
B03D
  8
0
 10
3803.8205994378849937
 20
79.9980037431772217
 30
0.0
 40
3.8249516981278422
 50
93.7508304997794539
 51
102.8485765476376059
  0
ARC
  5
B03E
  8
0
 10
3804.0315176961507859
 20
76.4467786775678917
 30
0.0
 40
7.3824000398930041
 50
90.9912507787853855
 51
93.5812795555670505
  0
ARC
  5
B03F
  8
0
 10
3802.5516746473740568
 20
122.5270264674553005
 30
0.0
 40
38.7980675859521966
 50
271.7354241308154883
 51
271.9971872791123815
  0
LINE
  5
B040
  8
0
 10
3803.7266444036890789
 20
83.7467544921859854
 30
0.0
 11
3803.7266441962210592
 21
83.7739276502796031
 31
0.0
  0
LINE
  5
B041
  8
0
 10
3803.7266444037209112
 20
83.7739267226796187
 30
0.0
 11
3803.726603740165956
 21
83.7747886518232718
 31
0.0
  0
ARC
  5
B042
  8
0
 10
3804.0061900650271127
 20
77.5525223104605743
 30
0.0
 40
6.2285445278897118
 50
92.5727520750263437
 51
93.6071636203570137
  0
ARC
  5
B043
  8
0
 10
3803.8534636930889974
 20
79.9752048458143747
 30
0.0
 40
3.8010528158968522
 50
93.6071636203570137
 51
98.3916616044481742
  0
ARC
  5
B044
  8
0
 10
3803.8828959560569274
 20
79.7756890362096698
 30
0.0
 40
4.0027278425750774
 50
98.3916616044481742
 51
105.1967990232033969
  0
ARC
  5
B045
  8
0
 10
3803.5476994525638474
 20
81.0096895971758642
 30
0.0
 40
2.7240120491250202
 50
105.1967990232033969
 51
114.1752476995871035
  0
ARC
  5
B046
  8
0
 10
3803.3123321804919215
 20
81.5588241650527124
 30
0.0
 40
2.1266727285344609
 50
114.449018122878897
 51
127.458863837040397
  0
ARC
  5
B047
  8
0
 10
3802.6508788161440862
 20
82.4340375071703448
 30
0.0
 40
1.0296716947535369
 50
127.8595043019195003
 51
148.563704457075886
  0
ARC
  5
B048
  8
0
 10
3802.3518036342002233
 20
82.6168539258057848
 30
0.0
 40
0.679146649460419
 50
148.563704457075886
 51
162.9773195966776882
  0
ARC
  5
B049
  8
0
 10
3803.8863192014359811
 20
84.8564645738326391
 30
0.0
 40
3.3447420074359342
 50
267.6945618766562234
 51
270.2996177520481069
  0
ARC
  5
B04A
  8
0
 10
3803.953969390191105
 20
86.5368298703553904
 30
0.0
 40
5.0264685243811114
 50
263.7952282855309249
 51
267.6945618766562234
  0
ARC
  5
B04B
  8
0
 10
3803.8013314693671418
 20
85.1328629596905841
 30
0.0
 40
3.6142286647555908
 50
255.2079939125380008
 51
263.7952282855309249
  0
ARC
  5
B04C
  8
0
 10
3803.673372359116911
 20
84.6482834247888576
 30
0.0
 40
3.1130392199928711
 50
245.5760043781133106
 51
255.2079939125380008
  0
ARC
  5
B04D
  8
0
 10
3803.1323242186058451
 20
83.456875972982175
 30
0.0
 40
1.80453442192328
 50
232.1369462745514909
 51
245.5760043781133106
  0
ARC
  5
B04E
  8
0
 10
3802.7443782744121563
 20
82.9578739674225147
 30
0.0
 40
1.172470297669612
 50
214.9064469907370096
 51
232.1369462745514909
  0
ARC
  5
B04F
  8
0
 10
3802.311870859460214
 20
82.6316393053958933
 30
0.0
 40
0.6366396521284046
 50
163.1975691299431048
 51
192.7247781544226086
  0
ARC
  5
B050
  8
0
 10
3802.2046843529028592
 20
82.6074350700528157
 30
0.0
 40
0.5267542927917138
 50
192.7247781544234044
 51
207.2625177904772897
  0
ARC
  5
B051
  8
0
 10
3802.489922426450903
 20
82.7544211884836045
 30
0.0
 40
0.8476369467522706
 50
207.2625177904772897
 51
213.4706028678822065
  0
ARC
  5
B052
  8
0
 10
3804.0403315564999502
 20
76.2910757346631812
 30
0.0
 40
7.5053179293777648
 50
91.0423107047687807
 51
92.9924717141526855
  0
ARC
  5
B053
  8
0
 10
3803.8811609751878677
 20
79.8007246551103435
 30
0.0
 40
3.9922190511338118
 50
93.3407473721885452
 51
107.6465741386006982
  0
ARC
  5
B054
  8
0
 10
3803.3324306514359705
 20
81.5256755777346456
 30
0.0
 40
2.1820918032123711
 50
107.6465741386006982
 51
127.3218845960851979
  0
ARC
  5
B055
  8
0
 10
3802.5866988353081979
 20
82.5038132441173957
 30
0.0
 40
0.9521043089745692
 50
127.3218845960851979
 51
160.3456337533633871
  0
ARC
  5
B056
  8
0
 10
3802.2548507349360989
 20
82.6529117201606169
 30
0.0
 40
0.5901445070269093
 50
163.1425071240126101
 51
188.3846611401818052
  0
ARC
  5
B057
  8
0
 10
3802.2864855561028889
 20
82.6590991764355607
 30
0.0
 40
0.6223452680124304
 50
188.5235300457599124
 51
204.1131677955245038
  0
ARC
  5
B058
  8
0
 10
3802.1879799184030162
 20
82.6313019552650445
 30
0.0
 40
0.616851331609769
 50
180.2064900602385933
 51
196.0969164636061066
  0
ARC
  5
B059
  8
0
 10
3802.2883831033359456
 20
82.6604032015482915
 30
0.0
 40
0.7213868246557633
 50
196.1066239029458984
 51
214.5987027593583036
  0
ARC
  5
B05A
  8
0
 10
3802.6084271958898171
 20
82.8811761379363929
 30
0.0
 40
1.110191287876036
 50
214.5987027593583036
 51
225.5424378168299029
  0
ARC
  5
B05B
  8
0
 10
3802.8469152881589253
 20
83.1242232168074366
 30
0.0
 40
1.450703332746764
 50
225.5424378168299029
 51
241.5190382556156976
  0
ARC
  5
B05C
  8
0
 10
3803.6328189851687966
 20
84.5728254269899651
 30
0.0
 40
3.0987606692246121
 50
241.5190382556156976
 51
249.5528209576482084
  0
ARC
  5
B05D
  8
0
 10
3803.5391416513398326
 20
84.3215681218226933
 30
0.0
 40
2.8306083314142092
 50
249.5528209576482084
 51
258.8623047555130938
  0
ARC
  5
B05E
  8
0
 10
3803.8757923516582196
 20
85.7126575779670645
 30
0.0
 40
4.2609729458027763
 50
258.0340051492547104
 51
266.0724030436404064
  0
ARC
  5
B05F
  8
0
 10
3803.8985864980058977
 20
85.9515398724705051
 30
0.0
 40
4.5008600251906543
 50
265.9912091230935971
 51
266.9295798680665825
  0
ARC
  5
B060
  8
0
 10
3803.6535147156218954
 20
81.3587747843066182
 30
0.0
 40
0.098447169497701
 50
62.7208043335092
 51
87.6766855537591567
  0
ARC
  5
B061
  8
0
 10
3803.6725462004060319
 20
81.3956804841995734
 30
0.0
 40
0.0569233438349422
 50
13.5560425149696595
 51
62.7208043335092
  0
LINE
  5
B062
  8
0
 10
3803.7278837234198363
 20
81.4090231084796301
 30
0.0
 11
3803.7278837234198363
 21
72.2298197417426309
 31
0.0
  0
LINE
  5
B063
  8
0
 10
3803.8093215692210833
 20
72.2875886442098334
 30
0.0
 11
3803.8093215692210833
 21
81.4912174951803649
 31
0.0
  0
ARC
  5
B064
  8
0
 10
3803.7836188615187893
 20
81.4848426084410136
 30
0.0
 40
0.0289103945944499
 50
39.6526284067865831
 51
77.990774775267468
  0
ARC
  5
B065
  8
0
 10
3803.7849487557100474
 20
81.4907936338800027
 30
0.0
 40
0.024376498863424
 50
0.9963156597705223
 51
30.8432304110520299
  0
ARC
  5
B066
  8
0
 10
3803.7853122235101182
 20
72.2897316365918243
 30
0.0
 40
0.0241047940829109
 50
326.3782844099289946
 51
354.8994901210218131
  0
LINE
  5
B067
  8
0
 10
3803.8053845613208068
 20
72.2137353269796165
 30
0.0
 11
3803.8053845613208068
 21
81.3848178254445145
 31
0.0
  0
ARC
  5
B068
  8
0
 10
3803.7870146561808724
 20
81.3840170844313064
 30
0.0
 40
0.0183873482964639
 50
2.495887215596222
 51
94.1015178119016866
  0
LINE
  5
B069
  8
0
 10
3803.7856995219208329
 20
81.4023573406796146
 30
0.0
 11
3803.749215697820091
 21
81.402357361179611
 31
0.0
  0
ARC
  5
B06A
  8
0
 10
3803.7495142047350782
 20
81.3804831560026543
 30
0.0
 40
0.0218762418733676
 50
90.7818398270079143
 51
171.4036363015812015
  0
ARC
  5
B06B
  8
0
 10
3803.8329307390231406
 20
81.4906559870361349
 30
0.0
 40
0.0216061686423234
 50
95.0168989382007538
 51
179.4606059084395895
  0
LINE
  5
B06C
  8
0
 10
3803.8113255278208271
 20
81.4908593888863066
 30
0.0
 11
3803.8113255278208271
 21
72.5947984207796253
 31
0.0
  0
ARC
  5
B06D
  8
0
 10
3803.8433164538641904
 20
72.5714962255075449
 30
0.0
 40
0.0233023586265263
 50
40.0708131989551291
 51
90.2144799020494759
  0
LINE
  5
B06E
  8
0
 10
3803.8093215692210833
 20
72.3033341723796212
 30
0.0
 11
3803.8216037489019072
 21
72.3030454121800545
 31
0.0
  0
ARC
  5
B06F
  8
0
 10
3803.9733841572010533
 20
72.2104037435932753
 30
0.0
 40
0.0118115430208165
 50
269.9775443685076084
 51
359.4981236904342836
  0
LINE
  5
B070
  8
0
 10
3803.9851952470930883
 20
72.2103002829567941
 30
0.0
 11
3803.9884783196730496
 21
72.5864968243725741
 31
0.0
  0
ARC
  5
B071
  8
0
 10
3804.0219088631738487
 20
72.2137350798017508
 30
0.0
 40
0.0196850394534147
 50
180.000000064404901
 51
269.9999998445292135
  0
LINE
  5
B072
  8
0
 10
3804.0219088631201885
 20
72.1940500403483156
 30
0.0
 11
3804.0587046393138735
 21
72.1940500403483156
 31
0.0
  0
ARC
  5
B073
  8
0
 10
3804.0587046392552111
 20
72.2138255407988368
 30
0.0
 40
0.019775500450506
 50
270.0000001725368861
 51
352.3299563647140076
  0
ARC
  5
B074
  8
0
 10
3803.0280055861680921
 20
72.2994563801673138
 30
0.0
 40
1.0540003484931411
 50
355.1959762218990022
 51
356.2028234380691742
  0
ARC
  5
B075
  8
0
 10
3804.0929434169679553
 20
72.2271156627223121
 30
0.0
 40
0.0134924992603809
 50
137.3814077952241064
 51
169.1499074551940964
  0
ARC
  5
B076
  8
0
 10
3804.13217647893498
 20
72.1849047449454986
 30
0.0
 40
0.0710872290689321
 50
102.8306231639142965
 51
133.754619819200002
  0
ARC
  5
B077
  8
0
 10
3804.1569367406609672
 20
72.1053957337247482
 30
0.0
 40
0.1542458727260588
 50
92.920321507837059
 51
105.2404130453750071
  0
ARC
  5
B078
  8
0
 10
3803.9099468885119677
 20
76.66871381847956
 30
0.0
 40
4.415752262322985
 50
273.1043248109261867
 51
277.4536554907818982
  0
ARC
  5
B079
  8
0
 10
3804.0070562206351497
 20
76.0189721697997243
 30
0.0
 40
3.7589225843401142
 50
277.2707202640647211
 51
288.6544450107924717
  0
ARC
  5
B07A
  8
0
 10
3804.4163635977629383
 20
74.8065522346187493
 30
0.0
 40
2.4792762940724029
 50
288.6544450107924717
 51
301.3555442528071922
  0
ARC
  5
B07B
  8
0
 10
3804.9489547634461815
 20
73.9325035749944135
 30
0.0
 40
1.455745928545978
 50
301.3555442528071922
 51
318.5703003394696111
  0
ARC
  5
B07C
  8
0
 10
3805.4158830954638688
 20
73.5204205215523672
 30
0.0
 40
0.8329823215692707
 50
318.5703003394701796
 51
336.0054089232976935
  0
ARC
  5
B07D
  8
0
 10
3805.5351643637841335
 20
73.4661570927157044
 30
0.0
 40
0.7019434492163139
 50
336.0926179455169063
 51
357.5684410486745151
  0
LINE
  5
B07E
  8
0
 10
3806.2364757923210163
 20
73.4363764597296154
 30
0.0
 11
3806.2364757923210163
 21
82.6290788701796259
 31
0.0
  0
ARC
  5
B07F
  8
0
 10
3805.5927021036450242
 20
82.6257119574099335
 30
0.0
 40
0.6437824930302336
 50
0.2996520924339039
 51
15.2711446749074398
  0
ARC
  5
B080
  8
0
 10
3805.5201545529371288
 20
82.6057760808611192
 30
0.0
 40
0.7190192696420417
 50
15.2810133839332902
 51
28.8347727030182988
  0
ARC
  5
B081
  8
0
 10
3805.2931173057509113
 20
82.480781805765389
 30
0.0
 40
0.978190024967782
 50
28.8347727030182988
 51
47.4957755956539387
  0
ARC
  5
B082
  8
0
 10
3804.7960517914671073
 20
81.9384102732162347
 30
0.0
 40
1.7138808600409881
 50
47.4957755956539387
 51
59.5928245786631194
  0
ARC
  5
B083
  8
0
 10
3804.4707465181159023
 20
81.3840999198528863
 30
0.0
 40
2.35659657380257
 50
59.5928245786631194
 51
70.5704176596710653
  0
ARC
  5
B084
  8
0
 10
3803.9965029385889466
 20
80.0396283229917032
 30
0.0
 40
3.7822581211160191
 50
70.5704176596710653
 51
77.1514234523623941
  0
ARC
  5
B085
  8
0
 10
3803.9870089471569372
 20
79.9980037431772217
 30
0.0
 40
3.8249516981278422
 50
77.1514234523623941
 51
86.2491695002205603
  0
ARC
  5
B086
  8
0
 10
3803.776090688891145
 20
76.446778677571487
 30
0.0
 40
7.3824000398894061
 50
86.4187204444069437
 51
89.0087492212146145
  0
ARC
  5
B087
  8
0
 10
3805.2559337311481613
 20
122.5270262673563053
 30
0.0
 40
38.7980673857475011
 50
268.0028127202098176
 51
268.2645758698621989
  0
LINE
  5
B088
  8
0
 10
3804.0809639813519425
 20
83.7467544921859854
 30
0.0
 11
3804.0809641888199621
 21
83.7739276502796031
 31
0.0
  0
LINE
  5
B089
  8
0
 10
3804.0809639813201102
 20
83.7739267226796187
 30
0.0
 11
3804.0810046448759749
 21
83.7747886518232718
 31
0.0
  0
ARC
  5
B08A
  8
0
 10
3803.8014183200139087
 20
77.5525223104605743
 30
0.0
 40
6.2285445278897118
 50
86.3928363796430006
 51
87.4272479249736847
  0
ARC
  5
B08B
  8
0
 10
3803.9541446919529335
 20
79.9752048458143747
 30
0.0
 40
3.8010528158968522
 50
81.6083383955518542
 51
86.3928363796430006
  0
ARC
  5
B08C
  8
0
 10
3803.9247124289850035
 20
79.7756890362096698
 30
0.0
 40
4.0027278425750774
 50
74.8032009767965747
 51
81.6083383955518542
  0
ARC
  5
B08D
  8
0
 10
3804.2599089324780834
 20
81.0096895971758642
 30
0.0
 40
2.7240120491250202
 50
65.8247523004128539
 51
74.8032009767965747
  0
ARC
  5
B08E
  8
0
 10
3804.4952762045500094
 20
81.5588241650527124
 30
0.0
 40
2.1266727285344609
 50
52.541136162959603
 51
65.550981877121103
  0
ARC
  5
B08F
  8
0
 10
3805.1567295688978447
 20
82.4340375071703448
 30
0.0
 40
1.0296716947535369
 50
31.4362955429240785
 51
52.1404956980805068
  0
ARC
  5
B090
  8
0
 10
3805.4558047508421623
 20
82.6168539258057848
 30
0.0
 40
0.679146649460419
 50
17.0226804033222905
 51
31.4362955429240785
  0
ARC
  5
B091
  8
0
 10
3803.9212891836050403
 20
84.8564645738326391
 30
0.0
 40
3.3447420074359342
 50
269.7003822479520068
 51
272.3054381233437766
  0
ARC
  5
B092
  8
0
 10
3803.8536389948499163
 20
86.5368298703553904
 30
0.0
 40
5.0264685243811114
 50
272.3054381233437766
 51
276.2047717144690182
  0
ARC
  5
B093
  8
0
 10
3804.0062769156738796
 20
85.1328629596905841
 30
0.0
 40
3.6142286647555908
 50
276.2047717144690182
 51
284.7920060874620276
  0
ARC
  5
B094
  8
0
 10
3804.1342360259250199
 20
84.6482834247888576
 30
0.0
 40
3.1130392199928711
 50
284.7920060874620276
 51
294.4239956218867178
  0
ARC
  5
B095
  8
0
 10
3804.6752841664351763
 20
83.456875972982175
 30
0.0
 40
1.80453442192328
 50
294.4239956218867178
 51
307.8630537254484807
  0
ARC
  5
B096
  8
0
 10
3805.0632301106288651
 20
82.9578739674225147
 30
0.0
 40
1.172470297669612
 50
307.8630537254484807
 51
325.0935530092629051
  0
ARC
  5
B097
  8
0
 10
3805.4957375255808074
 20
82.6316393053958933
 30
0.0
 40
0.6366396521284046
 50
347.2752218455765956
 51
16.80243087005692
  0
ARC
  5
B098
  8
0
 10
3805.6029240321390716
 20
82.6074350700528157
 30
0.0
 40
0.5267542927917138
 50
332.7374822095226818
 51
347.2752218455765956
  0
ARC
  5
B099
  8
0
 10
3805.3176859585901184
 20
82.7544211884836045
 30
0.0
 40
0.8476369467522706
 50
326.5293971321178219
 51
332.7374822095226818
  0
ARC
  5
B09A
  8
0
 10
3803.7672768285451639
 20
76.2910757347605113
 30
0.0
 40
7.5053179292803804
 50
87.0075282858212944
 51
88.9576892952572678
  0
ARC
  5
B09B
  8
0
 10
3803.9264474098531537
 20
79.8007246551103435
 30
0.0
 40
3.9922190511338118
 50
72.3534258613992733
 51
86.6592526278114832
  0
ARC
  5
B09C
  8
0
 10
3804.4751777336059604
 20
81.5256755777346456
 30
0.0
 40
2.1820918032123711
 50
52.6781154039147665
 51
72.3534258613992733
  0
ARC
  5
B09D
  8
0
 10
3805.2209095497328235
 20
82.5038132441173957
 30
0.0
 40
0.9521043089745692
 50
19.6543662466365987
 51
52.6781154039147665
  0
ARC
  5
B09E
  8
0
 10
3805.552757650105832
 20
82.6529117201606169
 30
0.0
 40
0.5901445070269093
 50
351.6153388598181095
 51
16.8574928759881502
  0
ARC
  5
B09F
  8
0
 10
3805.5211228289381324
 20
82.6590991764355607
 30
0.0
 40
0.6223452680124304
 50
335.8868322044755246
 51
351.476469954239974
  0
ARC
  5
B0A0
  8
0
 10
3805.6196284666380052
 20
82.6313019552650445
 30
0.0
 40
0.616851331609769
 50
343.9030835363938081
 51
359.793509939761293
  0
ARC
  5
B0A1
  8
0
 10
3805.5192252817050758
 20
82.6604032015482915
 30
0.0
 40
0.7213868246557633
 50
325.4012972406417248
 51
343.8933760970541016
  0
ARC
  5
B0A2
  8
0
 10
3805.1991811891512043
 20
82.8811761379363929
 30
0.0
 40
1.110191287876036
 50
314.4575621831701255
 51
325.4012972406417248
  0
ARC
  5
B0A3
  8
0
 10
3804.9606930968820961
 20
83.1242232168074366
 30
0.0
 40
1.450703332746764
 50
298.480961744384274
 51
314.4575621831701255
  0
ARC
  5
B0A4
  8
0
 10
3804.1747893998731342
 20
84.5728254269899651
 30
0.0
 40
3.0987606692246121
 50
290.44717904235182
 51
298.480961744384274
  0
ARC
  5
B0A5
  8
0
 10
3804.2684667337011888
 20
84.3215681218226933
 30
0.0
 40
2.8306083314142092
 50
281.1376952444870199
 51
290.44717904235182
  0
ARC
  5
B0A6
  8
0
 10
3803.9318160333828018
 20
85.7126575779670645
 30
0.0
 40
4.2609729458027763
 50
273.9275969563597073
 51
281.9659948507452896
  0
ARC
  5
B0A7
  8
0
 10
3803.9090218870360331
 20
85.9515398724705051
 30
0.0
 40
4.5008600251906543
 50
273.0704201319333038
 51
274.0087908769062892
  0
ARC
  5
B0A8
  8
0
 10
3804.1540936694191259
 20
81.3587747843066182
 30
0.0
 40
0.098447169497701
 50
92.3233144462408433
 51
117.2791956664908071
  0
ARC
  5
B0A9
  8
0
 10
3804.1350621846349895
 20
81.3956804841995734
 30
0.0
 40
0.0569233438349422
 50
117.2791956664908071
 51
166.4439574850302961
  0
LINE
  5
B0AA
  8
0
 10
3804.0797246616211851
 20
81.4090231084796301
 30
0.0
 11
3804.0797246616211851
 21
72.2298197417426309
 31
0.0
  0
LINE
  5
B0AB
  8
0
 10
3803.9982868158208476
 20
72.2875886442098334
 30
0.0
 11
3803.9982868158208476
 21
81.4912174951803649
 31
0.0
  0
ARC
  5
B0AC
  8
0
 10
3804.0239895235231415
 20
81.4848426084410136
 30
0.0
 40
0.0289103945944499
 50
102.0092252247325035
 51
140.3473715932134098
  0
ARC
  5
B0AD
  8
0
 10
3804.0226596293318835
 20
81.4907936338800027
 30
0.0
 40
0.024376498863424
 50
149.1567695889480092
 51
179.0036843402295119
  0
ARC
  5
B0AE
  8
0
 10
3804.0222961615309032
 20
72.2897316365918243
 30
0.0
 40
0.0241047940829109
 50
185.1005098789781869
 51
213.6068386177059892
  0
LINE
  5
B0AF
  8
0
 10
3804.0022238237211241
 20
72.2137353269796165
 30
0.0
 11
3804.0022238237211241
 21
81.3848178254445145
 31
0.0
  0
ARC
  5
B0B0
  8
0
 10
3804.0205937288610585
 20
81.3840170844313064
 30
0.0
 40
0.0183873482964639
 50
85.8984821880983134
 51
177.5041127844037874
  0
LINE
  5
B0B1
  8
0
 10
3804.0219088631201885
 20
81.4023573406796146
 30
0.0
 11
3804.0583926872209304
 21
81.402357361179611
 31
0.0
  0
ARC
  5
B0B2
  8
0
 10
3804.0580941803059432
 20
81.3804831560026543
 30
0.0
 40
0.0218762418733676
 50
8.5963636984187364
 51
89.2181601729920857
  0
ARC
  5
B0B3
  8
0
 10
3803.9746776460187903
 20
81.4906559870361349
 30
0.0
 40
0.0216061686423234
 50
0.5393940915604345
 51
84.983101061799232
  0
LINE
  5
B0B4
  8
0
 10
3803.9962828572211038
 20
81.4908593888863066
 30
0.0
 11
3803.9962828572211038
 21
72.5947984207796253
 31
0.0
  0
ARC
  5
B0B5
  8
0
 10
3803.964291931176831
 20
72.5714962255075449
 30
0.0
 40
0.0233023586265263
 50
89.7855200979505241
 51
139.929186801044807
  0
LINE
  5
B0B6
  8
0
 10
3803.9982868158208476
 20
72.3033341723796212
 30
0.0
 11
3803.9860046361391142
 21
72.3030454121800545
 31
0.0
  0
LINE
  5
B0B7
  8
0
 10
3803.9962865877878357
 20
81.4903757635572532
 30
0.0
 11
3803.9982868158208476
 21
81.4904193856918937
 31
0.0
  0
LINE
  5
B0B8
  8
0
 10
3803.8093215692210833
 20
81.4904149718222754
 30
0.0
 11
3803.8113255278208271
 21
81.4903730166130345
 31
0.0
  0
LINE
  5
B0BA
  8
0
 10
3803.8093204060210155
 20
81.368572430379615
 30
0.0
 11
3803.8113255278208271
 21
81.3685267834503207
 31
0.0
  0
LINE
  5
B0BB
  8
0
 10
3803.8093215692210833
 20
81.4111227860796163
 30
0.0
 11
3803.8113255278208271
 21
81.4110796331163868
 31
0.0
  0
LINE
  5
B0BC
  8
0
 10
3803.9982979471210456
 20
81.3685832699796237
 30
0.0
 11
3803.9962828572211038
 21
81.3685341476683419
 31
0.0
  0
LINE
  5
B0BD
  8
0
 10
3803.9983039462208581
 20
81.4110710839796212
 30
0.0
 11
3803.9962878647211255
 21
81.4110241941796033
 31
0.0
  0
ENDSEC
  0
EOF
