  0
SECTION
  2
HEADER
  9
$ACADVER
  1
AC1009
  9
$INSBASE
 10
3375.8911821036031142
 20
205.0215418443081887
 30
0.0
  9
$EXTMIN
 10
3366.2478294449128953
 20
176.7677730939549008
 30
-0.0015258207003583
  9
$EXTMAX
 10
3385.6199067934330742
 20
205.0334724745995914
 30
0.0000000349246037
  9
$LIMMIN
 10
0.0
 20
0.0
  9
$LIMMAX
 10
11.6929133858000007
 20
8.2677165353999982
  9
$ORTHOMODE
 70
     0
  9
$REGENMODE
 70
     1
  9
$FILLMODE
 70
     1
  9
$QTEXTMODE
 70
     0
  9
$MIRRTEXT
 70
     0
  9
$DRAGMODE
 70
     2
  9
$LTSCALE
 40
0.6431102362
  9
$OSMODE
 70
  2039
  9
$ATTMODE
 70
     1
  9
$TEXTSIZE
 40
0.2
  9
$TRACEWID
 40
0.05
  9
$TEXTSTYLE
  7
STANDARD
  9
$CLAYER
  8
0
  9
$CELTYPE
  6
BYLAYER
  9
$CECOLOR
 62
   256
  9
$DIMSCALE
 40
1.0
  9
$DIMASZ
 40
0.1875
  9
$DIMEXO
 40
0.0625
  9
$DIMDLI
 40
0.4443307087
  9
$DIMRND
 40
0.0
  9
$DIMDLE
 40
0.0
  9
$DIMEXE
 40
0.125
  9
$DIMTP
 40
0.01
  9
$DIMTM
 40
0.01
  9
$DIMTXT
 40
2.0
  9
$DIMCEN
 40
0.1052362205
  9
$DIMTSZ
 40
0.0
  9
$DIMTOL
 70
     1
  9
$DIMLIM
 70
     0
  9
$DIMTIH
 70
     1
  9
$DIMTOH
 70
     1
  9
$DIMSE1
 70
     0
  9
$DIMSE2
 70
     0
  9
$DIMTAD
 70
     0
  9
$DIMZIN
 70
     0
  9
$DIMBLK
  1

  9
$DIMASO
 70
     1
  9
$DIMSHO
 70
     1
  9
$DIMPOST
  1
\X
  9
$DIMAPOST
  1

  9
$DIMALT
 70
     1
  9
$DIMALTD
 70
     2
  9
$DIMALTF
 40
25.3999999999999986
  9
$DIMLFAC
 40
1.0
  9
$DIMTOFL
 70
     0
  9
$DIMTVP
 40
0.0
  9
$DIMTIX
 70
     0
  9
$DIMSOXD
 70
     0
  9
$DIMSAH
 70
     0
  9
$DIMBLK1
  1

  9
$DIMBLK2
  1

  9
$DIMSTYLE
  2
STANDARD
  9
$DIMCLRD
 70
     0
  9
$DIMCLRE
 70
     0
  9
$DIMCLRT
 70
     0
  9
$DIMTFAC
 40
1.0
  9
$DIMGAP
 40
0.09
  9
$LUNITS
 70
     2
  9
$LUPREC
 70
     4
  9
$SKETCHINC
 40
0.1
  9
$FILLETRAD
 40
0.0
  9
$AUNITS
 70
     0
  9
$AUPREC
 70
     0
  9
$MENU
  1
.
  9
$ELEVATION
 40
0.0
  9
$PELEVATION
 40
0.0
  9
$THICKNESS
 40
0.0
  9
$LIMCHECK
 70
     0
  9
$BLIPMODE
 70
     0
  9
$CHAMFERA
 40
0.0
  9
$CHAMFERB
 40
0.0
  9
$SKPOLY
 70
     0
  9
$TDCREATE
 40
2458060.468368056230247
  9
$TDUPDATE
 40
2459167.8079861109144986
  9
$TDINDWG
 40
0.5789885417
  9
$TDUSRTIMER
 40
0.5789885417
  9
$USRTIMER
 70
     1
  9
$ANGBASE
 50
0.0
  9
$ANGDIR
 70
     0
  9
$PDMODE
 70
     0
  9
$PDSIZE
 40
0.3125
  9
$PLINEWID
 40
0.0
  9
$COORDS
 70
     1
  9
$SPLFRAME
 70
     0
  9
$SPLINETYPE
 70
     6
  9
$SPLINESEGS
 70
     8
  9
$ATTDIA
 70
     1
  9
$ATTREQ
 70
     1
  9
$HANDLING
 70
     1
  9
$HANDSEED
  5
18F95
  9
$SURFTAB1
 70
     6
  9
$SURFTAB2
 70
     6
  9
$SURFTYPE
 70
     6
  9
$SURFU
 70
     6
  9
$SURFV
 70
     6
  9
$UCSNAME
  2

  9
$UCSORG
 10
0.0
 20
0.0
 30
0.0
  9
$UCSXDIR
 10
1.0
 20
0.0
 30
0.0
  9
$UCSYDIR
 10
0.0
 20
1.0
 30
0.0
  9
$PUCSNAME
  2

  9
$PUCSORG
 10
0.0
 20
0.0
 30
0.0
  9
$PUCSXDIR
 10
1.0
 20
0.0
 30
0.0
  9
$PUCSYDIR
 10
0.0
 20
1.0
 30
0.0
  9
$USERI1
 70
     0
  9
$USERI2
 70
     0
  9
$USERI3
 70
     0
  9
$USERI4
 70
     0
  9
$USERI5
 70
     0
  9
$USERR1
 40
0.0
  9
$USERR2
 40
0.0
  9
$USERR3
 40
0.0
  9
$USERR4
 40
0.0
  9
$USERR5
 40
0.0
  9
$WORLDVIEW
 70
     1
  9
$SHADEDGE
 70
     3
  9
$SHADEDIF
 70
    70
  9
$TILEMODE
 70
     1
  9
$MAXACTVP
 70
    64
  9
$PLIMCHECK
 70
     0
  9
$PEXTMIN
 10
1.0000000000000000E+20
 20
1.0000000000000000E+20
 30
1.0000000000000000E+20
  9
$PEXTMAX
 10
-1.0000000000000000E+20
 20
-1.0000000000000000E+20
 30
-1.0000000000000000E+20
  9
$PLIMMIN
 10
0.0
 20
0.0
  9
$PLIMMAX
 10
12.0
 20
9.0
  9
$UNITMODE
 70
     0
  9
$VISRETAIN
 70
     1
  9
$PLINEGEN
 70
     0
  9
$PSLTSCALE
 70
     1
  0
ENDSEC
  0
SECTION
  2
TABLES
  0
TABLE
  2
VPORT
 70
     1
  0
VPORT
  2
*ACTIVE
 70
     0
 10
0.0
 20
0.0
 11
1.0
 21
1.0
 12
72.2407528847979847
 22
-4.3608887916104768
 13
0.0
 23
0.0
 14
1.0
 24
1.0
 15
0.0
 25
0.0
 16
0.0
 26
0.0
 36
96.5995694866707311
 17
3303.693115234375
 27
195.2615115758877096
 37
0.0
 40
28.5009201799288583
 41
2.6486111111111108
 42
50.0
 43
0.0
 44
0.0
 50
0.0
 51
0.0
 71
     0
 72
   100
 73
     1
 74
     1
 75
     0
 76
     0
 77
     0
 78
     0
  0
ENDTAB
  0
TABLE
  2
LTYPE
 70
     2
  0
LTYPE
  2
CONTINUOUS
 70
     0
  3
Solid line
 72
    65
 73
     0
 40
0.0
  0
LTYPE
  2
PHANTOM2
 70
     0
  3
___ _ _ ___ _ _ ___ _ _ ___ _ _
 72
    65
 73
     6
 40
1.25
 49
0.625
 49
-0.125
 49
0.125
 49
-0.125
 49
0.125
 49
-0.125
  0
ENDTAB
  0
TABLE
  2
LAYER
 70
     2
  0
LAYER
  2
0
 70
     0
 62
   255
  6
CONTINUOUS
  0
LAYER
  2
DEFPOINTS
 70
     0
 62
     7
  6
CONTINUOUS
  0
ENDTAB
  0
TABLE
  2
STYLE
 70
     1
  0
STYLE
  2
STANDARD
 70
     0
 40
0.0
 41
0.8
 50
0.0
 71
     0
 42
0.2
  3
txt
  4

  0
ENDTAB
  0
TABLE
  2
VIEW
 70
     0
  0
ENDTAB
  0
TABLE
  2
UCS
 70
     0
  0
ENDTAB
  0
TABLE
  2
APPID
 70
     9
  0
APPID
  2
ACAD
 70
     0
  0
APPID
  2
ACAD_MLEADERVER
 70
     0
  0
APPID
  2
ACAD_EXEMPT_FROM_CAD_STANDARDS
 70
     0
  0
APPID
  2
ACAD_NAV_VCDISPLAY
 70
     0
  0
APPID
  2
ACAECLAYERSTANDARD
 70
     0
  0
APPID
  2
ACCMTRANSPARENCY
 70
     0
  0
APPID
  2
ACAD_DSTYLE_DIMJAG
 70
     0
  0
APPID
  2
ACAD_DSTYLE_DIMTALN
 70
     0
  0
APPID
  2
ACDBATTR
 70
     0
  0
ENDTAB
  0
TABLE
  2
DIMSTYLE
 70
     1
  0
DIMSTYLE
  2
STANDARD
 70
     0
  3

  4

  5

  6

  7

 40
1.0
 41
0.1875
 42
0.0625
 43
0.38
 44
0.125
 45
0.0
 46
0.0
 47
0.01
 48
0.01
140
0.15625
141
0.09
142
0.0
143
25.3999999999999986
144
1.0
145
0.0
146
1.0
147
0.09
 71
     1
 72
     0
 73
     1
 74
     1
 75
     0
 76
     0
 77
     0
 78
     4
170
     0
171
     2
172
     0
173
     0
174
     0
175
     0
176
     0
177
     0
178
     0
  0
ENDTAB
  0
ENDSEC
  0
SECTION
  2
BLOCKS
  0
BLOCK
  8
0
  2
$MODEL_SPACE
 70
     0
 10
0.0
 20
0.0
 30
0.0
  3
$MODEL_SPACE
  1

  0
ENDBLK
  5
21
  8
0
  0
BLOCK
 67
     1
  8
0
  2
$PAPER_SPACE
 70
     0
 10
0.0
 20
0.0
 30
0.0
  3
$PAPER_SPACE
  1

  0
ENDBLK
  5
1D
 67
     1
  8
0
  0
BLOCK
  8
0
  2
_FILLED
 70
     0
 10
0.0
 20
0.0
 30
0.0
  3
_FILLED
  1

  0
SOLID
  5
9E2C
  8
0
  6
BYBLOCK
 62
     0
 10
0.0
 20
0.0
 30
0.0
 11
-1.0
 21
0.1666666667
 31
0.0
 12
-1.0
 22
-0.1666666667
 32
0.0
 13
-1.0
 23
-0.1666666667
 33
0.0
  0
ENDBLK
  5
9E2D
  8
0
  6
BYBLOCK
 62
     0
  0
BLOCK
  8
0
  2
A$C6B0F1CD5
 70
     2
 10
0.0
 20
0.0
 30
0.0
  3
A$C6B0F1CD5
  1

  0
ATTDEF
  5
B779
  8
DEFPOINTS
 10
0.0005209962714616
 20
0.000347009907216
 30
0.0
 40
0.001
  1
BATH FAUCET
  3

  2
PRODUCT
 70
     0
1001
ACDBATTR
1070
     0
1070
     1
  0
ATTDEF
  5
B77A
  8
DEFPOINTS
 10
0.0005209962714616
 20
0.0020136765738812
 30
0.0
 40
0.001
  1
SINGULIER
  3

  2
TRADENAME
 70
     0
1001
ACDBATTR
1070
     0
1070
     1
  0
ATTDEF
  5
B77B
  8
DEFPOINTS
 10
0.0005209962714616
 20
0.0036803432405463
 30
0.0
 40
0.001
  1
K-10873W
  3

  2
MODELNUMBER
 70
     0
1001
ACDBATTR
1070
     0
1070
     1
  0
ENDBLK
  5
B77F
  8
0
  0
ENDSEC
  0
SECTION
  2
ENTITIES
  0
ATTDEF
  5
184B7
  8
DEFPOINTS
 10
3375.891571901811858
 20
205.0258022334496957
 30
0.0
 40
0.001
  1
K-5503T-C
  3

  2
MODELNUMBER
 70
     0
1001
ACDBATTR
1070
     0
1070
     1
  0
ATTDEF
  5
184B8
  8
DEFPOINTS
 10
3375.891571901811858
 20
205.0241355667830021
 30
0.0
 40
0.001
  1
SAN MARTINE
  3

  2
TRADENAME
 70
     0
1001
ACDBATTR
1070
     0
1070
     1
  0
ATTDEF
  5
184B9
  8
DEFPOINTS
 10
3375.891571901811858
 20
205.0224689001163085
 30
0.0
 40
0.001
  1
TOILET
  3

  2
PRODUCT
 70
     0
1001
ACDBATTR
1070
     0
1070
     1
  0
LINE
  5
18BF3
  8
0
 10
3368.2490061241769581
 20
205.0215418443879969
 30
0.0
 11
3383.5333580830279061
 21
205.0215418443879969
 31
0.0
  0
ARC
  5
18BF4
  8
0
 10
3368.2501583144080541
 20
204.8231050806413123
 30
0.0
 40
0.198440108719426
 50
90.3326747238247663
 51
161.1618384050428858
  0
ARC
  5
18BF5
  8
0
 10
3240.1254411326531226
 20
248.5349734258444983
 30
0.0
 40
135.1775939118321048
 50
341.0890433106740147
 51
341.1620756881052898
  0
LINE
  5
18BF6
  8
0
 10
3368.4617738523070329
 20
204.7739313311082014
 30
0.0
 11
3383.3205903548969218
 21
204.7739313311082014
 31
0.0
  0
ARC
  5
18BF7
  8
0
 10
3368.4641756179407821
 20
204.5741933883998058
 30
0.0
 40
0.1997523823025206
 50
89.3110752996232264
 51
181.6220536729684056
  0
ARC
  5
18BF8
  8
0
 10
8849.5485530650457804
 20
478.1764851107188861
 30
0.0
 40
5488.1086106346720044
 50
182.8576478578193871
 51
182.9205567800779875
  0
ARC
  5
18BF9
  8
0
 10
3368.9539898947718939
 20
198.5703819828104031
 30
0.0
 40
0.3862835375971898
 50
182.9604412327556133
 51
286.6098538686979964
  0
ARC
  5
18BFA
  8
0
 10
3375.7568326068330862
 20
173.0828754686997968
 30
0.0
 40
25.9936405477432686
 50
89.7038624349909952
 51
104.9196280361430951
  0
ARC
  5
18BFB
  8
0
 10
3375.7078369840769483
 20
173.6007449795079083
 30
0.0
 40
26.0894229501409285
 50
89.5973468622899532
 51
103.1686406126917035
  0
ARC
  5
18BFC
  8
0
 10
3370.8651412506969791
 20
194.298625270102292
 30
0.0
 40
4.8325663977278941
 50
103.1686189831327027
 51
118.3788924215577936
  0
ARC
  5
18BFD
  8
0
 10
3370.5505846087171449
 20
196.3200091838533012
 30
0.0
 40
2.984048821547935
 50
131.6301638712450881
 51
165.4198865682623989
  0
ARC
  5
18BFE
  8
0
 10
3380.3261665383320178
 20
194.0161856961865965
 30
0.0
 40
13.0268252453465898
 50
166.4368627194236012
 51
182.0085405086749972
  0
ARC
  5
18BFF
  8
0
 10
3694.3555263041348553
 20
200.7259947133318008
 30
0.0
 40
327.1266880280978739
 50
181.2552816702892926
 51
181.8532183820155979
  0
ARC
  5
18C00
  8
0
 10
3373.7727066115221533
 20
272.8114412588367941
 30
0.0
 40
68.2441039766608242
 50
265.3935552822924819
 51
265.5406291729040049
  0
ARC
  5
18C01
  8
0
 10
3368.357593630647898
 20
203.8218684958781068
 30
0.0
 40
0.968135315840529
 50
93.8877914458980882
 51
111.2561349202624967
  0
ARC
  5
18C02
  8
0
 10
3368.5098784636847995
 20
203.3454412797721886
 30
0.0
 40
1.4676829242638989
 50
110.0537411468548044
 51
143.2707052341991982
  0
ARC
  5
18C03
  8
0
 10
3372.2563256689159061
 20
201.0736146410179117
 30
0.0
 40
5.8440703171608588
 50
147.389082644155593
 51
172.3068252231261965
  0
ARC
  5
18C04
  8
0
 10
3377.408794016856973
 20
199.6893329968447972
 30
0.0
 40
11.1563428477620796
 50
168.8017202029282942
 51
177.3108664595725941
  0
ARC
  5
18C05
  8
0
 10
3547.6818407561618187
 20
215.5934858011515871
 30
0.0
 40
182.0679338656997004
 50
184.8460071493821033
 51
187.5457280653560019
  0
ARC
  5
18C06
  8
0
 10
3469.0990047115910784
 20
204.3728433041700043
 30
0.0
 40
102.695278747776797
 50
187.0970551451150072
 51
190.8921852274812068
  0
ARC
  5
18C07
  8
0
 10
3380.9568795943578152
 20
187.7024719048957877
 30
0.0
 40
12.9941551039520196
 50
192.1508149821476934
 51
227.2075476024728005
  0
ARC
  5
18C08
  8
0
 10
3375.8940925818269534
 20
182.5566602251136885
 30
0.0
 40
5.7828447980891582
 50
229.3817761201389089
 51
254.4733858669729898
  0
ARC
  5
18C09
  8
0
 10
3375.8943132048320876
 20
182.5576834474329928
 30
0.0
 40
5.7838897371593632
 50
254.4739934140183095
 51
267.9076286346096936
  0
ARC
  5
18C0A
  8
0
 10
3375.8919480188878879
 20
182.0425662139087137
 30
0.0
 40
5.269055255168265
 50
267.728819784985717
 51
269.9916714265871747
  0
ARC
  5
18C0B
  8
0
 10
3375.5368383466120576
 20
116.1412842390550964
 30
0.0
 40
82.1660644374467353
 50
89.7529093690544357
 51
90.7308927486309074
  0
ARC
  5
18C0C
  8
0
 10
3374.5968489928118288
 20
189.8237866806665011
 30
0.0
 40
8.4775663794553644
 50
90.7308344050995572
 51
99.8332897729294757
  0
ARC
  5
18C0D
  8
0
 10
3374.382065843935834
 20
192.3331658416026073
 30
0.0
 40
5.9723128164288513
 50
101.9148711676544963
 51
124.3565911161522024
  0
ARC
  5
18C0E
  8
0
 10
3375.9640363063522273
 20
189.7948284556852911
 30
0.0
 40
8.9614800604991434
 50
123.5477292776900953
 51
141.9162997375748887
  0
ARC
  5
18C0F
  8
0
 10
3382.2187960602859675
 20
185.3336794268390975
 30
0.0
 40
16.6399674540191498
 50
143.1097981206646921
 51
153.5090810563272044
  0
LINE
  5
18C10
  8
0
 10
3375.8896820209020007
 20
195.2440960281082027
 30
0.0
 11
3373.7073819507768349
 21
195.2440960281082027
 31
0.0
  0
LINE
  5
18C11
  8
0
 10
3372.7006139411778349
 20
196.6668652954082006
 30
0.0
 11
3373.19267473457694
 21
196.6668714356081864
 31
0.0
  0
ARC
  5
18C12
  8
0
 10
3372.6748232347981684
 20
196.0775102219506039
 30
0.0
 40
0.5899191157656594
 50
87.494284001524079
 51
100.4595893053348021
  0
ARC
  5
18C13
  8
0
 10
3372.6249917478507996
 20
196.3474392149491905
 30
0.0
 40
0.3154289732238228
 50
100.4595893053348021
 51
111.6639313474075976
  0
ARC
  5
18C14
  8
0
 10
3372.7137015252587844
 20
196.0478045441305142
 30
0.0
 40
0.6272800990223212
 50
109.0900270166209935
 51
123.2120690500227056
  0
ARC
  5
18C15
  8
0
 10
3372.6881416988931051
 20
196.140519174375811
 30
0.0
 40
0.5365164477787764
 50
126.3532117328684024
 51
154.7242441094946059
  0
ARC
  5
18C16
  8
0
 10
3372.649556997973832
 20
196.1687712945197006
 30
0.0
 40
0.4896468225733228
 50
155.7859355871217133
 51
179.9502644433451053
  0
ARC
  5
18C17
  8
0
 10
3333.9907122510921909
 20
196.2164913129473121
 30
0.0
 40
38.1692274100863216
 50
358.704708309608975
 51
359.9290055451140802
  0
ARC
  5
18C18
  8
0
 10
3377.8173494267580281
 20
195.927720968321097
 30
0.0
 40
5.6961630579608489
 50
185.7840129415151864
 51
187.1122981039025888
  0
ARC
  5
18C19
  8
0
 10
3372.1683904445831104
 20
195.2230218222753138
 30
0.0
 40
0.0034218099896379
 50
189.5595060980247126
 51
265.0342185915287132
  0
ARC
  5
18C1A
  8
0
 10
3372.1884393066320627
 20
195.4537684925151098
 30
0.0
 40
0.23503783425437
 50
265.0342185915287132
 51
269.5564863763905237
  0
LINE
  5
18C1B
  8
0
 10
3372.1866199502778727
 20
195.2187376999081891
 30
0.0
 11
3373.6830793048111445
 21
195.2187376992079919
 31
0.0
  0
ARC
  5
18C1C
  8
0
 10
3373.6838335729257778
 20
195.4157526803766132
 30
0.0
 40
0.1970162584673242
 50
269.793683907893012
 51
274.8297958562108079
  0
ARC
  5
18C1D
  8
0
 10
3373.6993815962027838
 20
195.2317438508574128
 30
0.0
 40
0.012351723786569
 50
274.8297958562108079
 51
289.3858491799064154
  0
ARC
  5
18C1E
  8
0
 10
3373.6999565176088254
 20
195.223529856029387
 30
0.0
 40
0.0049235544825011
 50
315.7201889997926969
 51
356.7400566248336986
  0
ARC
  5
18C1F
  8
0
 10
3367.7692551203349467
 20
195.9573253897837048
 30
0.0
 40
5.9808373871612668
 50
352.9498580249402266
 51
354.2071735084148258
  0
LINE
  5
18C20
  8
0
 10
3373.719550484678166
 20
195.3536690896081893
 30
0.0
 11
3373.7098338801770296
 21
196.1691963320081982
 31
0.0
  0
ARC
  5
18C21
  8
0
 10
3373.2088139109300755
 20
196.1646122141262936
 30
0.0
 40
0.5010409402323593
 50
0.5242171910263242
 51
54.5182254242992315
  0
ARC
  5
18C22
  8
0
 10
3373.1565843464131831
 20
196.0487773700118055
 30
0.0
 40
0.6261691630686484
 50
56.7793794978406225
 51
70.9142432552033881
  0
ARC
  5
18C23
  8
0
 10
3373.208920104516892
 20
196.2232056006872085
 30
0.0
 40
0.4442809123817425
 50
69.9371480753063821
 51
77.8954281983082524
  0
ARC
  5
18C24
  8
0
 10
3373.2020981428850064
 20
196.1273915829088139
 30
0.0
 40
0.5395621484988962
 50
79.3208054028303451
 51
91.0007169296055878
  0
LINE
  5
18C25
  8
0
 10
3371.1089703163770537
 20
195.1038929643081872
 30
0.0
 11
3370.8985717697642031
 21
194.8087373404123923
 31
0.0
  0
ARC
  5
18C26
  8
0
 10
3371.2308104444050514
 20
195.0387373755852138
 30
0.0
 40
0.1384109353372931
 50
95.1096943268800317
 51
152.6078216557683902
  0
LINE
  5
18C27
  8
0
 10
3371.2184831756771928
 20
195.1765982673082078
 30
0.0
 11
3371.5389204265229637
 21
195.1766419914561936
 31
0.0
  0
ARC
  5
18C28
  8
0
 10
3371.5419335293900076
 20
194.9757856407867109
 30
0.0
 40
0.2008789496018813
 50
74.1438182596110664
 51
90.8594457114444936
  0
LINE
  5
18C29
  8
0
 10
3371.5968184041771565
 20
195.1690212558081896
 30
0.0
 11
3371.6055070487777812
 21
195.0524855578082111
 31
0.0
  0
ARC
  5
18C2A
  8
0
 10
3371.6075645982450624
 20
195.0527411441061076
 30
0.0
 40
0.0020733630126951
 50
187.0809423832579057
 51
235.4550789293570858
  0
ARC
  5
18C2B
  8
0
 10
3371.6334812517898172
 20
195.1083653158526943
 30
0.0
 40
0.0634109604435214
 50
244.7068098695515062
 51
265.0325765483444229
  0
ARC
  5
18C2C
  8
0
 10
3371.6068775919511609
 20
194.8602335974269124
 30
0.0
 40
0.1861600387895522
 50
48.2125666197093778
 51
83.4879086833629458
  0
ARC
  5
18C2D
  8
0
 10
3372.6174218048790863
 20
195.7971248038554961
 30
0.0
 40
1.192816518980115
 50
221.9958707512782041
 51
246.2292341201373915
  0
ARC
  5
18C2E
  8
0
 10
3372.5208820175521396
 20
195.6151343989158988
 30
0.0
 40
0.9874659203064425
 50
247.0992346989920918
 51
270.0693482416123175
  0
LINE
  5
18C2F
  8
0
 10
3372.5220772017200943
 20
194.6276692019081906
 30
0.0
 11
3375.8911821036031142
 21
194.6276692019081906
 31
0.0
  0
ARC
  5
18C30
  8
0
 10
3371.62435333248186
 20
194.5712641768290041
 30
0.0
 40
0.4739423012047074
 50
89.5602868419777991
 51
108.1358630280783046
  0
ARC
  5
18C31
  8
0
 10
3371.5651705938330451
 20
194.8336614114307963
 30
0.0
 40
0.2077217864278489
 50
115.1689934028705977
 51
141.3664077468397124
  0
ARC
  5
18C32
  8
0
 10
3383.5026243357719977
 20
186.5768794089869118
 30
0.0
 40
14.71567826571982
 50
148.6977986985334894
 51
162.9820103849951067
  0
ARC
  5
18C33
  8
0
 10
3380.4785645117481181
 20
187.553770448367402
 30
0.0
 40
11.5382289091235997
 50
163.2256218102176888
 51
186.1205359416073861
  0
ARC
  5
18C34
  8
0
 10
3382.5055157186661745
 20
187.7474341589831965
 30
0.0
 40
13.5742950242792109
 50
186.0211139098495892
 51
210.7348211901993977
  0
ARC
  5
18C35
  8
0
 10
3379.8768939322189908
 20
186.2110066856259891
 30
0.0
 40
10.5296943512050305
 50
210.8587423345908007
 51
225.0876820822950037
  0
ARC
  5
18C36
  8
0
 10
3375.7433958100341442
 20
182.1504626890875898
 30
0.0
 40
4.7361031710246992
 50
225.8190441957108021
 51
247.2686908781194859
  0
ARC
  5
18C37
  8
0
 10
3375.6989968788770966
 20
182.6031732552538926
 30
0.0
 40
5.1410288555977921
 50
249.6753650067713011
 51
263.4639044163499193
  0
ARC
  5
18C38
  8
0
 10
3375.8919250371991438
 20
182.1019581698691923
 30
0.0
 40
4.6716583668314797
 50
260.4119362397789814
 51
269.9908882550203089
  0
LINE
  5
18C39
  8
0
 10
3371.298743048841061
 20
194.8087375358192048
 30
0.0
 11
3370.7316508371159216
 21
194.8087375354591018
 31
0.0
  0
LINE
  5
18C3A
  8
0
 10
3370.7316508370781776
 20
194.8688896743082068
 30
0.0
 11
3370.7119626712769787
 21
194.8492015491081872
 31
0.0
  0
LINE
  5
18C3B
  8
0
 10
3370.7119626712769787
 20
194.8492015491081872
 30
0.0
 11
3370.7119626712769787
 21
194.416136634908213
 31
0.0
  0
LINE
  5
18C3C
  8
0
 10
3370.7119626712769787
 20
194.416136634908213
 30
0.0
 11
3370.7316508373769466
 21
194.3964487294082062
 31
0.0
  0
LINE
  5
18C3D
  8
0
 10
3370.7316508373769466
 20
194.3964487294082062
 30
0.0
 11
3370.7316508370781776
 21
194.8688896743082068
 31
0.0
  0
ARC
  5
18C3E
  8
0
 10
3371.632688450869864
 20
193.8404483371780032
 30
0.0
 40
1.150842280300975
 50
143.1386574822757893
 51
158.5757198243832988
  0
ARC
  5
18C3F
  8
0
 10
3371.2117773593308812
 20
194.0752060121766931
 30
0.0
 40
0.6763756492614297
 50
164.0724607345069046
 51
175.2769474078654071
  0
LINE
  5
18C40
  8
0
 10
3370.537698452677887
 20
194.1308984400081954
 30
0.0
 11
3370.4922439248771298
 21
193.7506286120081995
 31
0.0
  0
ARC
  5
18C41
  8
0
 10
3369.9441659436329246
 20
193.8154303047535905
 30
0.0
 40
0.5518955815256819
 50
342.6474564885212999
 51
353.256970488302386
  0
ARC
  5
18C42
  8
0
 10
3368.4685780185441217
 20
194.2765096619228018
 30
0.0
 40
2.0978431544645009
 50
330.9707636126162811
 51
342.6474564885212999
  0
ARC
  5
18C43
  8
0
 10
3375.4432900813758351
 20
190.3568087095245005
 30
0.0
 40
5.902863918322784
 50
150.5557345880490914
 51
167.7050814105635084
  0
LINE
  5
18C44
  8
0
 10
3370.537680720255139
 20
194.1308984435837033
 30
0.0
 11
3370.5119588705770184
 21
194.1309036300081914
 31
0.0
  0
ARC
  5
18C45
  8
0
 10
3370.5119398359979641
 20
194.0365024486982009
 30
0.0
 40
0.0944011832289949
 50
89.9884471670645354
 51
119.5057564051374044
  0
ARC
  5
18C46
  8
0
 10
3370.7417012185751446
 20
193.8908085331119082
 30
0.0
 40
0.3580967659221315
 50
140.484591996632787
 51
154.0723662910696135
  0
ARC
  5
18C47
  8
0
 10
3383.2129678900951149
 20
186.8777238212445866
 30
0.0
 40
14.6653680973873204
 50
150.7327724051729092
 51
155.6336781091997921
  0
ARC
  5
18C48
  8
0
 10
3383.4706991413468131
 20
186.7011944809621014
 30
0.0
 40
14.9730719128182592
 50
155.4252308347749079
 51
159.7445560439672079
  0
ARC
  5
18C49
  8
0
 10
3382.4207909348560861
 20
187.083721262108611
 30
0.0
 40
13.85565928782772
 50
159.7254762874214862
 51
171.8424709135078103
  0
ARC
  5
18C4A
  8
0
 10
3379.9136445598351202
 20
187.4816793889582129
 30
0.0
 40
11.3174770575924697
 50
172.0357579644845032
 51
186.7914646169749915
  0
ARC
  5
18C4B
  8
0
 10
3381.6148017146338134
 20
187.6759134144895995
 30
0.0
 40
13.0296694154058397
 50
186.7549623445972031
 51
196.3794644448730082
  0
ARC
  5
18C4C
  8
0
 10
3383.1190993214568152
 20
188.1930018738453043
 30
0.0
 40
14.6189097594383899
 50
196.6612397764216951
 51
217.1338110509059902
  0
ARC
  5
18C4D
  8
0
 10
3377.1137125391578593
 20
183.7336151173159067
 30
0.0
 40
7.139557067184656
 50
217.6969903531420982
 51
228.2023251288543975
  0
ARC
  5
18C4E
  8
0
 10
3375.797164925279958
 20
182.2610164777863133
 30
0.0
 40
5.1642483893441478
 50
228.2023251288543975
 51
249.245838908337987
  0
ARC
  5
18C4F
  8
0
 10
3375.3639259804390349
 20
181.6697700906277078
 30
0.0
 40
4.462135909560982
 50
251.7583929282220936
 51
260.3871197982873014
  0
ARC
  5
18C50
  8
0
 10
3375.9927637035189036
 20
183.7810925396696007
 30
0.0
 40
6.6541985597705731
 50
258.0837381182960826
 51
269.1253006679244208
  0
ARC
  5
18C51
  8
0
 10
3388.4100211833851972
 20
191.2445310051220133
 30
0.0
 40
18.2073997840591701
 50
171.1446525236160028
 51
172.5085278768193859
  0
ARC
  5
18C52
  8
0
 10
3369.1148059975098477
 20
193.9111560681471929
 30
0.0
 40
1.2772358806741571
 50
331.1383473440873217
 51
346.7487852292857724
  0
ARC
  5
18C53
  8
0
 10
3381.8199154501357953
 20
187.2651993108013073
 30
0.0
 40
13.0614559608375806
 50
152.5082560554970996
 51
173.2614120715537069
  0
ARC
  5
18C54
  8
0
 10
3381.0181002868798714
 20
187.4676988987951063
 30
0.0
 40
12.2418864031599206
 50
173.762286223662386
 51
188.6429558846679129
  0
ARC
  5
18C55
  8
0
 10
3382.5036347738459881
 20
187.6523468552167913
 30
0.0
 40
13.7383596738555198
 50
188.4732582672008903
 51
199.0433747424814896
  0
ARC
  5
18C56
  8
0
 10
3381.703524047261908
 20
187.3408291922046089
 30
0.0
 40
12.8804376728967203
 50
198.8947768522778006
 51
215.0380180101103065
  0
ARC
  5
18C57
  8
0
 10
3377.8372705246210899
 20
184.5175496435307139
 30
0.0
 40
8.0944815388396112
 50
214.3873080790266954
 51
230.7056856385873971
  0
ARC
  5
18C58
  8
0
 10
3375.438196918084941
 20
181.6992024518322921
 30
0.0
 40
4.3945971764966743
 50
231.6415740732514905
 51
254.0391638723995129
  0
ARC
  5
18C59
  8
0
 10
3382.1025871404131067
 20
215.1028453550034953
 30
0.0
 40
38.4435942717980979
 50
258.1828640622333069
 51
259.6500925247045757
  0
ARC
  5
18C5A
  8
0
 10
3375.8938268334559325
 20
182.1293111353350866
 30
0.0
 40
4.8945643986367653
 50
261.8014541583996788
 51
269.9690407861500034
  0
ARC
  5
18C5B
  8
0
 10
3375.7608092820100865
 20
148.1911039118373026
 30
0.0
 40
46.1861701354143506
 50
89.8382671189543629
 51
92.1097111908399739
  0
ARC
  5
18C5C
  8
0
 10
3374.2755099531350425
 20
188.510802241285603
 30
0.0
 40
5.8391233107200353
 50
92.1097111908399739
 51
107.3515310177115936
  0
ARC
  5
18C5D
  8
0
 10
3373.2190222483691286
 20
191.8920797871384991
 30
0.0
 40
2.2966377267818401
 50
107.3515310177115936
 51
138.2503577542541109
  0
ARC
  5
18C5E
  8
0
 10
3376.210403204254817
 20
189.4874661289817084
 30
0.0
 40
6.1327628806803594
 50
140.099592948541698
 51
162.5553531987563929
  0
ARC
  5
18C5F
  8
0
 10
3380.449598125384
 20
188.0241244905988083
 30
0.0
 40
10.6164095974207093
 50
161.8796760169491904
 51
190.6424325522816048
  0
ARC
  5
18C60
  8
0
 10
3381.6394919294489227
 20
188.1412823652285908
 30
0.0
 40
11.8079358448744696
 50
190.1348447008186895
 51
212.7672243009334068
  0
ARC
  5
18C61
  8
0
 10
3378.4191327457019725
 20
186.0291841932647117
 30
0.0
 40
7.956955538614185
 50
212.5291164420063978
 51
232.185308210567797
  0
ARC
  5
18C62
  8
0
 10
3375.7333099322950147
 20
182.620390288052505
 30
0.0
 40
3.6174519334471649
 50
232.6894570973080079
 51
247.6342058424640982
  0
ARC
  5
18C63
  8
0
 10
3476.7052135534709123
 20
547.6154703994844795
 30
0.0
 40
382.2955006878053723
 50
254.4713212081366009
 51
254.6031507693865024
  0
ARC
  5
18C64
  8
0
 10
3375.9049125401497804
 20
181.9172910311550879
 30
0.0
 40
2.9607596592823708
 50
256.317551588445383
 51
269.7342915415596849
  0
ARC
  5
18C65
  8
0
 10
3376.0843609719900087
 20
187.6292512949638933
 30
0.0
 40
7.9042462195117178
 50
147.4175194757409031
 51
154.381189626992807
  0
ARC
  5
18C66
  8
0
 10
3372.4166677445869027
 20
189.4859784086243053
 30
0.0
 40
3.795335079848738
 50
155.7150687262848123
 51
181.0939133650875874
  0
ARC
  5
18C67
  8
0
 10
3417.3810952645599173
 20
186.6298952525218056
 30
0.0
 40
48.8384639874297122
 50
176.7325656424575016
 51
178.6044930073406931
  0
ARC
  5
18C68
  8
0
 10
3378.4538592985968535
 20
187.7981806739086039
 30
0.0
 40
9.8967651880034921
 50
179.8777523044873874
 51
187.042771987072399
  0
ARC
  5
18C69
  8
0
 10
3369.0887163905990747
 20
191.3646362775621981
 30
0.0
 40
0.0151235385483916
 50
54.256905323057012
 51
137.8754460646235884
  0
ARC
  5
18C6A
  8
0
 10
3369.0774421312171398
 20
191.3671198534568987
 30
0.0
 40
0.0223658362208303
 50
346.1896172913133114
 51
25.9624460510176398
  0
ARC
  5
18C6B
  8
0
 10
3368.947127337945858
 20
191.3894446478568909
 30
0.0
 40
0.1545303733641895
 50
339.5976973313530038
 51
349.687429103949512
  0
ARC
  5
18C6C
  8
0
 10
3368.4230912609150437
 20
191.5819801653402124
 30
0.0
 40
0.7128158385582855
 50
335.13032822479272
 51
339.7766780281652927
  0
ARC
  5
18C6D
  8
0
 10
3368.2795236199840474
 20
191.5894117991344956
 30
0.0
 40
0.8478935347677143
 50
332.2990752796645211
 51
338.7571429695374263
  0
ARC
  5
18C6E
  8
0
 10
3369.4783820332459072
 20
190.8364720812878943
 30
0.0
 40
0.6711800083571728
 50
126.6753607954400991
 51
146.6293997143625063
  0
ARC
  5
18C6F
  8
0
 10
3372.3095071515831478
 20
189.3137459736659878
 30
0.0
 40
3.883632217138052
 50
150.8465898854333886
 51
159.009534302163587
  0
ARC
  5
18C70
  8
0
 10
3374.2841324195637753
 20
188.945588019300601
 30
0.0
 40
5.870371973814791
 50
162.5606864216524912
 51
179.0329682001068079
  0
ARC
  5
18C71
  8
0
 10
3381.2689431082922056
 20
187.8866809337943948
 30
0.0
 40
12.9063994742894597
 50
174.8524130555350951
 51
183.1749622630080125
  0
ARC
  5
18C72
  8
0
 10
3381.8064560071488813
 20
187.9695799524120901
 30
0.0
 40
13.4477831496632199
 50
183.4007817319331934
 51
191.6945773221337959
  0
ARC
  5
18C73
  8
0
 10
3382.4126186008379591
 20
188.0204978963544988
 30
0.0
 40
14.0518734582466909
 50
191.3969022958804089
 51
209.6490325433894952
  0
ARC
  5
18C74
  8
0
 10
3380.1225597196162198
 20
186.6981579471749058
 30
0.0
 40
11.4075165660325002
 50
209.5669178110346138
 51
226.8557113200712934
  0
ARC
  5
18C75
  8
0
 10
3375.8845832389188217
 20
182.5318516278973107
 30
0.0
 40
5.4749484327632434
 50
229.4005342179754052
 51
262.5429734225368748
  0
ARC
  5
18C76
  8
0
 10
3375.8857088897498215
 20
182.5433826558646047
 30
0.0
 40
5.4865280398557763
 50
262.5469458908061142
 51
270.0571567490169969
  0
ARC
  5
18C77
  8
0
 10
3384.1805752081909304
 20
186.2746898874794965
 30
0.0
 40
15.4522350825304997
 50
146.4760403624188996
 51
149.0464507380112025
  0
ARC
  5
18C78
  8
0
 10
3381.3314251036558744
 20
188.1622150817678119
 30
0.0
 40
12.0345739411592394
 50
145.5884642966323952
 51
146.4760403624188996
  0
LINE
  5
18C79
  8
0
 10
3370.7316508373328361
 20
194.4662932223156133
 30
0.0
 11
3371.0783157140990625
 21
194.4662932223156133
 31
0.0
  0
ARC
  5
18C7A
  8
0
 10
3383.5322058927968101
 20
204.8231050806413123
 30
0.0
 40
0.198440108719426
 50
18.8381615949570893
 51
89.6673252761752337
  0
ARC
  5
18C7B
  8
0
 10
3511.6569230745508321
 20
248.5349734258444983
 30
0.0
 40
135.1775939118321048
 50
198.8379243118947954
 51
198.9109566893260137
  0
ARC
  5
18C7C
  8
0
 10
3383.3181885892640821
 20
204.5741933883998058
 30
0.0
 40
0.1997523823025206
 50
358.3779463270316228
 51
90.6889247003767593
  0
ARC
  5
18C7D
  8
0
 10
-2097.7661888578418257
 20
478.1764851107188861
 30
0.0
 40
5488.1086106346720044
 50
357.0794432199219841
 51
357.1423521421805845
  0
ARC
  5
18C7E
  8
0
 10
3382.8283743124320608
 20
198.5703819828104031
 30
0.0
 40
0.3862835375971898
 50
253.3901461313020036
 51
357.0395587672426814
  0
ARC
  5
18C7F
  8
0
 10
3376.025531599183978
 20
173.0828754594413965
 30
0.0
 40
25.9936405569953983
 50
75.08037196658006
 51
90.2961375622731737
  0
ARC
  5
18C80
  8
0
 10
3376.0745272251069764
 20
173.6007449972084942
 30
0.0
 40
26.0894229324546814
 50
76.8313593826792101
 51
90.4026531423479867
  0
ARC
  5
18C81
  8
0
 10
3380.9172229565078851
 20
194.298625270102292
 30
0.0
 40
4.8325663977278941
 50
61.621107578442242
 51
76.8313810168672831
  0
ARC
  5
18C82
  8
0
 10
3381.2317795984881741
 20
196.3200091838533012
 30
0.0
 40
2.984048821547935
 50
14.5801134317375602
 51
48.3698361287548124
  0
ARC
  5
18C83
  8
0
 10
3371.4561976688728464
 20
194.0161856961865965
 30
0.0
 40
13.0268252453465898
 50
357.9914594913248038
 51
13.5631372805763899
  0
ARC
  5
18C84
  8
0
 10
3057.4268379030700089
 20
200.7259947133318008
 30
0.0
 40
327.1266880280978739
 50
358.1467816179844021
 51
358.744718329710679
  0
ARC
  5
18C85
  8
0
 10
3378.0096575956831657
 20
272.8114412588367941
 30
0.0
 40
68.2441039766608242
 50
274.4593708270961088
 51
274.6064447177074044
  0
ARC
  5
18C86
  8
0
 10
3383.4247705765560568
 20
203.8218684958781068
 30
0.0
 40
0.968135315840529
 50
68.7438650797374606
 51
86.1122085541018976
  0
ARC
  5
18C87
  8
0
 10
3383.2724857435200647
 20
203.3454412797721886
 30
0.0
 40
1.4676829242638989
 50
36.729294765800752
 51
69.9462588531451814
  0
ARC
  5
18C88
  8
0
 10
3379.5260385382889581
 20
201.0736146410179117
 30
0.0
 40
5.8440703171608588
 50
7.6931747768737777
 51
32.6109173558444425
  0
ARC
  5
18C89
  8
0
 10
3374.3735701903488007
 20
199.6893329968447972
 30
0.0
 40
11.1563428477620796
 50
2.6891335404290451
 51
11.1982797970717307
  0
ARC
  5
18C8A
  8
0
 10
3204.1005234510430455
 20
215.5934858011515871
 30
0.0
 40
182.0679338656997004
 50
352.4542719346439981
 51
355.1539928506163051
  0
ARC
  5
18C8B
  8
0
 10
3282.6833594956137858
 20
204.3728433041700043
 30
0.0
 40
102.695278747776797
 50
349.1078147725187932
 51
352.9029448548849928
  0
ARC
  5
18C8C
  8
0
 10
3370.8254846128461395
 20
187.7024719048957877
 30
0.0
 40
12.9941551039520196
 50
312.7924523975273132
 51
347.8491850178522782
  0
ARC
  5
18C8D
  8
0
 10
3375.8882716253770013
 20
182.5566602251136885
 30
0.0
 40
5.7828447980891582
 50
285.5266141330270102
 51
310.6182238798610911
  0
ARC
  5
18C8E
  8
0
 10
3375.8880510023727766
 20
182.5576834474329928
 30
0.0
 40
5.7838897371593632
 50
272.0923713653903064
 51
285.5260065859815768
  0
ARC
  5
18C8F
  8
0
 10
3375.8904161883178858
 20
182.0425662139087137
 30
0.0
 40
5.269055255168265
 50
270.0083285734128253
 51
272.271180215014283
  0
ARC
  5
18C90
  8
0
 10
3376.2455258996778866
 20
116.1412934963077959
 30
0.0
 40
82.1660551804486232
 50
89.2691071962841107
 51
90.2470906860265956
  0
ARC
  5
18C91
  8
0
 10
3377.1855152143921259
 20
189.8237866806665011
 30
0.0
 40
8.4775663794553644
 50
80.1667102270705385
 51
89.2691655949004286
  0
ARC
  5
18C92
  8
0
 10
3377.4002983632681207
 20
192.3331658416026073
 30
0.0
 40
5.9723128164288513
 50
55.6434088838478189
 51
78.0851288323454753
  0
ARC
  5
18C93
  8
0
 10
3375.8183279008530917
 20
189.7948284556852911
 30
0.0
 40
8.9614800604991434
 50
38.0837002624250829
 51
56.4522707223098479
  0
ARC
  5
18C94
  8
0
 10
3369.5635681469188967
 20
185.3336794268390975
 30
0.0
 40
16.6399674540191498
 50
26.4909189436727388
 51
36.8902018793339366
  0
LINE
  5
18C95
  8
0
 10
3375.8926821863028636
 20
195.2440960281082027
 30
0.0
 11
3378.0749822564271199
 21
195.2440960281082027
 31
0.0
  0
LINE
  5
18C96
  8
0
 10
3379.0817502660270293
 20
196.6668652954082006
 30
0.0
 11
3378.5896894726270148
 21
196.6668714356081864
 31
0.0
  0
ARC
  5
18C97
  8
0
 10
3379.1075409724071505
 20
196.0775102219506039
 30
0.0
 40
0.5899191157656594
 50
79.5404106946651268
 51
92.5057159984759068
  0
ARC
  5
18C98
  8
0
 10
3379.1573724593540646
 20
196.3474392149491905
 30
0.0
 40
0.3154289732238228
 50
68.336068652592374
 51
79.5404106946651268
  0
ARC
  5
18C99
  8
0
 10
3379.0686626819460798
 20
196.0478045441305142
 30
0.0
 40
0.6272800990223212
 50
56.7879309499772376
 51
70.9099729833789922
  0
ARC
  5
18C9A
  8
0
 10
3379.0942225083122139
 20
196.140519174375811
 30
0.0
 40
0.5365164477787764
 50
25.2757558905053408
 51
53.6467882671316119
  0
ARC
  5
18C9B
  8
0
 10
3379.1328072092310322
 20
196.1687712945197006
 30
0.0
 40
0.4896468225733228
 50
0.049735556654849
 51
24.2140644128782405
  0
ARC
  5
18C9C
  8
0
 10
3417.7916519561122186
 20
196.2164913129473121
 30
0.0
 40
38.1692274100863216
 50
180.0709944548858061
 51
181.2952916903892913
  0
ARC
  5
18C9D
  8
0
 10
3373.9650147804459266
 20
195.927720968321097
 30
0.0
 40
5.6961630579608489
 50
352.8877018960973828
 51
354.2159870584848136
  0
ARC
  5
18C9E
  8
0
 10
3379.6139737626222086
 20
195.2230218222753138
 30
0.0
 40
0.0034218099896379
 50
274.9657814084711731
 51
350.4404939019751737
  0
ARC
  5
18C9F
  8
0
 10
3379.5939249005728016
 20
195.4537684925151098
 30
0.0
 40
0.23503783425437
 50
270.4435136236094763
 51
274.9657814084711731
  0
LINE
  5
18CA0
  8
0
 10
3379.5957442569269915
 20
195.2187376999081891
 30
0.0
 11
3378.0992849023928102
 21
195.2187376992079919
 31
0.0
  0
ARC
  5
18CA1
  8
0
 10
3378.0985306342790864
 20
195.4157526803766132
 30
0.0
 40
0.1970162584673242
 50
265.1702041437891921
 51
270.2063160921071017
  0
ARC
  5
18CA2
  8
0
 10
3378.0829826110011709
 20
195.2317438508574128
 30
0.0
 40
0.012351723786569
 50
250.6141508200934993
 51
265.1702041437891921
  0
ARC
  5
18CA3
  8
0
 10
3378.0824076895951293
 20
195.223529856029387
 30
0.0
 40
0.0049235544825011
 50
183.2599433751663014
 51
224.2798110002061946
  0
ARC
  5
18CA4
  8
0
 10
3384.013109086870827
 20
195.9573253897837048
 30
0.0
 40
5.9808373871612668
 50
185.7928264915850889
 51
187.0501419750596881
  0
LINE
  5
18CA5
  8
0
 10
3378.062813722527153
 20
195.3536690896081893
 30
0.0
 11
3378.0725303270278346
 21
196.1691963320081982
 31
0.0
  0
ARC
  5
18CA6
  8
0
 10
3378.5735502962747887
 20
196.1646122141262936
 30
0.0
 40
0.5010409402323593
 50
125.481774575700797
 51
179.4757828089736051
  0
ARC
  5
18CA7
  8
0
 10
3378.6257798607921359
 20
196.0487773700118055
 30
0.0
 40
0.6261691630686484
 50
109.0857567447965977
 51
123.2206205021593064
  0
ARC
  5
18CA8
  8
0
 10
3378.5734441026879722
 20
196.2232056006872085
 30
0.0
 40
0.4442809123817425
 50
102.104571801691705
 51
110.0628519246936037
  0
ARC
  5
18CA9
  8
0
 10
3378.5802660643189483
 20
196.1273915829088139
 30
0.0
 40
0.5395621484988962
 50
88.9992830703944264
 51
100.6791945971695981
  0
LINE
  5
18CAA
  8
0
 10
3380.673393890826901
 20
195.1038929643081872
 30
0.0
 11
3380.8837924374402064
 21
194.8087373404123923
 31
0.0
  0
ARC
  5
18CAB
  8
0
 10
3380.5515537627989033
 20
195.0387373755852138
 30
0.0
 40
0.1384109353372931
 50
27.3921783442315494
 51
84.8903056731199968
  0
LINE
  5
18CAC
  8
0
 10
3380.5638810315272167
 20
195.1765982673082078
 30
0.0
 11
3380.2434437806819005
 21
195.1766419914561936
 31
0.0
  0
ARC
  5
18CAD
  8
0
 10
3380.2404306778139471
 20
194.9757856407867109
 30
0.0
 40
0.2008789496018813
 50
89.1405542885555349
 51
105.8561817403889052
  0
LINE
  5
18CAE
  8
0
 10
3380.1855458030281625
 20
195.1690212558081896
 30
0.0
 11
3380.176857158427083
 21
195.0524855578082111
 31
0.0
  0
ARC
  5
18CAF
  8
0
 10
3380.1747996089598018
 20
195.0527411441061076
 30
0.0
 40
0.0020733630126951
 50
304.5449210706428858
 51
352.9190576167421227
  0
ARC
  5
18CB0
  8
0
 10
3380.148882955415047
 20
195.1083653158526943
 30
0.0
 40
0.0634109604435214
 50
274.9674234516556908
 51
295.2931901304485223
  0
ARC
  5
18CB1
  8
0
 10
3380.1754866152541581
 20
194.8602335974269124
 30
0.0
 40
0.1861600387895522
 50
96.5120913166370542
 51
131.7874333802905937
  0
ARC
  5
18CB2
  8
0
 10
3379.1649424023257779
 20
195.7971248038554961
 30
0.0
 40
1.192816518980115
 50
293.7707658798626085
 51
318.0041292487218243
  0
ARC
  5
18CB3
  8
0
 10
3379.2614821896518151
 20
195.6151343989158988
 30
0.0
 40
0.9874659203064425
 50
269.9306517583876825
 51
292.9007653010078229
  0
LINE
  5
18CB4
  8
0
 10
3379.2602870054852247
 20
194.6276692019081906
 30
0.0
 11
3375.8911821036031142
 21
194.6276692019081906
 31
0.0
  0
ARC
  5
18CB5
  8
0
 10
3380.1580108747230042
 20
194.5712641768290041
 30
0.0
 40
0.4739423012047074
 50
71.8641369719216812
 51
90.4397131580222151
  0
ARC
  5
18CB6
  8
0
 10
3380.2171936133718191
 20
194.8336614114307963
 30
0.0
 40
0.2077217864278489
 50
38.6335922531603018
 51
64.8310065971293739
  0
ARC
  5
18CB7
  8
0
 10
3368.2797398714328665
 20
186.5768794089869118
 30
0.0
 40
14.71567826571982
 50
17.0179896150049004
 51
31.3022013014665106
  0
ARC
  5
18CB8
  8
0
 10
3371.3037996954572009
 20
187.553770448367402
 30
0.0
 40
11.5382289091235997
 50
353.8794640583909086
 51
16.7743781897822899
  0
ARC
  5
18CB9
  8
0
 10
3369.2768484885391445
 20
187.7474341589831965
 30
0.0
 40
13.5742950242792109
 50
329.2651788098006023
 51
353.9788860901504108
  0
ARC
  5
18CBA
  8
0
 10
3371.9054702749858734
 20
186.2110066856259891
 30
0.0
 40
10.5296943512050305
 50
314.912317917704911
 51
329.1412576654092277
  0
ARC
  5
18CBB
  8
0
 10
3376.0389683971711747
 20
182.1504626890875898
 30
0.0
 40
4.7361031710246992
 50
292.7313091218804857
 51
314.1809558042891126
  0
ARC
  5
18CBC
  8
0
 10
3376.0833673283282224
 20
182.6031732552538926
 30
0.0
 40
5.1410288555977921
 50
276.5360955836500807
 51
290.3246349932285852
  0
ARC
  5
18CBD
  8
0
 10
3375.8904391689361546
 20
182.1019581826255944
 30
0.0
 40
4.6716583795880346
 50
270.0091117580853961
 51
279.5880637470891088
  0
LINE
  5
18CBE
  8
0
 10
3380.4836211583638033
 20
194.8087375358192048
 30
0.0
 11
3381.0507133700889426
 21
194.8087375354591018
 31
0.0
  0
LINE
  5
18CBF
  8
0
 10
3381.0507133701271414
 20
194.8688896743082068
 30
0.0
 11
3381.0704015359278856
 21
194.8492015491081872
 31
0.0
  0
LINE
  5
18CC0
  8
0
 10
3381.0704015359278856
 20
194.8492015491081872
 30
0.0
 11
3381.0704015359278856
 21
194.416136634908213
 31
0.0
  0
LINE
  5
18CC1
  8
0
 10
3381.0704015359278856
 20
194.416136634908213
 30
0.0
 11
3381.0507133698270081
 21
194.3964487294082062
 31
0.0
  0
LINE
  5
18CC2
  8
0
 10
3381.0507133698270081
 20
194.3964487294082062
 30
0.0
 11
3381.0507133701271414
 21
194.8688896743082068
 31
0.0
  0
ARC
  5
18CC3
  8
0
 10
3380.1496757563350002
 20
193.8404483371780032
 30
0.0
 40
1.150842280300975
 50
21.4242801756167296
 51
36.8613425177241609
  0
ARC
  5
18CC4
  8
0
 10
3380.5705868478730736
 20
194.0752060121766931
 30
0.0
 40
0.6763756492614297
 50
4.7230525921345441
 51
15.9275392654930403
  0
LINE
  5
18CC5
  8
0
 10
3381.2446657545278867
 20
194.1308984400081954
 30
0.0
 11
3381.2912259291920236
 21
193.7415064258011057
 31
0.0
  0
ARC
  5
18CC6
  8
0
 10
3381.8458124378939829
 20
193.8174278694309862
 30
0.0
 40
0.5597591100078513
 50
187.7951872153392117
 51
197.3152566640569887
  0
ARC
  5
18CC7
  8
0
 10
3383.3137861886611972
 20
194.2765096619228018
 30
0.0
 40
2.0978431544645009
 50
197.3525435114771085
 51
209.0292363873836905
  0
ARC
  5
18CC8
  8
0
 10
3376.3390741258290291
 20
190.3568087095245005
 30
0.0
 40
5.902863918322784
 50
12.2949185894364792
 51
29.4442654119509015
  0
LINE
  5
18CC9
  8
0
 10
3381.2446834869501799
 20
194.1308984435837033
 30
0.0
 11
3381.2704053366278458
 21
194.1309036300081914
 31
0.0
  0
ARC
  5
18CCA
  8
0
 10
3381.2704243712069001
 20
194.0365024486982009
 30
0.0
 40
0.0944011832289949
 50
60.4942435948626311
 51
90.0115528329354504
  0
ARC
  5
18CCB
  8
0
 10
3381.0406629886301744
 20
193.8908085331119082
 30
0.0
 40
0.3580967659221315
 50
25.9276337089303688
 51
39.5154080033671278
  0
ARC
  5
18CCC
  8
0
 10
3368.5693963171088399
 20
186.8777238212445866
 30
0.0
 40
14.6653680973873204
 50
24.3663218908001902
 51
29.2672275948270908
  0
ARC
  5
18CCD
  8
0
 10
3368.3116650658589606
 20
186.7011944809621014
 30
0.0
 40
14.9730719128182592
 50
20.2554439560327992
 51
24.5747691652250495
  0
ARC
  5
18CCE
  8
0
 10
3369.3615732723487781
 20
187.083721262108611
 30
0.0
 40
13.85565928782772
 50
8.157529086492179
 51
20.2745237125784783
  0
ARC
  5
18CCF
  8
0
 10
3371.8687196473701988
 20
187.4816793889582129
 30
0.0
 40
11.3174770575924697
 50
353.2085353830249232
 51
7.9642420355154693
  0
ARC
  5
18CD0
  8
0
 10
3370.1675624925710508
 20
187.6759134144895995
 30
0.0
 40
13.0296694154058397
 50
343.6205355551269918
 51
353.2450376554028253
  0
ARC
  5
18CD1
  8
0
 10
3368.6632648857489585
 20
188.1930018738453043
 30
0.0
 40
14.6189097594383899
 50
322.8661889490940098
 51
343.3387602235766849
  0
ARC
  5
18CD2
  8
0
 10
3374.6686516680460954
 20
183.7336151173159067
 30
0.0
 40
7.139557067184656
 50
311.7976748711456025
 51
322.3030096468565944
  0
ARC
  5
18CD3
  8
0
 10
3375.9851992819239968
 20
182.2610164777863133
 30
0.0
 40
5.1642483893441478
 50
290.754161091662013
 51
311.7976748711456025
  0
ARC
  5
18CD4
  8
0
 10
3376.4184382267658293
 20
181.6697700906277078
 30
0.0
 40
4.462135909560982
 50
279.6128802017128123
 51
288.241607071777878
  0
ARC
  5
18CD5
  8
0
 10
3375.7896004551721489
 20
183.7810929724871869
 30
0.0
 40
6.6541989932783094
 50
270.874699692876618
 51
281.9162615209344267
  0
ARC
  5
18CD6
  8
0
 10
3363.3723430238201217
 20
191.2445310051220133
 30
0.0
 40
18.2073997840591701
 50
7.4914721231805856
 51
8.8553474763840079
  0
ARC
  5
18CD7
  8
0
 10
3382.6675582096950166
 20
193.9111560681471929
 30
0.0
 40
1.2772358806741571
 50
193.2512147707141139
 51
208.8616526559127067
  0
ARC
  5
18CD8
  8
0
 10
3369.962448757069069
 20
187.2651993108013073
 30
0.0
 40
13.0614559608375806
 50
6.7385879284462362
 51
27.491743944502911
  0
ARC
  5
18CD9
  8
0
 10
3370.7642639203249928
 20
187.4676988987951063
 30
0.0
 40
12.2418864031599206
 50
351.3570441153319734
 51
6.2377137763375652
  0
ARC
  5
18CDA
  8
0
 10
3369.2787294333588761
 20
187.6523468552167913
 30
0.0
 40
13.7383596738555198
 50
340.9566252575185104
 51
351.5267417327989961
  0
ARC
  5
18CDB
  8
0
 10
3370.0788401599429562
 20
187.3408291922046089
 30
0.0
 40
12.8804376728967203
 50
324.9619819898898072
 51
341.1052231477221994
  0
ARC
  5
18CDC
  8
0
 10
3373.9450936825837744
 20
184.5175496435307139
 30
0.0
 40
8.0944815388396112
 50
309.2943143614124892
 51
325.6126919209733046
  0
ARC
  5
18CDD
  8
0
 10
3376.3441672891199232
 20
181.6992024518322921
 30
0.0
 40
4.3945971764966743
 50
285.9608361276003734
 51
308.3584259267281027
  0
ARC
  5
18CDE
  8
0
 10
3369.679777066790848
 20
215.1028453550034953
 30
0.0
 40
38.4435942717980979
 50
280.3499074752954243
 51
281.8171359377668068
  0
ARC
  5
18CDF
  8
0
 10
3375.8885373737489317
 20
182.1293111353350866
 30
0.0
 40
4.8945643986367653
 50
270.0309592138499966
 51
278.1985458416003212
  0
ARC
  5
18CE0
  8
0
 10
3376.0215549251947778
 20
148.1911039118373026
 30
0.0
 40
46.1861701354143506
 50
87.8902888091600261
 51
90.1617328810456229
  0
ARC
  5
18CE1
  8
0
 10
3377.5068542540698218
 20
188.510802241285603
 30
0.0
 40
5.8391233107200353
 50
72.6484689822883496
 51
87.8902888091600261
  0
ARC
  5
18CE2
  8
0
 10
3378.5633419588361903
 20
191.8920797871384991
 30
0.0
 40
2.2966377267818401
 50
41.7496422457458607
 51
72.6484689822883496
  0
ARC
  5
18CE3
  8
0
 10
3375.5719610029491378
 20
189.4874661289817084
 30
0.0
 40
6.1327628806803594
 50
17.4446468012436213
 51
39.9004070514582665
  0
ARC
  5
18CE4
  8
0
 10
3371.3327660818208642
 20
188.0241244905988083
 30
0.0
 40
10.6164095974207093
 50
349.3575674477182815
 51
18.1203239830508096
  0
ARC
  5
18CE5
  8
0
 10
3370.1428722777559415
 20
188.1412823652285908
 30
0.0
 40
11.8079358448744696
 50
327.2327756990666217
 51
349.8651552991796052
  0
ARC
  5
18CE6
  8
0
 10
3373.3632314615028918
 20
186.0291841932647117
 30
0.0
 40
7.956955538614185
 50
307.8146917894321746
 51
327.4708835579937158
  0
ARC
  5
18CE7
  8
0
 10
3376.0490542749098495
 20
182.620390288052505
 30
0.0
 40
3.6174519334471649
 50
292.3657941575359018
 51
307.3105429026920206
  0
ARC
  5
18CE8
  8
0
 10
3275.0771506537330424
 20
547.6154703994844795
 30
0.0
 40
382.2955006878053723
 50
285.3968492306134976
 51
285.5286787918632854
  0
ARC
  5
18CE9
  8
0
 10
3375.8774516670550838
 20
181.9172910311550879
 30
0.0
 40
2.9607596592823708
 50
270.2657084584402014
 51
283.6824484115545033
  0
ARC
  5
18CEA
  8
0
 10
3375.6980032352148555
 20
187.6292512949638933
 30
0.0
 40
7.9042462195117178
 50
25.6188103730071717
 51
32.5824805242590827
  0
ARC
  5
18CEB
  8
0
 10
3379.365696462617052
 20
189.4859784086243053
 30
0.0
 40
3.795335079848738
 50
358.9060866349122989
 51
24.2849312737151202
  0
ARC
  5
18CEC
  8
0
 10
3334.4012689426440375
 20
186.6298952525218056
 30
0.0
 40
48.8384639874297122
 50
1.3955069926592969
 51
3.2674343575424531
  0
ARC
  5
18CED
  8
0
 10
3373.3285049086071012
 20
187.7981806739086039
 30
0.0
 40
9.8967651880034921
 50
352.957228012927601
 51
0.1222476955126
  0
ARC
  5
18CEE
  8
0
 10
3382.6936478166048801
 20
191.3646362775621981
 30
0.0
 40
0.0151235385483916
 50
42.1245539353763192
 51
125.7430946769430022
  0
ARC
  5
18CEF
  8
0
 10
3382.7049220759868149
 20
191.3671198534568987
 30
0.0
 40
0.0223658362208303
 50
154.0375539489822927
 51
193.8103827086866886
  0
ARC
  5
18CF0
  8
0
 10
3382.8352368692580967
 20
191.3894446478568909
 30
0.0
 40
0.1545303733641895
 50
190.312570896050488
 51
200.4023026686469962
  0
ARC
  5
18CF1
  8
0
 10
3383.3592729462898205
 20
191.5819801653402124
 30
0.0
 40
0.7128158385582855
 50
200.2233219718347073
 51
204.8696717752073084
  0
ARC
  5
18CF2
  8
0
 10
3383.5028405872199073
 20
191.5894117991344956
 30
0.0
 40
0.8478935347677143
 50
201.2428570304626021
 51
207.7009247203355073
  0
ARC
  5
18CF3
  8
0
 10
3382.3039821739580475
 20
190.8364720812878943
 30
0.0
 40
0.6711800083571728
 50
33.3706002856374511
 51
53.3246392045599222
  0
ARC
  5
18CF4
  8
0
 10
3379.4728570556221712
 20
189.3137459736659878
 30
0.0
 40
3.883632217138052
 50
20.9904656978363207
 51
29.15341011456659
  0
ARC
  5
18CF5
  8
0
 10
3377.4982317876410889
 20
188.945588019300601
 30
0.0
 40
5.870371973814791
 50
0.9670317998931889
 51
17.4393135783474591
  0
ARC
  5
18CF6
  8
0
 10
3370.5134210989131134
 20
187.8866809337943948
 30
0.0
 40
12.9063994742894597
 50
356.8250377369919875
 51
5.1475869444649032
  0
ARC
  5
18CF7
  8
0
 10
3369.9759082000559829
 20
187.9695799524120901
 30
0.0
 40
13.4477831496632199
 50
348.3054226778662041
 51
356.5992182680666929
  0
ARC
  5
18CF8
  8
0
 10
3369.3697456063669051
 20
188.0204978963544988
 30
0.0
 40
14.0518734582466909
 50
330.3509674566104763
 51
348.6030977041194774
  0
ARC
  5
18CF9
  8
0
 10
3371.6598044875881897
 20
186.6981579471749058
 30
0.0
 40
11.4075165660325002
 50
313.1442886799287066
 51
330.4330821889653862
  0
ARC
  5
18CFA
  8
0
 10
3375.8977809682860425
 20
182.5318516278973107
 30
0.0
 40
5.4749484327632434
 50
277.4570265774631252
 51
310.5994657820245948
  0
ARC
  5
18CFB
  8
0
 10
3375.8966553174541332
 20
182.5433826558646047
 30
0.0
 40
5.4865280398557763
 50
269.9428432509831168
 51
277.4530541091939995
  0
ARC
  5
18CFC
  8
0
 10
3367.6017889990139338
 20
186.2746898874794965
 30
0.0
 40
15.4522350825304997
 50
30.9535492619888188
 51
33.5239596375810365
  0
ARC
  5
18CFD
  8
0
 10
3370.4509391035489898
 20
188.1622150817678119
 30
0.0
 40
12.0345739411592394
 50
33.5239596375810365
 51
34.411535703367619
  0
LINE
  5
18CFE
  8
0
 10
3381.0507133698720281
 20
194.4662932223156133
 30
0.0
 11
3380.7040484931048923
 21
194.4662932223156133
 31
0.0
  0
LINE
  5
18CFF
  8
0
 10
3371.62793685898896
 20
195.0451972098748001
 30
0.0
 11
3371.6280370946828953
 21
195.1182714544860914
 31
0.0
  0
ARC
  5
18D00
  8
0
 10
3371.6873953830249775
 20
195.1181900329225982
 30
0.0
 40
0.0593583441848961
 50
89.3679889479682856
 51
179.9214076221416008
  0
LINE
  5
18D01
  8
0
 10
3371.6880501322771124
 20
195.177544765908209
 30
0.0
 11
3372.0786154569432256
 21
195.1774893059890132
 31
0.0
  0
ARC
  5
18D02
  8
0
 10
3372.0813089288340052
 20
194.9841249749308076
 30
0.0
 40
0.1933840529758668
 50
75.8618093351335432
 51
90.8182013719655856
  0
LINE
  5
18D03
  8
0
 10
3372.1285451938770166
 20
195.1716513123081995
 30
0.0
 11
3372.135387105333848
 21
194.9869999105081888
 31
0.0
  0
ARC
  5
18D04
  8
0
 10
3331.4924430441519689
 20
194.6666816586590016
 30
0.0
 40
40.6441987214046065
 50
0.0547223675096355
 51
0.4515545760443607
  0
ARC
  5
18D05
  8
0
 10
3405.9037617266158122
 20
194.6667039828097074
 30
0.0
 40
33.7437305855182004
 50
179.2655464414430071
 51
179.9503271318658051
  0
LINE
  5
18D06
  8
0
 10
3372.1628034432778804
 20
195.0992406287082019
 30
0.0
 11
3372.1680942500661331
 21
195.2196128558024952
 31
0.0
  0
LINE
  5
18D07
  8
0
 10
3372.1353795266768429
 20
194.9869999105081888
 30
0.0
 11
3372.1615513018859929
 21
194.9869999105081888
 31
0.0
  0
LINE
  5
18D08
  8
0
 10
3372.1355276174681421
 20
194.9676236320082126
 30
0.0
 11
3372.1613729375458206
 21
194.9676236320082126
 31
0.0
  0
LINE
  5
18D09
  8
0
 10
3372.1363833175478248
 20
194.8108698362082123
 30
0.0
 11
3372.1603391077601373
 21
194.8108698362082123
 31
0.0
  0
LINE
  5
18D0A
  8
0
 10
3372.1362740776771716
 20
194.8395649236082079
 30
0.0
 11
3372.1604739063218403
 21
194.8395649236082079
 31
0.0
  0
LINE
  5
18D0B
  8
0
 10
3372.3863876178411374
 20
195.2187376998147101
 30
0.0
 11
3372.3863876178411374
 21
195.207520809208205
 31
0.0
  0
LINE
  5
18D0C
  8
0
 10
3372.3863876178411374
 20
195.207520809208205
 30
0.0
 11
3372.4412872226262152
 21
195.2071908482803053
 31
0.0
  0
LINE
  5
18D0D
  8
0
 10
3372.4412872226262152
 20
195.2071908482803053
 30
0.0
 11
3372.4412872226262152
 21
195.218737694063293
 31
0.0
  0
LINE
  5
18D0E
  8
0
 10
3373.4313876178698592
 20
195.2187376993257999
 30
0.0
 11
3373.4313876178698592
 21
195.207520809208205
 31
0.0
  0
LINE
  5
18D0F
  8
0
 10
3373.4313876178698592
 20
195.207520809208205
 30
0.0
 11
3373.4862872226221953
 21
195.2071908479204865
 31
0.0
  0
LINE
  5
18D10
  8
0
 10
3373.4862872226221953
 20
195.2071908479204865
 30
0.0
 11
3373.4862872226221953
 21
195.2187376983926868
 31
0.0
  0
LINE
  5
18D11
  8
0
 10
3373.7016309794539666
 20
195.2195986725756995
 30
0.0
 11
3373.6982232680770721
 21
195.1716531372082102
 31
0.0
  0
LINE
  5
18D12
  8
0
 10
3373.6982232680770721
 20
195.1716531372082102
 30
0.0
 11
3372.1659862421729486
 21
195.1716531372082102
 31
0.0
  0
LINE
  5
18D13
  8
0
 10
3380.1544273482159042
 20
195.0451972098748001
 30
0.0
 11
3380.154327112521969
 21
195.1182714544860914
 31
0.0
  0
ARC
  5
18D14
  8
0
 10
3380.0949688241798867
 20
195.1181900329225982
 30
0.0
 40
0.0593583441848961
 50
0.0785923778583841
 51
90.6320110520317002
  0
LINE
  5
18D15
  8
0
 10
3380.0943140749268423
 20
195.177544765908209
 30
0.0
 11
3379.7037487502611839
 21
195.1774893059890132
 31
0.0
  0
ARC
  5
18D16
  8
0
 10
3379.701055278370859
 20
194.9841249749308076
 30
0.0
 40
0.1933840529758668
 50
89.1817986280344144
 51
104.1381906648664
  0
LINE
  5
18D17
  8
0
 10
3379.6538190133278476
 20
195.1716513123081995
 30
0.0
 11
3379.6469771018710162
 21
194.9869999105081888
 31
0.0
  0
LINE
  5
18D18
  8
0
 10
3379.6469846805271118
 20
194.9869999105081888
 30
0.0
 11
3379.6208129053188713
 21
194.9869999105081888
 31
0.0
  0
LINE
  5
18D19
  8
0
 10
3379.6468365897358126
 20
194.9676236320082126
 30
0.0
 11
3379.6209912696590436
 21
194.9676236320082126
 31
0.0
  0
LINE
  5
18D1A
  8
0
 10
3379.6459808896570394
 20
194.8108698362082123
 30
0.0
 11
3379.6220250994451817
 21
194.8108698362082123
 31
0.0
  0
LINE
  5
18D1B
  8
0
 10
3379.6460901295281474
 20
194.8395649236082079
 30
0.0
 11
3379.6218903008830239
 21
194.8395649236082079
 31
0.0
  0
LINE
  5
18D1C
  8
0
 10
3379.3959765893628173
 20
195.2187376998147101
 30
0.0
 11
3379.3959765893628173
 21
195.207520809208205
 31
0.0
  0
LINE
  5
18D1D
  8
0
 10
3379.3959765893628173
 20
195.207520809208205
 30
0.0
 11
3379.3410769845791037
 21
195.2071908482803053
 31
0.0
  0
LINE
  5
18D1E
  8
0
 10
3379.3410769845791037
 20
195.2071908482803053
 30
0.0
 11
3379.3410769845791037
 21
195.218737694063293
 31
0.0
  0
LINE
  5
18D1F
  8
0
 10
3378.350976589335005
 20
195.2187376993257999
 30
0.0
 11
3378.350976589335005
 21
195.207520809208205
 31
0.0
  0
LINE
  5
18D20
  8
0
 10
3378.350976589335005
 20
195.207520809208205
 30
0.0
 11
3378.2960769845831237
 21
195.2071908479204865
 31
0.0
  0
LINE
  5
18D21
  8
0
 10
3378.2960769845831237
 20
195.2071908479204865
 30
0.0
 11
3378.2960769845831237
 21
195.2187376983926868
 31
0.0
  0
LINE
  5
18D22
  8
0
 10
3378.0841409391268826
 20
195.1716531372082102
 30
0.0
 11
3379.6144141418280924
 21
195.1716531372082102
 31
0.0
  0
LINE
  5
18D23
  8
0
 10
3378.0803918115370834
 20
195.2196668959998078
 30
0.0
 11
3378.0841410096268191
 21
195.1716531372082102
 31
0.0
  0
LINE
  5
18D24
  8
0
 10
3379.6142699571391859
 20
195.2196128558024952
 30
0.0
 11
3379.6142699571391859
 21
195.1716531372082102
 31
0.0
  0
LINE
  5
18D25
  8
0
 10
3379.6142699571391859
 20
195.1716531372082102
 30
0.0
 11
3379.6210707761620142
 21
194.9869999105081888
 31
0.0
  0
LINE
  5
18D26
  8
0
 10
3379.6210707761620142
 20
194.9869999105081888
 30
0.0
 11
3379.6223204780581
 21
194.6959583149175899
 31
0.0
  0
LINE
  5
18D27
  8
0
 10
3379.6457410022271688
 20
194.7055052122082088
 30
0.0
 11
3379.646985051827869
 21
194.9869999105081888
 31
0.0
  0
ARC
  5
18D28
  8
0
 10
3367.1999917781781733
 20
202.8481277889081866
 30
0.0
 40
0.1300000000000227
 50
109.3635381377096962
 51
176.6841492936588054
  0
ARC
  5
18D29
  8
0
 10
3367.3034551321229628
 20
202.5537298230867975
 30
0.0
 40
0.4420493997582453
 50
94.8614774534591021
 51
109.3635381377096962
  0
ARC
  5
18D2A
  8
0
 10
3376.9763431918759125
 20
112.2795325739237029
 30
0.0
 40
91.2328876388614134
 50
95.7537258747111366
 51
96.1098354731204552
  0
ARC
  5
18D2B
  8
0
 10
3367.8391442783090497
 20
202.7465146165058059
 30
0.0
 40
0.3064110560380308
 50
73.0339169338118666
 51
91.7112398305112748
  0
ARC
  5
18D2C
  8
0
 10
3367.9154396310068478
 20
203.0151436243729961
 30
0.0
 40
0.0277431233856526
 50
22.5736343834958184
 51
61.7834495800405676
  0
ARC
  5
18D2D
  8
0
 10
3367.6458314495362174
 20
202.9093178784119971
 30
0.0
 40
0.3173717526941862
 50
2.0929358797198141
 51
21.5307332011996309
  0
ARC
  5
18D2E
  8
0
 10
3318.1035487719309458
 20
199.551046506152403
 30
0.0
 40
49.973192785557238
 50
1.81735874076982
 51
3.8665829943911469
  0
ARC
  5
18D2F
  8
0
 10
3367.324471867631928
 20
201.1527026101555862
 30
0.0
 40
0.727327764061053
 50
350.7819389839967812
 51
358.6742837478672072
  0
ARC
  5
18D30
  8
0
 10
3368.0116616682589665
 20
201.0411798363579976
 30
0.0
 40
0.0311473627567737
 50
303.9281100695160944
 51
350.7819389840000213
  0
ARC
  5
18D31
  8
0
 10
3367.920961088715103
 20
201.2943016044249021
 30
0.0
 40
0.2991729924837197
 50
272.1399173394606805
 51
291.1788941429692841
  0
ARC
  5
18D32
  8
0
 10
3368.3985789676557943
 20
427.7011892183402892
 30
0.0
 40
226.7063318258304889
 50
269.7281068547882228
 51
269.8821142282325241
  0
ARC
  5
18D33
  8
0
 10
3367.3087761096021495
 20
201.3514121286796978
 30
0.0
 40
0.3542783701274411
 50
246.8092772424375028
 51
272.2627584617181924
  0
ARC
  5
18D34
  8
0
 10
3367.2389965212910283
 20
201.1411408127468121
 30
0.0
 40
0.1348163458273841
 50
184.9201343669867015
 51
238.8525160340709022
  0
ARC
  5
18D35
  8
0
 10
3379.4771024059600677
 20
202.2399165159440884
 30
0.0
 40
12.4221480990826905
 50
177.1589295064997884
 51
185.1281571752844002
  0
ARC
  5
18D36
  8
0
 10
3377.2216515266850365
 20
202.1988704873458005
 30
0.0
 40
9.9774157705183342
 50
175.4249887061519928
 51
186.9172916066204095
  0
ARC
  5
18D37
  8
0
 10
3367.9701238165771429
 20
202.3144554285644858
 30
0.0
 40
0.0644138877199396
 50
26.0315728686686896
 51
65.3722414525823865
  0
ARC
  5
18D38
  8
0
 10
3367.4628268003889389
 20
202.0666840030114031
 30
0.0
 40
0.6289853552548055
 50
5.3456762026177609
 51
26.0315728686686896
  0
ARC
  5
18D39
  8
0
 10
3361.908096687132911
 20
201.5469205992035029
 30
0.0
 40
6.207979944520301
 50
2.3688070315042471
 51
5.3456762026177609
  0
ARC
  5
18D3A
  8
0
 10
3361.3007359636958427
 20
201.3639310956475867
 30
0.0
 40
6.824208005804917
 50
0.5007369142464297
 51
3.6932187913101289
  0
ARC
  5
18D3B
  8
0
 10
3367.5837061351940065
 20
201.406331974278288
 30
0.0
 40
0.5412518123493792
 50
339.3301757392983973
 51
1.8251486740540701
  0
ARC
  5
18D3C
  8
0
 10
3368.0204880768019393
 20
201.2415486638660127
 30
0.0
 40
0.074419932648964
 50
294.0131181156995126
 51
339.3301757392983973
  0
ARC
  5
18D3D
  8
0
 10
3367.5666898490158019
 20
201.5577069186593064
 30
0.0
 40
0.5186325220457788
 50
337.007691379861626
 51
355.7695421498153792
  0
ARC
  5
18D3E
  8
0
 10
3365.8423400534720713
 20
201.6852568782051947
 30
0.0
 40
2.2476933103278212
 50
355.7695421498153792
 51
4.9568577057523653
  0
ARC
  5
18D3F
  8
0
 10
3366.9851191637490047
 20
201.7843700816520993
 30
0.0
 40
1.100624209539447
 50
4.9568577057523653
 51
15.9254723633269197
  0
ARC
  5
18D40
  8
0
 10
3367.5547324571070931
 20
201.9469025166096969
 30
0.0
 40
0.5082762574162313
 50
15.9254723633269197
 51
26.9816407332473709
  0
LINE
  5
18D41
  8
0
 10
3368.0235058898852003
 20
202.1433617301248944
 30
0.0
 11
3368.0890765372769238
 21
202.1252830147082022
 31
0.0
  0
LINE
  5
18D42
  8
0
 10
3368.0434647530928487
 20
202.0864929772922949
 30
0.0
 11
3368.0923671838381779
 21
202.0889661832154047
 31
0.0
  0
LINE
  5
18D43
  8
0
 10
3368.0591528210748038
 20
202.0248391099113121
 30
0.0
 11
3368.0975030598310695
 21
202.0267786460981085
 31
0.0
  0
LINE
  5
18D44
  8
0
 10
3368.0839093067779686
 20
201.519448253808207
 30
0.0
 11
3368.123126196686826
 21
201.5214316203419003
 31
0.0
  0
LINE
  5
18D45
  8
0
 10
3368.0754872050320046
 20
201.4571835709473078
 30
0.0
 11
3368.1242726297750778
 21
201.4596508593629096
 31
0.0
  0
LINE
  5
18D46
  8
0
 10
3368.0603714305420908
 20
201.3987786675988048
 30
0.0
 11
3368.1246833580780731
 21
201.4235705558081975
 31
0.0
  0
ENDSEC
  0
EOF
