  0
SECTION
  2
HEADER
  9
$ACADVER
  1
AC1009
  9
$INSBASE
 10
2764.2684844079799404
 20
143.8397045616013088
 30
0.0
  9
$EXTMIN
 10
2762.4782561172451096
 20
141.8247036874022058
 30
-0.0000000000000058
  9
$EXTMAX
 10
2772.6324008059309563
 20
145.852802831250898
 30
0.0000000000000104
  9
$LIMMIN
 10
0.0
 20
0.0
  9
$LIMMAX
 10
11.6929133858000007
 20
8.2677165353999982
  9
$ORTHOMODE
 70
     1
  9
$REGENMODE
 70
     1
  9
$FILLMODE
 70
     1
  9
$QTEXTMODE
 70
     0
  9
$MIRRTEXT
 70
     0
  9
$DRAGMODE
 70
     2
  9
$LTSCALE
 40
0.6431102362
  9
$OSMODE
 70
  2039
  9
$ATTMODE
 70
     1
  9
$TEXTSIZE
 40
0.2
  9
$TRACEWID
 40
0.05
  9
$TEXTSTYLE
  7
STANDARD
  9
$CLAYER
  8
0
  9
$CELTYPE
  6
BYLAYER
  9
$CECOLOR
 62
   256
  9
$DIMSCALE
 40
1.0
  9
$DIMASZ
 40
0.1875
  9
$DIMEXO
 40
0.0625
  9
$DIMDLI
 40
0.4443307087
  9
$DIMRND
 40
0.0
  9
$DIMDLE
 40
0.0
  9
$DIMEXE
 40
0.125
  9
$DIMTP
 40
0.01
  9
$DIMTM
 40
0.01
  9
$DIMTXT
 40
2.0
  9
$DIMCEN
 40
0.1052362205
  9
$DIMTSZ
 40
0.0
  9
$DIMTOL
 70
     1
  9
$DIMLIM
 70
     0
  9
$DIMTIH
 70
     1
  9
$DIMTOH
 70
     1
  9
$DIMSE1
 70
     0
  9
$DIMSE2
 70
     0
  9
$DIMTAD
 70
     0
  9
$DIMZIN
 70
     0
  9
$DIMBLK
  1

  9
$DIMASO
 70
     1
  9
$DIMSHO
 70
     1
  9
$DIMPOST
  1
\X
  9
$DIMAPOST
  1

  9
$DIMALT
 70
     1
  9
$DIMALTD
 70
     2
  9
$DIMALTF
 40
25.3999999999999986
  9
$DIMLFAC
 40
1.0
  9
$DIMTOFL
 70
     0
  9
$DIMTVP
 40
0.0
  9
$DIMTIX
 70
     0
  9
$DIMSOXD
 70
     0
  9
$DIMSAH
 70
     0
  9
$DIMBLK1
  1

  9
$DIMBLK2
  1

  9
$DIMSTYLE
  2
STANDARD
  9
$DIMCLRD
 70
     0
  9
$DIMCLRE
 70
     0
  9
$DIMCLRT
 70
     0
  9
$DIMTFAC
 40
1.0
  9
$DIMGAP
 40
0.09
  9
$LUNITS
 70
     2
  9
$LUPREC
 70
     4
  9
$SKETCHINC
 40
0.1
  9
$FILLETRAD
 40
0.0
  9
$AUNITS
 70
     0
  9
$AUPREC
 70
     0
  9
$MENU
  1
.
  9
$ELEVATION
 40
0.0
  9
$PELEVATION
 40
0.0
  9
$THICKNESS
 40
0.0
  9
$LIMCHECK
 70
     0
  9
$BLIPMODE
 70
     0
  9
$CHAMFERA
 40
0.0
  9
$CHAMFERB
 40
0.0
  9
$SKPOLY
 70
     0
  9
$TDCREATE
 40
2458060.468368056230247
  9
$TDUPDATE
 40
2459321.5168055561371148
  9
$TDINDWG
 40
0.695597338
  9
$TDUSRTIMER
 40
0.695597338
  9
$USRTIMER
 70
     1
  9
$ANGBASE
 50
0.0
  9
$ANGDIR
 70
     0
  9
$PDMODE
 70
     0
  9
$PDSIZE
 40
0.3125
  9
$PLINEWID
 40
0.0
  9
$COORDS
 70
     1
  9
$SPLFRAME
 70
     0
  9
$SPLINETYPE
 70
     6
  9
$SPLINESEGS
 70
     8
  9
$ATTDIA
 70
     1
  9
$ATTREQ
 70
     1
  9
$HANDLING
 70
     1
  9
$HANDSEED
  5
3515A
  9
$SURFTAB1
 70
     6
  9
$SURFTAB2
 70
     6
  9
$SURFTYPE
 70
     6
  9
$SURFU
 70
     6
  9
$SURFV
 70
     6
  9
$UCSNAME
  2

  9
$UCSORG
 10
0.0
 20
0.0
 30
0.0
  9
$UCSXDIR
 10
1.0
 20
0.0
 30
0.0
  9
$UCSYDIR
 10
0.0
 20
1.0
 30
0.0
  9
$PUCSNAME
  2

  9
$PUCSORG
 10
0.0
 20
0.0
 30
0.0
  9
$PUCSXDIR
 10
1.0
 20
0.0
 30
0.0
  9
$PUCSYDIR
 10
0.0
 20
1.0
 30
0.0
  9
$USERI1
 70
     0
  9
$USERI2
 70
     0
  9
$USERI3
 70
     0
  9
$USERI4
 70
     0
  9
$USERI5
 70
     0
  9
$USERR1
 40
0.0
  9
$USERR2
 40
0.0
  9
$USERR3
 40
0.0
  9
$USERR4
 40
0.0
  9
$USERR5
 40
0.0
  9
$WORLDVIEW
 70
     1
  9
$SHADEDGE
 70
     3
  9
$SHADEDIF
 70
    70
  9
$TILEMODE
 70
     1
  9
$MAXACTVP
 70
    64
  9
$PLIMCHECK
 70
     0
  9
$PEXTMIN
 10
1.0000000000000000E+20
 20
1.0000000000000000E+20
 30
1.0000000000000000E+20
  9
$PEXTMAX
 10
-1.0000000000000000E+20
 20
-1.0000000000000000E+20
 30
-1.0000000000000000E+20
  9
$PLIMMIN
 10
0.0
 20
0.0
  9
$PLIMMAX
 10
12.0
 20
9.0
  9
$UNITMODE
 70
     0
  9
$VISRETAIN
 70
     1
  9
$PLINEGEN
 70
     0
  9
$PSLTSCALE
 70
     1
  0
ENDSEC
  0
SECTION
  2
TABLES
  0
TABLE
  2
VPORT
 70
     1
  0
VPORT
  2
*ACTIVE
 70
     0
 10
0.0
 20
0.0
 11
1.0
 21
1.0
 12
-536.137786772786967
 22
-51.422758316561179
 13
0.0
 23
0.0
 14
1.0
 24
1.0
 15
0.0
 25
0.0
 16
0.0
 26
0.0
 36
96.5995694866707311
 17
3303.693115234375
 27
195.2615115758877096
 37
0.0
 40
4.0616200798585282
 41
2.6486111111111108
 42
50.0
 43
0.0
 44
0.0
 50
0.0
 51
0.0
 71
     0
 72
   100
 73
     1
 74
     1
 75
     0
 76
     0
 77
     0
 78
     0
  0
ENDTAB
  0
TABLE
  2
LTYPE
 70
     2
  0
LTYPE
  2
CONTINUOUS
 70
     0
  3
Solid line
 72
    65
 73
     0
 40
0.0
  0
LTYPE
  2
PHANTOM2
 70
     0
  3
___ _ _ ___ _ _ ___ _ _ ___ _ _
 72
    65
 73
     6
 40
1.25
 49
0.625
 49
-0.125
 49
0.125
 49
-0.125
 49
0.125
 49
-0.125
  0
ENDTAB
  0
TABLE
  2
LAYER
 70
     2
  0
LAYER
  2
0
 70
     0
 62
   255
  6
CONTINUOUS
  0
LAYER
  2
DEFPOINTS
 70
     0
 62
     7
  6
CONTINUOUS
  0
ENDTAB
  0
TABLE
  2
STYLE
 70
     1
  0
STYLE
  2
STANDARD
 70
     0
 40
0.0
 41
0.8
 50
0.0
 71
     0
 42
0.2
  3
txt
  4

  0
ENDTAB
  0
TABLE
  2
VIEW
 70
     0
  0
ENDTAB
  0
TABLE
  2
UCS
 70
     0
  0
ENDTAB
  0
TABLE
  2
APPID
 70
    10
  0
APPID
  2
ACAD
 70
     0
  0
APPID
  2
ACAD_MLEADERVER
 70
     0
  0
APPID
  2
ACAD_EXEMPT_FROM_CAD_STANDARDS
 70
     0
  0
APPID
  2
ACAD_NAV_VCDISPLAY
 70
     0
  0
APPID
  2
ACAECLAYERSTANDARD
 70
     0
  0
APPID
  2
ACCMTRANSPARENCY
 70
     0
  0
APPID
  2
ACAD_DSTYLE_DIMJAG
 70
     0
  0
APPID
  2
ACAD_DSTYLE_DIMTALN
 70
     0
  0
APPID
  2
ACDBATTR
 70
     0
  0
APPID
  2
ACAD_DSTYLE_DIMRADIAL_EXTENSION
 70
     0
  0
ENDTAB
  0
TABLE
  2
DIMSTYLE
 70
     1
  0
DIMSTYLE
  2
STANDARD
 70
     0
  3

  4

  5

  6

  7

 40
1.0
 41
0.1875
 42
0.0625
 43
0.38
 44
0.125
 45
0.0
 46
0.0
 47
0.01
 48
0.01
140
0.15625
141
0.09
142
0.0
143
25.3999999999999986
144
1.0
145
0.0
146
1.0
147
0.09
 71
     1
 72
     0
 73
     1
 74
     1
 75
     0
 76
     0
 77
     0
 78
     4
170
     0
171
     2
172
     0
173
     0
174
     0
175
     0
176
     0
177
     0
178
     0
  0
ENDTAB
  0
ENDSEC
  0
SECTION
  2
BLOCKS
  0
BLOCK
  8
0
  2
$MODEL_SPACE
 70
     0
 10
0.0
 20
0.0
 30
0.0
  3
$MODEL_SPACE
  1

  0
ENDBLK
  5
21
  8
0
  0
BLOCK
 67
     1
  8
0
  2
$PAPER_SPACE
 70
     0
 10
0.0
 20
0.0
 30
0.0
  3
$PAPER_SPACE
  1

  0
ENDBLK
  5
1D
 67
     1
  8
0
  0
BLOCK
  8
0
  2
_FILLED
 70
     0
 10
0.0
 20
0.0
 30
0.0
  3
_FILLED
  1

  0
SOLID
  5
27E58
  8
0
  6
BYBLOCK
 62
     0
 10
0.0
 20
0.0
 30
0.0
 11
-1.0
 21
0.1666666667
 31
0.0
 12
-1.0
 22
-0.1666666667
 32
0.0
 13
-1.0
 23
-0.1666666667
 33
0.0
  0
ENDBLK
  5
27E59
  8
0
  6
BYBLOCK
 62
     0
  0
ENDSEC
  0
SECTION
  2
ENTITIES
  0
ATTDEF
  5
34E41
  8
DEFPOINTS
 10
2764.2690711441609892
 20
143.8441169935987887
 30
0.0
 40
0.001
  1
K-5548-K1
  3

  2
MODELNUMBER
 70
     0
1001
ACDBATTR
1070
     0
1070
     1
  0
ATTDEF
  5
34E42
  8
DEFPOINTS
 10
2764.2690711441609892
 20
143.8424503269320951
 30
0.0
 40
0.001
  1
INVIGORATION
  3

  2
TRADENAME
 70
     0
1001
ACDBATTR
1070
     0
1070
     1
  0
ATTDEF
  5
34E43
  8
DEFPOINTS
 10
2764.2690711441609892
 20
143.8407836602654015
 30
0.0
 40
0.001
  1
STEAM ADAPTER KIT
  3

  2
PRODUCT
 70
     0
1001
ACDBATTR
1070
     0
1070
     1
  0
LINE
  5
34FF4
  8
0
 10
2762.9377757464258138
 20
145.8436415695618109
 30
0.0
 11
2765.5991930692298411
 21
145.8436415695618109
 31
0.0
  0
ARC
  5
34FF5
  8
0
 10
2765.5991930692298411
 20
145.5483659789618116
 30
0.0
 40
0.2952755905999993
 50
0.0
 51
90.0
  0
LINE
  5
34FF6
  8
0
 10
2765.8944686598301814
 20
145.5483659789618116
 30
0.0
 11
2765.8944686598301814
 21
142.1310431442618096
 31
0.0
  0
ARC
  5
34FF7
  8
0
 10
2765.5991930692298411
 20
142.1310431442618096
 30
0.0
 40
0.2952755906000006
 50
270.0000000009118821
 51
0.0
  0
LINE
  5
34FF8
  8
0
 10
2765.5991930692348433
 20
141.8357675536618103
 30
0.0
 11
2762.9377757464258138
 21
141.8357675536198883
 31
0.0
  0
ARC
  5
34FF9
  8
0
 10
2762.9377757464208116
 20
142.1310431442099969
 30
0.0
 40
0.295275590590198
 50
179.9999999899671081
 51
270.0000000009118821
  0
LINE
  5
34FFA
  8
0
 10
2762.6425001558309305
 20
142.1310431442618096
 30
0.0
 11
2762.6425001564289232
 21
145.5483659789618116
 31
0.0
  0
ARC
  5
34FFB
  8
0
 10
2762.9377757470801953
 20
145.5483659789099988
 30
0.0
 40
0.2952755906517006
 50
90.0000001270447001
 51
179.9999999899671081
  0
CIRCLE
  5
34FFC
  8
0
 10
2763.6523426755311448
 20
144.758995900161807
 30
0.0
 40
0.0610236219999996
  0
CIRCLE
  5
34FFD
  8
0
 10
2763.6523426755311448
 20
144.2078147978618006
 30
0.0
 40
0.0610236219999996
  0
CIRCLE
  5
34FFE
  8
0
 10
2763.6523426755311448
 20
143.6566336954616929
 30
0.0
 40
0.0610236219999996
  0
CIRCLE
  5
34FFF
  8
0
 10
2769.2684844198311112
 20
143.8397044212618141
 30
0.0
 40
1.4900000120000061
  0
CIRCLE
  5
35000
  8
0
 10
2769.2684844078307833
 20
143.8397045615618026
 30
0.0
 40
1.0264994614967711
  0
CIRCLE
  5
35001
  8
0
 10
2772.2684844078307833
 20
143.8397045615618026
 30
0.0
 40
0.3464566929000004
  0
CIRCLE
  5
35002
  8
0
 10
2772.2684844078307833
 20
143.8397045615618026
 30
0.0
 40
0.0472023888000006
  0
CIRCLE
  5
35003
  8
0
 10
2772.2684844078307833
 20
143.8397045615618026
 30
0.0
 40
0.1248022505000005
  0
CIRCLE
  5
35004
  8
0
 10
2772.2684844078307833
 20
143.8397045615618026
 30
0.0
 40
0.1968372251000003
  0
ARC
  5
35005
  8
0
 10
2763.014547399860021
 20
145.471594325532493
 30
0.0
 40
0.2322834644292895
 50
89.9999999825691361
 51
180.0000000421082973
  0
LINE
  5
35006
  8
0
 10
2763.0145473999309615
 20
145.7038777899618083
 30
0.0
 11
2765.5224214157301503
 21
145.7038777891982875
 31
0.0
  0
ARC
  5
35007
  8
0
 10
2765.5224214156601192
 20
145.4715943245275867
 30
0.0
 40
0.2322834646707106
 50
0.000000205753899
 51
89.9999999825691361
  0
ARC
  5
35008
  8
0
 10
-454427196.6801698803901672
 20
143.8397045616117964
 30
0.0
 40
454429962.4348747730255127
 50
359.9999997942460936
 51
0.000000205753899
  0
ARC
  5
35009
  8
0
 10
2765.5224214148970532
 20
142.2078147986958925
 30
0.0
 40
0.2322834654341461
 50
270.0000002102647159
 51
359.9999997942460936
  0
LINE
  5
3500A
  8
0
 10
2765.522421415748795
 20
141.975531333261813
 30
0.0
 11
2763.0145473999309615
 21
141.9755313240588066
 31
0.0
  0
ARC
  5
3500B
  8
0
 10
2763.0145473990778555
 20
142.2078147877064964
 30
0.0
 40
0.2322834636476108
 50
179.9999974950607111
 51
270.0000002102647159
  0
LINE
  5
3500C
  8
0
 10
2762.7822639354299099
 20
142.2078147978616869
 30
0.0
 11
2762.7822639354299099
 21
145.4715943253617922
 31
0.0
  0
CIRCLE
  5
3500D
  8
0
 10
2772.2684844078307833
 20
143.8397045615618026
 30
0.0
 40
0.0807086614000001
  0
CIRCLE
  5
35010
  8
0
 10
2769.2684844198311112
 20
143.8397044212618141
 30
0.0
 40
1.3063807458487211
  0
ENDSEC
  0
EOF
