  0
SECTION
  2
HEADER
  9
$ACADVER
  1
AC1009
  9
$INSBASE
 10
2775.2466284100169105
 20
143.8397470170530994
 30
0.0
  9
$EXTMIN
 10
2774.1482032097269439
 20
141.835810009092711
 30
0.0
  9
$EXTMAX
 10
2775.2579395341849704
 20
145.8436840250136015
 30
0.0
  9
$LIMMIN
 10
0.0
 20
0.0
  9
$LIMMAX
 10
11.6929133858000007
 20
8.2677165353999982
  9
$ORTHOMODE
 70
     1
  9
$REGENMODE
 70
     1
  9
$FILLMODE
 70
     1
  9
$QTEXTMODE
 70
     0
  9
$MIRRTEXT
 70
     0
  9
$DRAGMODE
 70
     2
  9
$LTSCALE
 40
0.6431102362
  9
$OSMODE
 70
  2039
  9
$ATTMODE
 70
     1
  9
$TEXTSIZE
 40
0.2
  9
$TRACEWID
 40
0.05
  9
$TEXTSTYLE
  7
STANDARD
  9
$CLAYER
  8
0
  9
$CELTYPE
  6
BYLAYER
  9
$CECOLOR
 62
   256
  9
$DIMSCALE
 40
1.0
  9
$DIMASZ
 40
0.1875
  9
$DIMEXO
 40
0.0625
  9
$DIMDLI
 40
0.4443307087
  9
$DIMRND
 40
0.0
  9
$DIMDLE
 40
0.0
  9
$DIMEXE
 40
0.125
  9
$DIMTP
 40
0.01
  9
$DIMTM
 40
0.01
  9
$DIMTXT
 40
2.0
  9
$DIMCEN
 40
0.1052362205
  9
$DIMTSZ
 40
0.0
  9
$DIMTOL
 70
     1
  9
$DIMLIM
 70
     0
  9
$DIMTIH
 70
     1
  9
$DIMTOH
 70
     1
  9
$DIMSE1
 70
     0
  9
$DIMSE2
 70
     0
  9
$DIMTAD
 70
     0
  9
$DIMZIN
 70
     0
  9
$DIMBLK
  1

  9
$DIMASO
 70
     1
  9
$DIMSHO
 70
     1
  9
$DIMPOST
  1
\X
  9
$DIMAPOST
  1

  9
$DIMALT
 70
     1
  9
$DIMALTD
 70
     2
  9
$DIMALTF
 40
25.3999999999999986
  9
$DIMLFAC
 40
1.0
  9
$DIMTOFL
 70
     0
  9
$DIMTVP
 40
0.0
  9
$DIMTIX
 70
     0
  9
$DIMSOXD
 70
     0
  9
$DIMSAH
 70
     0
  9
$DIMBLK1
  1

  9
$DIMBLK2
  1

  9
$DIMSTYLE
  2
STANDARD
  9
$DIMCLRD
 70
     0
  9
$DIMCLRE
 70
     0
  9
$DIMCLRT
 70
     0
  9
$DIMTFAC
 40
1.0
  9
$DIMGAP
 40
0.09
  9
$LUNITS
 70
     2
  9
$LUPREC
 70
     4
  9
$SKETCHINC
 40
0.1
  9
$FILLETRAD
 40
0.0
  9
$AUNITS
 70
     0
  9
$AUPREC
 70
     0
  9
$MENU
  1
.
  9
$ELEVATION
 40
0.0
  9
$PELEVATION
 40
0.0
  9
$THICKNESS
 40
0.0
  9
$LIMCHECK
 70
     0
  9
$BLIPMODE
 70
     0
  9
$CHAMFERA
 40
0.0
  9
$CHAMFERB
 40
0.0
  9
$SKPOLY
 70
     0
  9
$TDCREATE
 40
2458060.468368056230247
  9
$TDUPDATE
 40
2459321.5162268518470228
  9
$TDINDWG
 40
0.6945788194
  9
$TDUSRTIMER
 40
0.6945788194
  9
$USRTIMER
 70
     1
  9
$ANGBASE
 50
0.0
  9
$ANGDIR
 70
     0
  9
$PDMODE
 70
     0
  9
$PDSIZE
 40
0.3125
  9
$PLINEWID
 40
0.0
  9
$COORDS
 70
     1
  9
$SPLFRAME
 70
     0
  9
$SPLINETYPE
 70
     6
  9
$SPLINESEGS
 70
     8
  9
$ATTDIA
 70
     1
  9
$ATTREQ
 70
     1
  9
$HANDLING
 70
     1
  9
$HANDSEED
  5
352DF
  9
$SURFTAB1
 70
     6
  9
$SURFTAB2
 70
     6
  9
$SURFTYPE
 70
     6
  9
$SURFU
 70
     6
  9
$SURFV
 70
     6
  9
$UCSNAME
  2

  9
$UCSORG
 10
0.0
 20
0.0
 30
0.0
  9
$UCSXDIR
 10
1.0
 20
0.0
 30
0.0
  9
$UCSYDIR
 10
0.0
 20
1.0
 30
0.0
  9
$PUCSNAME
  2

  9
$PUCSORG
 10
0.0
 20
0.0
 30
0.0
  9
$PUCSXDIR
 10
1.0
 20
0.0
 30
0.0
  9
$PUCSYDIR
 10
0.0
 20
1.0
 30
0.0
  9
$USERI1
 70
     0
  9
$USERI2
 70
     0
  9
$USERI3
 70
     0
  9
$USERI4
 70
     0
  9
$USERI5
 70
     0
  9
$USERR1
 40
0.0
  9
$USERR2
 40
0.0
  9
$USERR3
 40
0.0
  9
$USERR4
 40
0.0
  9
$USERR5
 40
0.0
  9
$WORLDVIEW
 70
     1
  9
$SHADEDGE
 70
     3
  9
$SHADEDIF
 70
    70
  9
$TILEMODE
 70
     1
  9
$MAXACTVP
 70
    64
  9
$PLIMCHECK
 70
     0
  9
$PEXTMIN
 10
1.0000000000000000E+20
 20
1.0000000000000000E+20
 30
1.0000000000000000E+20
  9
$PEXTMAX
 10
-1.0000000000000000E+20
 20
-1.0000000000000000E+20
 30
-1.0000000000000000E+20
  9
$PLIMMIN
 10
0.0
 20
0.0
  9
$PLIMMAX
 10
12.0
 20
9.0
  9
$UNITMODE
 70
     0
  9
$VISRETAIN
 70
     1
  9
$PLINEGEN
 70
     0
  9
$PSLTSCALE
 70
     1
  0
ENDSEC
  0
SECTION
  2
TABLES
  0
TABLE
  2
VPORT
 70
     1
  0
VPORT
  2
*ACTIVE
 70
     0
 10
0.0
 20
0.0
 11
1.0
 21
1.0
 12
-528.9900438624190429
 22
-51.4217645588346102
 13
0.0
 23
0.0
 14
1.0
 24
1.0
 15
0.0
 25
0.0
 16
0.0
 26
0.0
 36
96.5995694866707311
 17
3303.693115234375
 27
195.2615115758877096
 37
0.0
 40
4.0412266429605088
 41
2.6486111111111108
 42
50.0
 43
0.0
 44
0.0
 50
0.0
 51
0.0
 71
     0
 72
   100
 73
     1
 74
     1
 75
     0
 76
     0
 77
     0
 78
     0
  0
ENDTAB
  0
TABLE
  2
LTYPE
 70
     2
  0
LTYPE
  2
CONTINUOUS
 70
     0
  3
Solid line
 72
    65
 73
     0
 40
0.0
  0
LTYPE
  2
PHANTOM2
 70
     0
  3
___ _ _ ___ _ _ ___ _ _ ___ _ _
 72
    65
 73
     6
 40
1.25
 49
0.625
 49
-0.125
 49
0.125
 49
-0.125
 49
0.125
 49
-0.125
  0
ENDTAB
  0
TABLE
  2
LAYER
 70
     2
  0
LAYER
  2
0
 70
     0
 62
   255
  6
CONTINUOUS
  0
LAYER
  2
DEFPOINTS
 70
     0
 62
     7
  6
CONTINUOUS
  0
ENDTAB
  0
TABLE
  2
STYLE
 70
     1
  0
STYLE
  2
STANDARD
 70
     0
 40
0.0
 41
0.8
 50
0.0
 71
     0
 42
0.2
  3
txt
  4

  0
ENDTAB
  0
TABLE
  2
VIEW
 70
     0
  0
ENDTAB
  0
TABLE
  2
UCS
 70
     0
  0
ENDTAB
  0
TABLE
  2
APPID
 70
    10
  0
APPID
  2
ACAD
 70
     0
  0
APPID
  2
ACAD_MLEADERVER
 70
     0
  0
APPID
  2
ACAD_EXEMPT_FROM_CAD_STANDARDS
 70
     0
  0
APPID
  2
ACAD_NAV_VCDISPLAY
 70
     0
  0
APPID
  2
ACAECLAYERSTANDARD
 70
     0
  0
APPID
  2
ACCMTRANSPARENCY
 70
     0
  0
APPID
  2
ACAD_DSTYLE_DIMJAG
 70
     0
  0
APPID
  2
ACAD_DSTYLE_DIMTALN
 70
     0
  0
APPID
  2
ACDBATTR
 70
     0
  0
APPID
  2
ACAD_DSTYLE_DIMRADIAL_EXTENSION
 70
     0
  0
ENDTAB
  0
TABLE
  2
DIMSTYLE
 70
     1
  0
DIMSTYLE
  2
STANDARD
 70
     0
  3

  4

  5

  6

  7

 40
1.0
 41
0.1875
 42
0.0625
 43
0.38
 44
0.125
 45
0.0
 46
0.0
 47
0.01
 48
0.01
140
0.15625
141
0.09
142
0.0
143
25.3999999999999986
144
1.0
145
0.0
146
1.0
147
0.09
 71
     1
 72
     0
 73
     1
 74
     1
 75
     0
 76
     0
 77
     0
 78
     4
170
     0
171
     2
172
     0
173
     0
174
     0
175
     0
176
     0
177
     0
178
     0
  0
ENDTAB
  0
ENDSEC
  0
SECTION
  2
BLOCKS
  0
BLOCK
  8
0
  2
$MODEL_SPACE
 70
     0
 10
0.0
 20
0.0
 30
0.0
  3
$MODEL_SPACE
  1

  0
ENDBLK
  5
21
  8
0
  0
BLOCK
 67
     1
  8
0
  2
$PAPER_SPACE
 70
     0
 10
0.0
 20
0.0
 30
0.0
  3
$PAPER_SPACE
  1

  0
ENDBLK
  5
1D
 67
     1
  8
0
  0
BLOCK
  8
0
  2
_FILLED
 70
     0
 10
0.0
 20
0.0
 30
0.0
  3
_FILLED
  1

  0
SOLID
  5
27E58
  8
0
  6
BYBLOCK
 62
     0
 10
0.0
 20
0.0
 30
0.0
 11
-1.0
 21
0.1666666667
 31
0.0
 12
-1.0
 22
-0.1666666667
 32
0.0
 13
-1.0
 23
-0.1666666667
 33
0.0
  0
ENDBLK
  5
27E59
  8
0
  6
BYBLOCK
 62
     0
  0
ENDSEC
  0
SECTION
  2
ENTITIES
  0
ATTDEF
  5
34A0D
  8
DEFPOINTS
 10
2775.2472728675161306
 20
143.8441169935987887
 30
0.0
 40
0.001
  1
K-5548-K1
  3

  2
MODELNUMBER
 70
     0
1001
ACDBATTR
1070
     0
1070
     1
  0
ATTDEF
  5
34A0E
  8
DEFPOINTS
 10
2775.2472728675161306
 20
143.8424503269320951
 30
0.0
 40
0.001
  1
INVIGORATION
  3

  2
TRADENAME
 70
     0
1001
ACDBATTR
1070
     0
1070
     1
  0
ATTDEF
  5
34A0F
  8
DEFPOINTS
 10
2775.2472728675161306
 20
143.8407836602654015
 30
0.0
 40
0.001
  1
STEAM ADAPTER KIT
  3

  2
PRODUCT
 70
     0
1001
ACDBATTR
1070
     0
1070
     1
  0
LINE
  5
35159
  8
0
 10
2775.2466284100169105
 20
145.8436840250136015
 30
0.0
 11
2774.2062276765668685
 21
145.8255237626136136
 31
0.0
  0
ARC
  5
3515A
  8
0
 10
2774.2072583304880027
 20
145.7664776388726864
 30
0.0
 40
0.0590551181214496
 50
90.999999997864947
 51
179.999999960760988
  0
LINE
  5
3515B
  8
0
 10
2774.1482032123658428
 20
145.7664776389131021
 30
0.0
 11
2774.1482032097269439
 21
141.9130163952141004
 31
0.0
  0
ARC
  5
3515C
  8
0
 10
2774.2072583277199556
 20
141.9130163951737131
 30
0.0
 40
0.0590551179922656
 50
179.999999960760988
 51
269.0000026860632261
  0
LINE
  5
3515D
  8
0
 10
2774.2062276765668685
 20
141.8539702715135888
 30
0.0
 11
2775.2466284100169105
 21
141.835810009092711
 31
0.0
  0
LINE
  5
3515E
  8
0
 10
2775.2466284100169105
 20
141.835810009092711
 30
0.0
 11
2775.2466284100169105
 21
145.8436840250136015
 31
0.0
  0
LINE
  5
3515F
  8
0
 10
2775.2466284100169105
 20
145.3297468887136006
 30
0.0
 11
2775.0779420937938085
 21
145.3297468887136006
 31
0.0
  0
ARC
  5
35160
  8
0
 10
2775.0704815946228337
 20
145.3292976379194954
 30
0.0
 40
0.007474013255189
 50
345.1298067593867813
 51
3.4460334448218508
  0
ARC
  5
35161
  8
0
 10
2775.0674128862829093
 20
145.3307308009750045
 30
0.0
 40
0.0108242538887604
 50
313.9428626850257729
 51
341.9647052819329929
  0
ARC
  5
35162
  8
0
 10
2775.0424178480070623
 20
145.3606256138245953
 30
0.0
 40
0.0497704757787284
 50
293.0523380255128814
 51
310.7777612076699256
  0
ARC
  5
35163
  8
0
 10
2774.995297905471034
 20
145.481173024494808
 30
0.0
 40
0.1791839946352987
 50
278.9146905829562115
 51
291.8225543933027097
  0
ARC
  5
35164
  8
0
 10
2774.944857154770034
 20
145.8837404658524122
 30
0.0
 40
0.5848396837916264
 50
271.5760129289542988
 51
277.6849069507355239
  0
ARC
  5
35165
  8
0
 10
2774.9279744429618404
 20
248.3824797388890886
 30
0.0
 40
103.0833629936549016
 50
269.9450281062361796
 51
270.018324070817016
  0
ARC
  5
35166
  8
0
 10
2774.8338529305788143
 20
145.6775673897572005
 30
0.0
 40
0.3784333988909521
 50
262.3304889423940267
 51
269.2761508997418787
  0
ARC
  5
35167
  8
0
 10
2774.8077968302668523
 20
145.5081454229818121
 30
0.0
 40
0.2070745187658386
 50
250.2317753576521113
 51
263.2193005940471835
  0
ARC
  5
35168
  8
0
 10
2774.756712308861097
 20
145.3660054204603966
 30
0.0
 40
0.056033436129217
 50
230.9218564340438036
 51
250.2317753576521113
  0
ARC
  5
35169
  8
0
 10
2774.7274793488500109
 20
145.3300062219942959
 30
0.0
 40
0.0096598634697337
 50
193.6160855267673924
 51
230.9218564340438036
  0
ARC
  5
3516A
  8
0
 10
2774.7347689484081457
 20
145.3299775123527127
 30
0.0
 40
0.0168284409363638
 50
180.7852287015269894
 51
187.6676656313281057
  0
LINE
  5
3516B
  8
0
 10
2774.7179420878242126
 20
145.3297468887136006
 30
0.0
 11
2774.5979420860658138
 21
145.3297468887136006
 31
0.0
  0
ARC
  5
3516C
  8
0
 10
2774.5979418670449377
 20
145.2297471077353066
 30
0.0
 40
0.0999997809785916
 50
89.9998745096824564
 51
180.0000524954569983
  0
LINE
  5
3516D
  8
0
 10
2774.4979420860659047
 20
145.2297470161136062
 30
0.0
 11
2774.497942111086104
 21
142.4497543375136104
 31
0.0
  0
ARC
  5
3516E
  8
0
 10
2774.5979496927720902
 20
142.4497544461102052
 30
0.0
 40
0.1000075816858835
 50
180.0000622165462971
 51
269.9956420090308029
  0
LINE
  5
3516F
  8
0
 10
2774.5979420860658138
 20
142.3497468647136088
 30
0.0
 11
2775.2466284100169105
 21
142.3497468647136088
 31
0.0
  0
LINE
  5
35170
  8
0
 10
2774.4979420869372007
 20
145.1330541037135902
 30
0.0
 11
2774.4817852469668651
 21
145.1330541037135902
 31
0.0
  0
ARC
  5
35171
  8
0
 10
2774.4817852469668651
 20
145.113372166277486
 30
0.0
 40
0.0196819374361264
 50
90.0
 51
180.0090301003806132
  0
LINE
  5
35172
  8
0
 10
2774.4621033097751024
 20
145.1133690643061129
 30
0.0
 11
2774.4621033097660074
 21
144.5818724291135879
 31
0.0
  0
ARC
  5
35173
  8
0
 10
2774.4817885109459894
 20
144.5818731628995977
 30
0.0
 40
0.0196853052803536
 50
180.0004703100231893
 51
269.9904996913937794
  0
LINE
  5
35174
  8
0
 10
2774.481785246893196
 20
144.56218785788991
 30
0.0
 11
2774.4979420860659047
 21
144.5621851788974084
 31
0.0
  0
LINE
  5
35175
  8
0
 10
2774.4979420936688257
 20
144.3850226076135925
 30
0.0
 11
2774.4817852536989449
 21
144.3850226076135925
 31
0.0
  0
ARC
  5
35176
  8
0
 10
2774.4817852536989449
 20
144.3653406701774884
 30
0.0
 40
0.0196819374361264
 50
90.0
 51
180.0090301003806132
  0
LINE
  5
35177
  8
0
 10
2774.4621033165071822
 20
144.3653375682060869
 30
0.0
 11
2774.4621033164989967
 21
144.0503791491306913
 31
0.0
  0
ARC
  5
35178
  8
0
 10
2774.4817885176780692
 20
144.050379882916701
 30
0.0
 40
0.0196853052803536
 50
180.0004703100231893
 51
269.9904996913937794
  0
LINE
  5
35179
  8
0
 10
2774.4817852536248211
 20
144.0306945779070134
 30
0.0
 11
2774.497942092798894
 21
144.030691898914597
 31
0.0
  0
LINE
  5
3517A
  8
0
 10
2774.4979420979211682
 20
143.9125816627135919
 30
0.0
 11
2774.4817852579508326
 21
143.9125816627135919
 31
0.0
  0
ARC
  5
3517B
  8
0
 10
2774.4817852579508326
 20
143.8928997252774877
 30
0.0
 40
0.0196819374361264
 50
90.0
 51
180.0090301003806132
  0
LINE
  5
3517C
  8
0
 10
2774.4621033207590699
 20
143.8928966233060862
 30
0.0
 11
2774.4621033234079732
 21
143.2826626137305084
 31
0.0
  0
ARC
  5
3517D
  8
0
 10
2774.4817885245879552
 20
143.2826633475164897
 30
0.0
 40
0.0196853052803536
 50
180.0004703100231893
 51
269.9904996913937794
  0
LINE
  5
3517E
  8
0
 10
2774.4817852605351618
 20
143.2629780425066883
 30
0.0
 11
2774.4979420997078705
 21
143.2629753635143004
 31
0.0
  0
LINE
  5
3517F
  8
0
 10
2774.4979421172160983
 20
143.0858100092135885
 30
0.0
 11
2774.4817852772462174
 21
143.0858100092135885
 31
0.0
  0
ARC
  5
35180
  8
0
 10
2774.4817852772462174
 20
143.0661280717775128
 30
0.0
 40
0.0196819374361264
 50
90.0
 51
180.0090301003806132
  0
LINE
  5
35181
  8
0
 10
2774.462103340054
 20
143.0661249698061113
 30
0.0
 11
2774.4621033234079732
 21
142.4558909602316135
 31
0.0
  0
ARC
  5
35182
  8
0
 10
2774.4817885245879552
 20
142.4558916940175948
 30
0.0
 40
0.0196853052803536
 50
180.0004703100231893
 51
269.9904996913937794
  0
LINE
  5
35183
  8
0
 10
2774.4817852605351618
 20
142.4362063890079071
 30
0.0
 11
2774.4988644151558219
 21
142.4362035570848093
 31
0.0
  0
LINE
  5
35184
  8
0
 10
2775.2466284100169105
 20
144.1862037099135989
 30
0.0
 11
2775.0970221099660193
 21
144.1862037099135989
 31
0.0
  0
ARC
  5
35185
  8
0
 10
2775.0970221097950343
 20
144.0759674895842863
 30
0.0
 40
0.1102362203292886
 50
89.999999911282373
 51
180.0000000367523114
  0
LINE
  5
35186
  8
0
 10
2774.9867858894667734
 20
144.0759674895136015
 30
0.0
 11
2774.9867858894667734
 21
143.6035265446136009
 31
0.0
  0
ARC
  5
35187
  8
0
 10
2775.0970221099660193
 20
143.6035265446136009
 30
0.0
 40
0.1102362205000009
 50
180.0
 51
270.0
  0
LINE
  5
35188
  8
0
 10
2775.0970221099660193
 20
143.4932903241135875
 30
0.0
 11
2775.2466284100169105
 21
143.4932903241135875
 31
0.0
  0
LINE
  5
35189
  8
0
 10
2774.9867858894667734
 20
143.9204556784135889
 30
0.0
 11
2774.9017858894671917
 21
143.9204556784135889
 31
0.0
  0
ARC
  5
3518A
  8
0
 10
2774.9017858892962067
 20
143.9054556785843033
 30
0.0
 40
0.01499999982929
 50
89.9999993479189158
 51
180.0000002700921016
  0
LINE
  5
3518B
  8
0
 10
2774.8867858894668643
 20
143.9054556785135901
 30
0.0
 11
2774.8867858894668643
 21
143.7740383556136123
 31
0.0
  0
ARC
  5
3518C
  8
0
 10
2774.9038843211919811
 20
143.7762062479750966
 30
0.0
 40
0.0172353162072992
 50
187.2259169168480071
 51
263.0067820740105162
  0
LINE
  5
3518D
  8
0
 10
2774.9017858894671917
 20
143.7590991526909932
 30
0.0
 11
2774.9867858894667734
 21
143.7590991526909932
 31
0.0
  0
ARC
  5
3518E
  8
0
 10
2774.8717858896370672
 20
143.7775446283843053
 30
0.0
 40
0.0149999998292891
 50
359.9999997299029815
 51
90.0000006520810842
  0
LINE
  5
3518F
  8
0
 10
2774.8717858894660822
 20
143.7925446282135908
 30
0.0
 11
2774.8017858894659184
 21
143.7925446282135908
 31
0.0
  0
ARC
  5
35190
  8
0
 10
2774.8017858896369034
 20
143.8075446283843064
 30
0.0
 40
0.0150000001707103
 50
180.0000002701017934
 51
269.9999993479449927
  0
LINE
  5
35191
  8
0
 10
2774.7867858894660458
 20
143.8075446283135932
 30
0.0
 11
2774.7867858894660458
 21
143.8719494058136092
 31
0.0
  0
ARC
  5
35192
  8
0
 10
2774.8017858894659184
 20
143.8719494058136092
 30
0.0
 40
0.0150000000000006
 50
90.0
 51
180.0000000000015916
  0
LINE
  5
35193
  8
0
 10
2774.8017858894659184
 20
143.8869494058135956
 30
0.0
 11
2774.8717858894660822
 21
143.8869494058135956
 31
0.0
  0
ARC
  5
35194
  8
0
 10
2774.8717858894660822
 20
143.9019494058136104
 30
0.0
 40
0.0150000000000001
 50
270.0
 51
0.0
  0
ENDSEC
  0
EOF
