  0
SECTION
  2
HEADER
  9
$ACADVER
  1
AC1009
  9
$INSBASE
 10
3569.5362035572002242
 20
184.5136138893566056
 30
0.0
  9
$EXTMIN
 10
3560.7132433680249051
 20
184.5084430850608044
 30
0.0
  9
$EXTMAX
 10
3578.3591637463750885
 20
191.6262123145558007
 30
0.0
  9
$LIMMIN
 10
0.0
 20
0.0
  9
$LIMMAX
 10
11.6929133858000007
 20
8.2677165353999982
  9
$ORTHOMODE
 70
     0
  9
$REGENMODE
 70
     1
  9
$FILLMODE
 70
     1
  9
$QTEXTMODE
 70
     0
  9
$MIRRTEXT
 70
     0
  9
$DRAGMODE
 70
     2
  9
$LTSCALE
 40
0.6431102362
  9
$OSMODE
 70
  3839
  9
$ATTMODE
 70
     1
  9
$TEXTSIZE
 40
0.2
  9
$TRACEWID
 40
0.05
  9
$TEXTSTYLE
  7
STANDARD
  9
$CLAYER
  8
0
  9
$CELTYPE
  6
BYLAYER
  9
$CECOLOR
 62
   256
  9
$DIMSCALE
 40
1.0
  9
$DIMASZ
 40
0.1875
  9
$DIMEXO
 40
0.0625
  9
$DIMDLI
 40
0.4443307087
  9
$DIMRND
 40
0.0
  9
$DIMDLE
 40
0.0
  9
$DIMEXE
 40
0.125
  9
$DIMTP
 40
0.01
  9
$DIMTM
 40
0.01
  9
$DIMTXT
 40
2.0
  9
$DIMCEN
 40
0.1052362205
  9
$DIMTSZ
 40
0.0
  9
$DIMTOL
 70
     1
  9
$DIMLIM
 70
     0
  9
$DIMTIH
 70
     1
  9
$DIMTOH
 70
     1
  9
$DIMSE1
 70
     0
  9
$DIMSE2
 70
     0
  9
$DIMTAD
 70
     0
  9
$DIMZIN
 70
     0
  9
$DIMBLK
  1

  9
$DIMASO
 70
     1
  9
$DIMSHO
 70
     1
  9
$DIMPOST
  1
\X
  9
$DIMAPOST
  1

  9
$DIMALT
 70
     1
  9
$DIMALTD
 70
     2
  9
$DIMALTF
 40
25.3999999999999986
  9
$DIMLFAC
 40
1.0
  9
$DIMTOFL
 70
     0
  9
$DIMTVP
 40
0.0
  9
$DIMTIX
 70
     0
  9
$DIMSOXD
 70
     0
  9
$DIMSAH
 70
     0
  9
$DIMBLK1
  1

  9
$DIMBLK2
  1

  9
$DIMSTYLE
  2
STANDARD
  9
$DIMCLRD
 70
     0
  9
$DIMCLRE
 70
     0
  9
$DIMCLRT
 70
     0
  9
$DIMTFAC
 40
1.0
  9
$DIMGAP
 40
0.09
  9
$LUNITS
 70
     2
  9
$LUPREC
 70
     4
  9
$SKETCHINC
 40
0.1
  9
$FILLETRAD
 40
0.0
  9
$AUNITS
 70
     0
  9
$AUPREC
 70
     0
  9
$MENU
  1
.
  9
$ELEVATION
 40
0.0
  9
$PELEVATION
 40
0.0
  9
$THICKNESS
 40
0.0
  9
$LIMCHECK
 70
     0
  9
$BLIPMODE
 70
     0
  9
$CHAMFERA
 40
0.0
  9
$CHAMFERB
 40
0.0
  9
$SKPOLY
 70
     0
  9
$TDCREATE
 40
2458060.468368056230247
  9
$TDUPDATE
 40
2459029.6375578697770834
  9
$TDINDWG
 40
0.5087107639
  9
$TDUSRTIMER
 40
0.5087107639
  9
$USRTIMER
 70
     1
  9
$ANGBASE
 50
0.0
  9
$ANGDIR
 70
     0
  9
$PDMODE
 70
     0
  9
$PDSIZE
 40
0.3125
  9
$PLINEWID
 40
0.0
  9
$COORDS
 70
     1
  9
$SPLFRAME
 70
     0
  9
$SPLINETYPE
 70
     6
  9
$SPLINESEGS
 70
     8
  9
$ATTDIA
 70
     1
  9
$ATTREQ
 70
     1
  9
$HANDLING
 70
     1
  9
$HANDSEED
  5
8D3A
  9
$SURFTAB1
 70
     6
  9
$SURFTAB2
 70
     6
  9
$SURFTYPE
 70
     6
  9
$SURFU
 70
     6
  9
$SURFV
 70
     6
  9
$UCSNAME
  2

  9
$UCSORG
 10
0.0
 20
0.0
 30
0.0
  9
$UCSXDIR
 10
1.0
 20
0.0
 30
0.0
  9
$UCSYDIR
 10
0.0
 20
1.0
 30
0.0
  9
$PUCSNAME
  2

  9
$PUCSORG
 10
0.0
 20
0.0
 30
0.0
  9
$PUCSXDIR
 10
1.0
 20
0.0
 30
0.0
  9
$PUCSYDIR
 10
0.0
 20
1.0
 30
0.0
  9
$USERI1
 70
     0
  9
$USERI2
 70
     0
  9
$USERI3
 70
     0
  9
$USERI4
 70
     0
  9
$USERI5
 70
     0
  9
$USERR1
 40
0.0
  9
$USERR2
 40
0.0
  9
$USERR3
 40
0.0
  9
$USERR4
 40
0.0
  9
$USERR5
 40
0.0
  9
$WORLDVIEW
 70
     1
  9
$SHADEDGE
 70
     3
  9
$SHADEDIF
 70
    70
  9
$TILEMODE
 70
     1
  9
$MAXACTVP
 70
    64
  9
$PLIMCHECK
 70
     0
  9
$PEXTMIN
 10
1.0000000000000000E+20
 20
1.0000000000000000E+20
 30
1.0000000000000000E+20
  9
$PEXTMAX
 10
-1.0000000000000000E+20
 20
-1.0000000000000000E+20
 30
-1.0000000000000000E+20
  9
$PLIMMIN
 10
0.0
 20
0.0
  9
$PLIMMAX
 10
12.0
 20
9.0
  9
$UNITMODE
 70
     0
  9
$VISRETAIN
 70
     1
  9
$PLINEGEN
 70
     0
  9
$PSLTSCALE
 70
     1
  0
ENDSEC
  0
SECTION
  2
TABLES
  0
TABLE
  2
VPORT
 70
     1
  0
VPORT
  2
*ACTIVE
 70
     0
 10
0.0
 20
0.0
 11
1.0
 21
1.0
 12
0.0
 22
0.0
 13
0.0
 23
0.0
 14
1.0
 24
1.0
 15
0.0
 25
0.0
 16
0.0
 26
0.0
 36
78.9933519933512542
 17
3569.5361328125
 27
188.0673242646984136
 37
0.0
 40
19.0274464693440599
 41
3.314341846758349
 42
50.0
 43
0.0
 44
0.0
 50
0.0
 51
0.0
 71
     0
 72
   100
 73
     1
 74
     1
 75
     0
 76
     0
 77
     0
 78
     0
  0
ENDTAB
  0
TABLE
  2
LTYPE
 70
     2
  0
LTYPE
  2
CONTINUOUS
 70
     0
  3
Solid line
 72
    65
 73
     0
 40
0.0
  0
LTYPE
  2
PHANTOM2
 70
     0
  3
___ _ _ ___ _ _ ___ _ _ ___ _ _
 72
    65
 73
     6
 40
1.25
 49
0.625
 49
-0.125
 49
0.125
 49
-0.125
 49
0.125
 49
-0.125
  0
ENDTAB
  0
TABLE
  2
LAYER
 70
     2
  0
LAYER
  2
0
 70
     0
 62
   255
  6
CONTINUOUS
  0
LAYER
  2
DEFPOINTS
 70
     0
 62
     7
  6
CONTINUOUS
  0
ENDTAB
  0
TABLE
  2
STYLE
 70
     1
  0
STYLE
  2
STANDARD
 70
     0
 40
0.0
 41
0.8
 50
0.0
 71
     0
 42
0.2
  3
txt
  4

  0
ENDTAB
  0
TABLE
  2
VIEW
 70
     0
  0
ENDTAB
  0
TABLE
  2
UCS
 70
     0
  0
ENDTAB
  0
TABLE
  2
APPID
 70
     9
  0
APPID
  2
ACAD
 70
     0
  0
APPID
  2
ACAD_MLEADERVER
 70
     0
  0
APPID
  2
ACAD_EXEMPT_FROM_CAD_STANDARDS
 70
     0
  0
APPID
  2
ACAD_NAV_VCDISPLAY
 70
     0
  0
APPID
  2
ACAECLAYERSTANDARD
 70
     0
  0
APPID
  2
ACCMTRANSPARENCY
 70
     0
  0
APPID
  2
ACAD_DSTYLE_DIMJAG
 70
     0
  0
APPID
  2
ACAD_DSTYLE_DIMTALN
 70
     0
  0
APPID
  2
ACDBATTR
 70
     0
  0
ENDTAB
  0
TABLE
  2
DIMSTYLE
 70
     1
  0
DIMSTYLE
  2
STANDARD
 70
     0
  3

  4

  5

  6

  7

 40
1.0
 41
0.1875
 42
0.0625
 43
0.38
 44
0.125
 45
0.0
 46
0.0
 47
0.01
 48
0.01
140
0.15625
141
0.09
142
0.0
143
25.3999999999999986
144
1.0
145
0.0
146
1.0
147
0.09
 71
     1
 72
     0
 73
     1
 74
     1
 75
     0
 76
     0
 77
     0
 78
     4
170
     0
171
     2
172
     0
173
     0
174
     0
175
     0
176
     0
177
     0
178
     0
  0
ENDTAB
  0
ENDSEC
  0
SECTION
  2
BLOCKS
  0
BLOCK
  8
0
  2
$MODEL_SPACE
 70
     0
 10
0.0
 20
0.0
 30
0.0
  3
$MODEL_SPACE
  1

  0
ENDBLK
  5
21
  8
0
  0
BLOCK
 67
     1
  8
0
  2
$PAPER_SPACE
 70
     0
 10
0.0
 20
0.0
 30
0.0
  3
$PAPER_SPACE
  1

  0
ENDBLK
  5
1D
 67
     1
  8
0
  0
BLOCK
  8
0
  2
_FILLED
 70
     0
 10
0.0
 20
0.0
 30
0.0
  3
_FILLED
  1

  0
SOLID
  5
6F59
  8
0
  6
BYBLOCK
 62
     0
 10
0.0
 20
0.0
 30
0.0
 11
-1.0
 21
0.1666666667
 31
0.0
 12
-1.0
 22
-0.1666666667
 32
0.0
 13
-1.0
 23
-0.1666666667
 33
0.0
  0
ENDBLK
  5
6F5A
  8
0
  6
BYBLOCK
 62
     0
  0
BLOCK
  8
0
  2
A$C3DB08E2E
 70
     0
 10
0.0
 20
0.0
 30
0.0
  3
A$C3DB08E2E
  1

  0
LINE
  5
8817
  8
0
 10
12.4921342663499004
 20
0.0000000000000133
 30
0.0
 11
10.0332318892862897
 21
0.0000000000000133
 31
0.0
  0
LINE
  5
8818
  8
0
 10
0.1063671026302089
 20
7.7500000001682183
 30
0.0
 11
18.7736328973698008
 21
7.7500000002619647
 31
0.0
  0
LINE
  5
8819
  8
0
 10
1.0953510587632811
 20
8.7989838386000052
 30
0.0
 11
17.8046273463219507
 21
8.7989838386000052
 31
0.0
  0
LINE
  5
881A
  8
0
 10
18.3867921307496616
 20
8.3099999999999916
 30
0.0
 11
0.5016830773796919
 21
8.3099999999999987
 31
0.0
  0
LINE
  5
881B
  8
0
 10
18.1774748591041195
 20
8.5350863773296091
 30
0.0
 11
0.7075871889204386
 21
8.5344722780999867
 31
0.0
  0
ARC
  5
881C
  8
0
 10
9.4481661658039364
 20
9.9869856119745073
 30
0.0
 40
8.209169315332403
 50
196.7426054913007079
 51
225.1482356296745024
  0
ARC
  5
881D
  8
0
 10
9.6433091680509282
 20
10.1987961691185003
 30
0.0
 40
8.4969656394076001
 50
225.2226874971838129
 51
262.2924987590744763
  0
ARC
  5
881E
  8
0
 10
10.6771365500304096
 20
20.760528300891341
 30
0.0
 40
19.1059540709906805
 50
263.4681553288833129
 51
268.2277694976900762
  0
ARC
  5
881F
  8
0
 10
0.6286253882131696
 20
7.6874004448776816
 30
0.0
 40
0.6354089677640767
 50
101.5241225764271036
 51
171.6203176784534037
  0
ARC
  5
8820
  8
0
 10
0.4717150123111189
 20
8.4630944645773134
 30
0.0
 40
0.1560000000261806
 50
281.0755373997150173
 51
347.2600151158966924
  0
ARC
  5
8821
  8
0
 10
0.7504700463834802
 20
8.414520876467332
 30
0.0
 40
0.1273863345019133
 50
109.672067984908395
 51
173.6127785557443133
  0
ARC
  5
8822
  8
0
 10
0.4537395739569768
 20
9.0938178646320331
 30
0.0
 40
0.6142524699140602
 50
294.4099560107150069
 51
323.3049492087524754
  0
ARC
  5
8823
  8
0
 10
1.0953510587632811
 20
8.6089838383392596
 30
0.0
 40
0.1900000002607422
 50
90.0000000732209458
 51
141.6900737947132995
  0
ARC
  5
8824
  8
0
 10
1.8934605356724139
 20
7.7194759120384591
 30
0.0
 40
0.6146300832385112
 50
106.0998936182891015
 51
174.3487898116628116
  0
ARC
  5
8825
  8
0
 10
1.6824078100346
 20
8.4583979937148435
 30
0.0
 40
0.1538537148185392
 50
285.3038781570206766
 51
349.5459084455613947
  0
ARC
  5
8826
  8
0
 10
1.9886766181366189
 20
8.3984496266395645
 30
0.0
 40
0.1582448403201087
 50
118.5687496746670035
 51
168.3214700185284869
  0
ARC
  5
8827
  8
0
 10
1.5900748499149231
 20
9.0925997150008904
 30
0.0
 40
0.6422603819642362
 50
300.1852674752256007
 51
324.9079333440892015
  0
ARC
  5
8828
  8
0
 10
2.269815946394043
 20
8.6104417840168033
 30
0.0
 40
0.1911489909510958
 50
99.4735262742043034
 51
143.7873988007075923
  0
ARC
  5
8829
  8
0
 10
2.7657377567329422
 20
7.745458012230781
 30
0.0
 40
0.599813356931915
 50
109.7466182919007025
 51
176.6986302709476035
  0
ARC
  5
882A
  8
0
 10
2.5128226104167011
 20
8.450015790520613
 30
0.0
 40
0.1487637828371694
 50
289.7466182919002904
 51
351.7589415226908045
  0
ARC
  5
882B
  8
0
 10
2.8122458618154651
 20
8.4066491942141202
 30
0.0
 40
0.1537836434507225
 50
123.7799783269581013
 51
171.7589415226917993
  0
ARC
  5
882C
  8
0
 10
2.359482653293095
 20
9.0834903224304036
 30
0.0
 40
0.6605310597424414
 50
303.7799783269580871
 51
326.4193592205375012
  0
ARC
  5
882D
  8
0
 10
3.0837198747849568
 20
8.7025125520302389
 30
0.0
 40
0.174644338767057
 50
146.4690637876252026
 51
174.8649232747009137
  0
ARC
  5
882E
  8
0
 10
18.2741533098648006
 20
7.7106955585118477
 30
0.0
 40
0.6097977677539995
 50
6.5258527406743454
 51
79.3554807587174764
  0
ARC
  5
882F
  8
0
 10
18.4133592989457888
 20
8.4637292111294702
 30
0.0
 40
0.1560079638366367
 50
192.7448819176896109
 51
260.1951061077879217
  0
ARC
  5
8830
  8
0
 10
18.1090380556407986
 20
8.3948993452295291
 30
0.0
 40
0.1560000001195677
 50
12.7440129917487397
 51
63.9791966828928906
  0
ARC
  5
8831
  8
0
 10
18.4801761052182201
 20
9.155144403980163
 30
0.0
 40
0.6900000005889922
 50
218.3139543129321112
 51
243.9791966828937859
  0
ARC
  5
8832
  8
0
 10
17.7897057517781505
 20
8.6095706761340445
 30
0.0
 40
0.190000000260752
 50
38.3139543129346407
 51
85.4956543257288786
  0
ARC
  5
8833
  8
0
 10
16.9916588125762509
 20
7.7200066419495714
 30
0.0
 40
0.6146300832385112
 50
5.6014960741463637
 51
73.9041344893563519
  0
ARC
  5
8834
  8
0
 10
17.2026595887058704
 20
8.4589435595960119
 30
0.0
 40
0.1538537148185392
 50
190.4581196620835897
 51
254.7001499506243078
  0
ARC
  5
8835
  8
0
 10
16.8963949959551982
 20
8.3989736608259271
 30
0.0
 40
0.1582448403201087
 50
11.6825580891169292
 51
61.435278432978528
  0
ARC
  5
8836
  8
0
 10
17.2949479618438104
 20
9.0931517706672587
 30
0.0
 40
0.6422603819642361
 50
215.0960947635562093
 51
239.8187606324194974
  0
ARC
  5
8837
  8
0
 10
16.6152407645508298
 20
8.610946052532757
 30
0.0
 40
0.1911489909510958
 50
36.21662930693752
 51
80.3095928060781006
  0
ARC
  5
8838
  8
0
 10
16.1193797670325516
 20
7.745927417725877
 30
0.0
 40
0.5998133569319148
 50
3.2564573323327699
 51
70.2574098157445945
  0
ARC
  5
8839
  8
0
 10
16.3722453796762117
 20
8.4505029751554623
 30
0.0
 40
0.1487637828371694
 50
188.2450865849544073
 51
250.2574098157454046
  0
ARC
  5
883A
  8
0
 10
16.0728251778513496
 20
8.4071153283814333
 30
0.0
 40
0.1537836434507225
 50
8.2450865849535635
 51
56.2240497806875865
  0
ARC
  5
883B
  8
0
 10
16.525540800791461
 20
9.0839882858723691
 30
0.0
 40
0.6605310597424412
 50
213.5846688871073979
 51
236.2240497806874941
  0
ARC
  5
883C
  8
0
 10
15.8013303652518893
 20
8.7029595998276896
 30
0.0
 40
0.1746443387670569
 50
5.1391048329445663
 51
33.5349643200203715
  0
ARC
  5
883D
  8
0
 10
11.5397966974780601
 20
-24.4930674658728513
 30
0.0
 40
26.1971362386468485
 50
87.8999792716154644
 51
93.1806656518587602
  0
ARC
  5
883E
  8
0
 10
12.5399740087168805
 20
2.8248766965540182
 30
0.0
 40
1.2135210743768601
 50
296.3786359783981084
 51
357.247283131030315
  0
LINE
  5
883F
  8
0
 10
13.7520948136499097
 20
2.766596749699997
 30
0.0
 11
14.0182868396626006
 21
7.7500000002380851
 31
0.0
  0
ARC
  5
8840
  8
0
 10
12.6622948073432209
 20
3.1500087785120212
 30
0.0
 40
1.472531410109523
 50
263.6631547692111894
 51
286.4442705832905176
  0
ARC
  5
8841
  8
0
 10
12.4921342663499004
 20
0.1249999999999956
 30
0.0
 40
0.1249999999999938
 50
269.9999999999968168
 51
355.5000000000025011
  0
LINE
  5
8842
  8
0
 10
12.6167489330665408
 20
0.1151926130340213
 30
0.0
 11
12.7315681664235498
 21
1.5741092997197019
 31
0.0
  0
ARC
  5
8843
  8
0
 10
12.8711367841346398
 20
1.563125011286691
 30
0.0
 40
0.1400001915790277
 50
120.3221523017001999
 51
175.5000000000009948
  0
ARC
  5
8844
  8
0
 10
10.0332318892862897
 20
0.1250000001092841
 30
0.0
 40
0.1250000001092841
 50
196.3073784496075973
 51
269.9999999833182187
  0
ARC
  5
8845
  8
0
 10
9.4326982150464964
 20
-0.050692287400083
 30
0.0
 40
0.5007063797417075
 50
16.3073784496079703
 51
87.1810484019574687
  0
ARC
  5
8846
  8
0
 10
9.6694180286836477
 20
10.3414427861263807
 30
0.0
 40
9.8943080882204981
 50
221.5321488475389913
 51
268.7717100257966081
  0
ARC
  5
8847
  8
0
 10
6.784251906873048
 20
7.7542035361949191
 30
0.0
 40
6.0191228554125438
 50
181.6738447384867925
 51
221.3057462979735135
  0
ARC
  5
8848
  8
0
 10
0.576432341130623
 20
7.5601763027189763
 30
0.0
 40
0.1921298971363945
 50
5.4383296843690978
 51
81.1136383528288434
  0
ARC
  5
8849
  8
0
 10
9.5510916004473465
 20
1.862424088410674
 30
0.0
 40
1.4161237399261919
 50
266.2033845236232992
 51
289.8054496329141898
  0
ARC
  5
884A
  8
0
 10
9.8704839150705759
 20
0.9755424896381059
 30
0.0
 40
0.4734836066400165
 50
289.8054496329137919
 51
319.0458855271115226
  0
LINE
  5
884B
  8
0
 10
10.2280751861498995
 20
0.665195573100001
 30
0.0
 11
10.3029802982145604
 21
1.583988536480736
 31
0.0
  0
ARC
  5
884C
  8
0
 10
9.2610778869119592
 20
1.5854335290216319
 30
0.0
 40
1.0419034077456739
 50
359.9206173457221212
 51
4.9135415387380119
  0
ARC
  5
884D
  8
0
 10
9.0494386636799469
 20
7.6581546154444284
 30
0.0
 40
0.0920129294201882
 50
5.0615668327812022
 51
86.5418453842056437
  0
ARC
  5
884E
  8
0
 10
9.1822363526861857
 20
7.6398265086138117
 30
0.0
 40
0.048909986788177
 50
147.2681070189474895
 51
182.9924406258662088
  0
LINE
  5
884F
  8
0
 10
9.1333930580369405
 20
7.6372732018505438
 30
0.0
 11
9.1916646920987652
 21
4.2112147024176823
 31
0.0
  0
ARC
  5
8850
  8
0
 10
9.2685029584724212
 20
4.201415486252789
 30
0.0
 40
0.0774605952517418
 50
172.7322766621493884
 51
267.8377844906052019
  0
LINE
  5
8851
  8
0
 10
9.2655804613768957
 20
4.1240100418223031
 30
0.0
 11
9.3695820355061095
 21
4.1250090361042391
 31
0.0
  0
ARC
  5
8852
  8
0
 10
9.3693095398615842
 20
4.199180434874993
 30
0.0
 40
0.0741718993250603
 50
270.2104959645164968
 51
351.5897583308977801
  0
ARC
  5
8853
  8
0
 10
8.0003735253585511
 20
4.273403820794389
 30
0.0
 40
1.4448169989393711
 50
356.6244351250628029
 51
359.7987681237933089
  0
LINE
  5
8854
  8
0
 10
9.4451816132108171
 20
4.2683294044898901
 30
0.0
 11
9.5041758249696322
 21
7.6521987604477433
 31
0.0
  0
ARC
  5
8855
  8
0
 10
9.6029093169386606
 20
7.6512832576544447
 30
0.0
 40
0.0987377363613569
 50
88.8184577112071736
 51
179.4687421471703033
  0
ARC
  5
8856
  8
0
 10
0.7455533480865988
 20
8.7734381181239662
 30
0.0
 40
10.64946366002183
 50
334.4851659159588166
 51
354.4852318446395998
  0
ARC
  5
8857
  8
0
 10
10.4523519555063995
 20
4.0624053623512708
 30
0.0
 40
0.1566468362733666
 50
127.7661194217272964
 51
143.0324957956700871
  0
ARC
  5
8858
  8
0
 10
10.3461036336104293
 20
4.1463127565023763
 30
0.0
 40
0.0215293348329556
 50
151.4359457758565952
 51
267.3470229969751131
  0
LINE
  5
8859
  8
0
 10
10.3451071130416903
 20
4.1248064968297626
 30
0.0
 11
10.4921632734499006
 21
4.1250000114000009
 31
0.0
  0
ARC
  5
885A
  8
0
 10
10.4739707049578303
 20
4.34923344151224
 30
0.0
 40
0.2249702218700038
 50
274.6383774977516055
 51
337.9944283130542999
  0
ARC
  5
885B
  8
0
 10
0.0682224101782758
 20
9.2055345923805341
 30
0.0
 40
11.7078381196979393
 50
335.0396783771316791
 51
352.8584319664789177
  0
ARC
  5
885C
  8
0
 10
2.7733829918903541
 20
8.3415415822637975
 30
0.0
 40
8.6963765813098224
 50
332.2600251274877223
 51
356.0996367857798077
  0
ARC
  5
885D
  8
0
 10
10.3004353328062503
 20
4.3595854791261113
 30
0.0
 40
0.1821628519066379
 50
287.8969995704665052
 51
338.8061164740207118
  0
ARC
  5
885E
  8
0
 10
3.2275069062380579
 20
8.5117238593315641
 30
0.0
 40
9.6794275591334031
 50
333.9332928637059013
 51
355.4864339966982243
  0
ARC
  5
885F
  8
0
 10
11.7080229983668005
 20
4.3632705819417703
 30
0.0
 40
0.2386215668708474
 50
273.2622872496042987
 51
333.9332928637057876
  0
LINE
  5
8860
  8
0
 10
11.72160221065249
 20
4.1250357037866188
 30
0.0
 11
11.6065958115812506
 21
4.1250000000278364
 31
0.0
  0
ARC
  5
8861
  8
0
 10
11.6040440362212607
 20
4.165980528307192
 30
0.0
 40
0.0410598983869345
 50
246.7872220199423907
 51
273.5630930423512837
  0
ARC
  5
8862
  8
0
 10
11.6125180550350606
 20
4.1482914273289886
 30
0.0
 40
0.031778572445431
 50
158.4414399613935984
 51
219.1114256748651883
  0
ARC
  5
8863
  8
0
 10
11.7137450679697501
 20
4.0657509718667058
 30
0.0
 40
0.1611862064290087
 50
122.7723822695300981
 51
144.2304772852847918
  0
ARC
  5
8864
  8
0
 10
11.5719599973852301
 20
4.3735973910271007
 30
0.0
 40
0.1807402104413895
 50
287.5614586295258164
 51
334.0669625823283013
  0
ARC
  5
8865
  8
0
 10
4.2242267923487118
 20
7.9366451954007404
 30
0.0
 40
8.3467974682240911
 50
334.1290461605195219
 51
354.1588133090846213
  0
ARC
  5
8866
  8
0
 10
5.6788202518229802
 20
7.5191223816420534
 30
0.0
 40
6.8104993759529284
 50
330.8455400894123954
 51
346.4653642075166999
  0
ARC
  5
8867
  8
0
 10
0.3257827210695545
 20
8.8730241591449648
 30
0.0
 40
12.3318971117778204
 50
346.1702679057588057
 51
354.7750282191694282
  0
ARC
  5
8868
  8
0
 10
12.8226519059483408
 20
4.3163219663158436
 30
0.0
 40
0.191411819936816
 50
272.5205026329570046
 51
335.8231232717158719
  0
ARC
  5
8869
  8
0
 10
8.4113024849178792
 20
6.3046875565361589
 30
0.0
 40
5.030171932308364
 50
335.7403453244605203
 51
355.6895528616597062
  0
ARC
  5
886A
  8
0
 10
-312.891558629348026
 20
30.5224884534678083
 30
0.0
 40
327.2444336286160933
 50
355.6895528616598199
 51
356.0096407539710981
  0
LINE
  5
886B
  8
0
 10
12.8310696010499008
 20
4.1250953279499996
 30
0.0
 11
12.6991832553526702
 21
4.124998897699566
 31
0.0
  0
ARC
  5
886C
  8
0
 10
12.6958603665780299
 20
4.159675026386747
 30
0.0
 40
0.0348349751046054
 50
227.2005616897617131
 51
275.4737348866905222
  0
ARC
  5
886D
  8
0
 10
12.71007641730397
 20
4.1437660393737881
 30
0.0
 40
0.0390940247087102
 50
107.0084020113806957
 51
194.2917135080346043
  0
ARC
  5
886E
  8
0
 10
12.7505884188415397
 20
4.3116266318997534
 30
0.0
 40
0.1276925688814339
 50
270.9830022762544104
 51
337.1544995442736194
  0
LINE
  5
886F
  8
0
 10
12.7527790850498999
 20
4.1839528557000003
 30
0.0
 11
12.6986409484210991
 21
4.1811501646056826
 31
0.0
  0
ARC
  5
8870
  8
0
 10
7.8087334251408542
 20
6.3639436159814551
 30
0.0
 40
5.4787595989895852
 50
337.4404153955499055
 51
355.3710791174448218
  0
ARC
  5
8871
  8
0
 10
-27.6250969737372394
 20
9.3724504352702347
 30
0.0
 40
41.0400428516444222
 50
355.1768665967965717
 51
357.7343153861638143
  0
ARC
  5
8872
  8
0
 10
-9.6093734441635128
 20
8.6195463772092715
 30
0.0
 40
22.9659720879374802
 50
352.8483403777386798
 51
357.8301267357052211
  0
ARC
  5
8873
  8
0
 10
8.2642053985351929
 20
6.3893164351602039
 30
0.0
 40
4.9538083253701481
 50
333.5285862316703742
 51
352.7059317853692164
  0
LINE
  5
8874
  8
0
 10
13.8651217083543994
 20
7.7500000002373177
 30
0.0
 11
13.6962228109184103
 21
4.1786425310920379
 31
0.0
  0
ARC
  5
8875
  8
0
 10
13.5089321404499003
 20
4.1875
 30
0.0
 40
0.1875000000000023
 50
317.8882221969001876
 51
357.2923491728719796
  0
ARC
  5
8876
  8
0
 10
13.50674883732278
 20
4.1894735811337718
 30
0.0
 40
0.1904430995627806
 50
282.6244167940823786
 51
317.8882221968992212
  0
ARC
  5
8877
  8
0
 10
13.5675295595135808
 20
4.048005085715733
 30
0.0
 40
0.0483295723191198
 50
145.6817522634381987
 51
246.6469346572440031
  0
ARC
  5
8878
  8
0
 10
13.5091720747259103
 20
4.1859876936741216
 30
0.0
 40
0.1122599660129189
 50
279.4549534817376752
 51
357.8442004605664124
  0
LINE
  5
8879
  8
0
 10
13.6213525868498895
 20
4.1817648192000023
 30
0.0
 11
13.7900423338764107
 21
7.750000000236934
 31
0.0
  0
LINE
  5
887A
  8
0
 10
13.7313947854475007
 20
7.7500000002366427
 30
0.0
 11
13.6134590907878508
 21
5.3154536399475489
 31
0.0
  0
ARC
  5
887B
  8
0
 10
5.2533696909702696
 20
5.27106162648397
 30
0.0
 40
8.3602072596199211
 50
351.7764473370382916
 51
0.3042373100362075
  0
ARC
  5
887C
  8
0
 10
1.2058064667312991
 20
7.4376692914877829
 30
0.0
 40
0.4234826016954362
 50
25.8249623975398883
 51
47.5213492706400373
  0
LINE
  5
887D
  8
0
 10
0.0
 20
7.7800000000000047
 30
0.0
 11
18.879999999999999
 21
7.7800000000000047
 31
0.0
  0
ARC
  5
887E
  8
0
 10
0.1063693491646873
 20
7.7649999999999899
 30
0.0
 40
0.0150000000000031
 50
185.0000002254207914
 51
269.9914188703583022
  0
LINE
  5
887F
  8
0
 10
0.0914264286984548
 20
7.7636926637999846
 30
0.0
 11
0.0899997215846114
 21
7.779999999992981
 31
0.0
  0
ARC
  5
8880
  8
0
 10
18.7736306508353188
 20
7.765000000093738
 30
0.0
 40
0.0150000000000031
 50
270.0085811296418115
 51
354.9999997745791234
  0
LINE
  5
8881
  8
0
 10
18.7885735713015585
 20
7.7636926638937318
 30
0.0
 11
18.7900002784153912
 21
7.7800000000867291
 31
0.0
  0
ENDBLK
  5
8885
  8
0
  0
ENDSEC
  0
SECTION
  2
ENTITIES
  0
ATTDEF
  5
3930
  8
DEFPOINTS
 10
3569.5365617584288884
 20
184.5117764183941063
 30
0.0
 40
0.001
  1
K-5583IN-1WH
  3

  2
MODELNUMBER
 70
     0
1001
ACDBATTR
1070
     0
1070
     1
  0
ATTDEF
  5
3931
  8
DEFPOINTS
 10
3569.5365617584288884
 20
184.510109751727498
 30
0.0
 40
0.001
  1
BRIVE
  3

  2
TRADENAME
 70
     0
1001
ACDBATTR
1070
     0
1070
     1
  0
ATTDEF
  5
3932
  8
DEFPOINTS
 10
3569.5365617584288884
 20
184.5084430850608044
 30
0.0
 40
0.001
  1
BATHROOM SINK
  3

  2
PRODUCT
 70
     0
1001
ACDBATTR
1070
     0
1070
     1
  0
ARC
  5
8BF6
  8
0
 10
3568.259363079427203
 20
184.5923540468575084
 30
0.0
 40
0.0787401575018599
 50
185.4639484005228951
 51
270.0002840030040829
  0
LINE
  5
8BF7
  8
0
 10
3568.1809806928458784
 20
184.5848564554164
 30
0.0
 11
3568.1028208502589223
 21
185.4019661958965912
 31
0.0
  0
ARC
  5
8BF8
  8
0
 10
3566.1401448113178958
 20
186.4293745606323967
 30
0.0
 40
1.002752654482481
 50
256.9100860946816169
 51
268.1210653066032137
  0
ARC
  5
8BF9
  8
0
 10
3566.9224285538580261
 20
189.6621763362452953
 30
0.0
 40
4.328826852044477
 50
238.029883472020714
 51
256.5157559682344868
  0
ARC
  5
8BFA
  8
0
 10
3561.9224581435569235
 20
180.2354708191400903
 30
0.0
 40
6.3597795292411998
 50
64.7990615564567918
 51
71.3001358876934717
  0
ARC
  5
8BFB
  8
0
 10
3563.2849683947838457
 20
184.1011309812679997
 30
0.0
 40
2.2619279576153959
 50
72.5974870152853953
 51
89.3732822707192156
  0
ARC
  5
8BFC
  8
0
 10
3565.6021986840801219
 20
344.3964712336626803
 30
0.0
 40
158.0501745535935072
 50
268.9912334016096906
 51
269.1689059487595728
  0
ARC
  5
8BFD
  8
0
 10
3562.8285337640409125
 20
186.9059762240310079
 30
0.0
 40
0.5352573394901262
 50
198.8002471033038034
 51
269.0504948158874186
  0
ARC
  5
8BFE
  8
0
 10
3560.7030098761460977
 20
186.2219390106743901
 30
0.0
 40
1.6977229415014821
 50
17.5362681286121287
 51
31.9747298389636896
  0
ARC
  5
8BFF
  8
0
 10
3517.4046654143589876
 20
158.5929894403629987
 30
0.0
 40
53.0601333925965406
 50
32.5240501482016171
 51
33.644465045482967
  0
ARC
  5
8C00
  8
0
 10
3566.668768807014203
 20
191.081376546208304
 30
0.0
 40
5.9567682654187202
 50
181.1704289868440014
 51
211.2596367563897104
  0
ARC
  5
8C01
  8
0
 10
3560.9721139652560851
 20
190.9504138786329008
 30
0.0
 40
0.259037137587762
 50
111.1689594293951018
 51
177.9453415864755073
  0
LINE
  5
8C02
  8
0
 10
3560.8785706240751097
 20
191.1919710809065975
 30
0.0
 11
3561.4610828253271393
 21
191.4201167695223944
 31
0.0
  0
ARC
  5
8C03
  8
0
 10
3561.5267636561738982
 20
191.2545195433754941
 30
0.0
 40
0.1781471662653992
 50
94.3015246366304751
 51
111.6347630911717062
  0
LINE
  5
8C04
  8
0
 10
3561.5134016813240123
 20
191.4321648936565907
 30
0.0
 11
3562.1867427204169871
 21
191.4630280325611977
 31
0.0
  0
ARC
  5
8C05
  8
0
 10
3569.536221924272013
 20
226.2299970439671881
 30
0.0
 40
35.0808469362105129
 50
268.7594946016519089
 51
271.2404996526847754
  0
ARC
  5
8C06
  8
0
 10
3569.5362188444710227
 20
164.8064284456135056
 30
0.0
 40
26.3618858141432284
 50
88.3491098827252728
 51
91.6508843716153763
  0
ARC
  5
8C07
  8
0
 10
3569.7567745647679658
 20
261.4690356931603787
 30
0.0
 40
70.3927281059450252
 50
267.7215455193298794
 51
269.8204671301048165
  0
ARC
  5
8C08
  8
0
 10
3564.2938953218908864
 20
122.7308809009120978
 30
0.0
 40
68.4529488164781554
 50
87.7693563326664048
 51
90.1437837704219049
  0
LINE
  5
8C09
  8
0
 10
3564.1221128131251135
 20
191.1836141731565988
 30
0.0
 11
3561.3523599978439051
 21
191.1836141731565988
 31
0.0
  0
ARC
  5
8C0A
  8
0
 10
3564.1401364381581516
 20
151.0606463300628945
 30
0.0
 40
40.4495759464902207
 50
92.3918047670144489
 51
92.7680083464279761
  0
ARC
  5
8C0B
  8
0
 10
3569.5362205292658473
 20
25.6262122451053109
 30
0.0
 40
166.0000000694512892
 50
90.0000058579950633
 51
92.445876744037605
  0
ARC
  5
8C0C
  8
0
 10
3562.3120408412978577
 20
188.4048889623628895
 30
0.0
 40
3.060668994641917
 50
92.6455476986818951
 51
102.3701514851792069
  0
LINE
  5
8C0D
  8
0
 10
3561.656364447524993
 20
191.3945015060565993
 30
0.0
 11
3561.4726878300180033
 21
191.3017839248998939
 31
0.0
  0
ARC
  5
8C0E
  8
0
 10
3561.5329621271589531
 20
191.1200613274899922
 30
0.0
 40
0.191457810771174
 50
108.3498055553504003
 51
160.6133241845398913
  0
LINE
  5
8C0F
  8
0
 10
3577.7200471165551789
 20
191.1836141731565988
 30
0.0
 11
3564.1221128131292062
 21
191.1836141731567125
 31
0.0
  0
ARC
  5
8C10
  8
0
 10
3569.659948796936078
 20
546.9293215697525739
 30
0.0
 40
361.530708697140426
 50
269.5393248141514846
 51
269.9803887195885181
  0
ARC
  5
8C11
  8
0
 10
3566.8683982040979572
 20
202.2028779660651026
 30
0.0
 40
16.7929746939565412
 50
267.4022136807419088
 51
269.6068346056683822
  0
LINE
  5
8C12
  8
0
 10
3568.2593634697250309
 20
184.5136138893566056
 30
0.0
 11
3570.8130436446749627
 21
184.5136138893566056
 31
0.0
  0
ARC
  5
8C13
  8
0
 10
3570.8130440349727905
 20
184.5923540468575084
 30
0.0
 40
0.0787401575018599
 50
269.9997159969959171
 51
354.5360515994769912
  0
LINE
  5
8C14
  8
0
 10
3570.8914264215532057
 20
184.5848564554164
 30
0.0
 11
3570.9695862641410713
 21
185.4019661958967049
 31
0.0
  0
ARC
  5
8C15
  8
0
 10
3572.9322623030811883
 20
186.4293745606323967
 30
0.0
 40
1.002752654482481
 50
271.8789346933967863
 51
283.0899139053184967
  0
ARC
  5
8C16
  8
0
 10
3572.149978560541058
 20
189.6621763362452953
 30
0.0
 40
4.328826852044477
 50
283.4842440317655132
 51
301.9701165279792008
  0
ARC
  5
8C17
  8
0
 10
3577.1499489708430701
 20
180.2354708191400903
 30
0.0
 40
6.3597795292411998
 50
108.6998641123064999
 51
115.200938443543194
  0
ARC
  5
8C18
  8
0
 10
3575.7874387196147836
 20
184.1011309812679997
 30
0.0
 40
2.2619279576153959
 50
90.6267177292807844
 51
107.4025129847146047
  0
ARC
  5
8C19
  8
0
 10
3573.4702084303198717
 20
344.3964712336626803
 30
0.0
 40
158.0501745535935072
 50
270.8310940512404272
 51
271.0087665983901957
  0
ARC
  5
8C1A
  8
0
 10
3576.2438733503590811
 20
186.9059762240310079
 30
0.0
 40
0.5352573394901262
 50
270.9495051841125814
 51
341.199752896696225
  0
ARC
  5
8C1B
  8
0
 10
3578.3693972382529864
 20
186.2219390106743901
 30
0.0
 40
1.6977229415014821
 50
148.0252701610363033
 51
162.4637318713878926
  0
ARC
  5
8C1C
  8
0
 10
3621.667741700041006
 20
158.5929894403629987
 30
0.0
 40
53.0601333925965406
 50
146.3555349545169975
 51
147.47594985179839
  0
ARC
  5
8C1D
  8
0
 10
3578.1002931491420895
 20
190.9504138786309966
 30
0.0
 40
0.2590371375900906
 50
2.0546584139313859
 51
68.8310405704633439
  0
LINE
  5
8C1E
  8
0
 10
3578.1938364903248839
 20
191.1919710809065975
 30
0.0
 11
3577.6113242890742185
 21
191.4201167695223944
 31
0.0
  0
ARC
  5
8C1F
  8
0
 10
3577.5456434582260954
 20
191.2545195433754941
 30
0.0
 40
0.1781471662653992
 50
68.3652369088282938
 51
85.6984753633695391
  0
LINE
  5
8C20
  8
0
 10
3577.5590054330750718
 20
191.4321648936565907
 30
0.0
 11
3576.8856643939830064
 21
191.4630280325611977
 31
0.0
  0
ARC
  5
8C21
  8
0
 10
3569.3156325496311183
 20
261.4690356931603787
 30
0.0
 40
70.3927281059450252
 50
270.1795328698951835
 51
272.2784544806701206
  0
ARC
  5
8C22
  8
0
 10
3574.7785117925091072
 20
122.7308809009120978
 30
0.0
 40
68.4529488164781554
 50
89.8562162295780951
 51
92.2306436673335952
  0
LINE
  5
8C23
  8
0
 10
3574.9502943012748801
 20
191.1836141731565988
 30
0.0
 11
3577.7200471165551789
 21
191.1836141731565988
 31
0.0
  0
ARC
  5
8C24
  8
0
 10
3574.9322706762409325
 20
151.0606463300628945
 30
0.0
 40
40.4495759464902207
 50
87.2319916535720381
 51
87.6081952329855653
  0
ARC
  5
8C25
  8
0
 10
3569.5361865851327821
 20
25.6262122451053109
 30
0.0
 40
166.0000000694512892
 50
87.5541232559624092
 51
89.9999941420049367
  0
ARC
  5
8C26
  8
0
 10
3576.7603662731012264
 20
188.4048889623628895
 30
0.0
 40
3.060668994641917
 50
77.6298485148207931
 51
87.3544523013181049
  0
LINE
  5
8C27
  8
0
 10
3577.4160426668740911
 20
191.3945015060565993
 30
0.0
 11
3577.5997192843819903
 21
191.3017839248998939
 31
0.0
  0
ARC
  5
8C28
  8
0
 10
3577.539444987240131
 20
191.1200613274899922
 30
0.0
 40
0.191457810771174
 50
19.3866758154600305
 51
71.6501944446496282
  0
ARC
  5
8C29
  8
0
 10
3569.4124583174639156
 20
546.9293215699251505
 30
0.0
 40
361.5307086973130026
 50
270.0196112804114819
 51
270.4606751858484017
  0
ARC
  5
8C2A
  8
0
 10
3572.2040089103020364
 20
202.2028779660651026
 30
0.0
 40
16.7929746939565412
 50
270.3931653943316178
 51
272.5977863192579775
  0
ARC
  5
8C2C
  8
0
 10
3572.403638307384881
 20
191.081376546208304
 30
0.0
 40
5.9567682654187202
 50
328.740363243610318
 51
358.8295710131559986
  0
ENDSEC
  0
EOF
