  0
SECTION
  2
HEADER
  9
$ACADVER
  1
AC1009
  9
$INSBASE
 10
3453.4033870907937853
 20
144.1417254867089071
 30
0.0
  9
$EXTMIN
 10
3452.4252004596310144
 20
134.330276653688486
 30
0.0
  9
$EXTMAX
 10
3466.4045343283560214
 20
145.1428924763827126
 30
0.0
  9
$LIMMIN
 10
0.0
 20
0.0
  9
$LIMMAX
 10
11.6929133858000007
 20
8.2677165353999982
  9
$ORTHOMODE
 70
     0
  9
$REGENMODE
 70
     1
  9
$FILLMODE
 70
     1
  9
$QTEXTMODE
 70
     0
  9
$MIRRTEXT
 70
     0
  9
$DRAGMODE
 70
     2
  9
$LTSCALE
 40
0.6431102362
  9
$OSMODE
 70
  4095
  9
$ATTMODE
 70
     1
  9
$TEXTSIZE
 40
0.2
  9
$TRACEWID
 40
0.05
  9
$TEXTSTYLE
  7
STANDARD
  9
$CLAYER
  8
0
  9
$CELTYPE
  6
BYLAYER
  9
$CECOLOR
 62
   256
  9
$DIMSCALE
 40
1.0
  9
$DIMASZ
 40
0.1875
  9
$DIMEXO
 40
0.0625
  9
$DIMDLI
 40
0.4443307087
  9
$DIMRND
 40
0.0
  9
$DIMDLE
 40
0.0
  9
$DIMEXE
 40
0.125
  9
$DIMTP
 40
0.01
  9
$DIMTM
 40
0.01
  9
$DIMTXT
 40
2.0
  9
$DIMCEN
 40
0.1052362205
  9
$DIMTSZ
 40
0.0
  9
$DIMTOL
 70
     1
  9
$DIMLIM
 70
     0
  9
$DIMTIH
 70
     1
  9
$DIMTOH
 70
     1
  9
$DIMSE1
 70
     0
  9
$DIMSE2
 70
     0
  9
$DIMTAD
 70
     0
  9
$DIMZIN
 70
     0
  9
$DIMBLK
  1

  9
$DIMASO
 70
     1
  9
$DIMSHO
 70
     1
  9
$DIMPOST
  1
\X
  9
$DIMAPOST
  1

  9
$DIMALT
 70
     1
  9
$DIMALTD
 70
     2
  9
$DIMALTF
 40
25.3999999999999986
  9
$DIMLFAC
 40
1.0
  9
$DIMTOFL
 70
     0
  9
$DIMTVP
 40
0.0
  9
$DIMTIX
 70
     0
  9
$DIMSOXD
 70
     0
  9
$DIMSAH
 70
     0
  9
$DIMBLK1
  1

  9
$DIMBLK2
  1

  9
$DIMSTYLE
  2
STANDARD
  9
$DIMCLRD
 70
     0
  9
$DIMCLRE
 70
     0
  9
$DIMCLRT
 70
     0
  9
$DIMTFAC
 40
1.0
  9
$DIMGAP
 40
0.09
  9
$LUNITS
 70
     2
  9
$LUPREC
 70
     4
  9
$SKETCHINC
 40
0.1
  9
$FILLETRAD
 40
0.0
  9
$AUNITS
 70
     0
  9
$AUPREC
 70
     0
  9
$MENU
  1
.
  9
$ELEVATION
 40
0.0
  9
$PELEVATION
 40
0.0
  9
$THICKNESS
 40
0.0
  9
$LIMCHECK
 70
     0
  9
$BLIPMODE
 70
     0
  9
$CHAMFERA
 40
0.0
  9
$CHAMFERB
 40
0.0
  9
$SKPOLY
 70
     0
  9
$TDCREATE
 40
2458060.468368056230247
  9
$TDUPDATE
 40
2459657.9725925931707025
  9
$TDINDWG
 40
0.384509375
  9
$TDUSRTIMER
 40
0.384509375
  9
$USRTIMER
 70
     1
  9
$ANGBASE
 50
0.0
  9
$ANGDIR
 70
     0
  9
$PDMODE
 70
     0
  9
$PDSIZE
 40
0.3125
  9
$PLINEWID
 40
0.0
  9
$COORDS
 70
     1
  9
$SPLFRAME
 70
     0
  9
$SPLINETYPE
 70
     6
  9
$SPLINESEGS
 70
     8
  9
$ATTDIA
 70
     1
  9
$ATTREQ
 70
     1
  9
$HANDLING
 70
     1
  9
$HANDSEED
  5
1B56D
  9
$SURFTAB1
 70
     6
  9
$SURFTAB2
 70
     6
  9
$SURFTYPE
 70
     6
  9
$SURFU
 70
     6
  9
$SURFV
 70
     6
  9
$UCSNAME
  2

  9
$UCSORG
 10
0.0
 20
0.0
 30
0.0
  9
$UCSXDIR
 10
1.0
 20
0.0
 30
0.0
  9
$UCSYDIR
 10
0.0
 20
1.0
 30
0.0
  9
$PUCSNAME
  2

  9
$PUCSORG
 10
0.0
 20
0.0
 30
0.0
  9
$PUCSXDIR
 10
1.0
 20
0.0
 30
0.0
  9
$PUCSYDIR
 10
0.0
 20
1.0
 30
0.0
  9
$USERI1
 70
     0
  9
$USERI2
 70
     0
  9
$USERI3
 70
     0
  9
$USERI4
 70
     0
  9
$USERI5
 70
     0
  9
$USERR1
 40
0.0
  9
$USERR2
 40
0.0
  9
$USERR3
 40
0.0
  9
$USERR4
 40
0.0
  9
$USERR5
 40
0.0
  9
$WORLDVIEW
 70
     1
  9
$SHADEDGE
 70
     3
  9
$SHADEDIF
 70
    70
  9
$TILEMODE
 70
     1
  9
$MAXACTVP
 70
    64
  9
$PLIMCHECK
 70
     0
  9
$PEXTMIN
 10
1.0000000000000000E+20
 20
1.0000000000000000E+20
 30
1.0000000000000000E+20
  9
$PEXTMAX
 10
-1.0000000000000000E+20
 20
-1.0000000000000000E+20
 30
-1.0000000000000000E+20
  9
$PLIMMIN
 10
0.0
 20
0.0
  9
$PLIMMAX
 10
12.0
 20
9.0
  9
$UNITMODE
 70
     0
  9
$VISRETAIN
 70
     1
  9
$PLINEGEN
 70
     0
  9
$PSLTSCALE
 70
     1
  0
ENDSEC
  0
SECTION
  2
TABLES
  0
TABLE
  2
VPORT
 70
     1
  0
VPORT
  2
*ACTIVE
 70
     0
 10
0.0
 20
0.0
 11
1.0
 21
1.0
 12
-344.1534206387113954
 22
13.7428531033253094
 13
0.0
 23
0.0
 14
1.0
 24
1.0
 15
0.0
 25
0.0
 16
0.0
 26
0.0
 36
17.1152628219792007
 17
3803.5440673828129547
 27
125.9952621967499056
 37
0.0
 40
10.9101268525051598
 41
1.67063492063492
 42
50.0
 43
0.0
 44
0.0
 50
0.0
 51
0.0
 71
     0
 72
   100
 73
     1
 74
     1
 75
     0
 76
     1
 77
     0
 78
     0
  0
ENDTAB
  0
TABLE
  2
LTYPE
 70
     2
  0
LTYPE
  2
CONTINUOUS
 70
     0
  3
Solid line
 72
    65
 73
     0
 40
0.0
  0
LTYPE
  2
PHANTOM2
 70
     0
  3
___ _ _ ___ _ _ ___ _ _ ___ _ _
 72
    65
 73
     6
 40
1.25
 49
0.625
 49
-0.125
 49
0.125
 49
-0.125
 49
0.125
 49
-0.125
  0
ENDTAB
  0
TABLE
  2
LAYER
 70
     2
  0
LAYER
  2
0
 70
     0
 62
   255
  6
CONTINUOUS
  0
LAYER
  2
DEFPOINTS
 70
     0
 62
     7
  6
CONTINUOUS
  0
ENDTAB
  0
TABLE
  2
STYLE
 70
     1
  0
STYLE
  2
STANDARD
 70
     0
 40
0.0
 41
0.8
 50
0.0
 71
     0
 42
0.2
  3
txt
  4

  0
ENDTAB
  0
TABLE
  2
VIEW
 70
     0
  0
ENDTAB
  0
TABLE
  2
UCS
 70
     0
  0
ENDTAB
  0
TABLE
  2
APPID
 70
     9
  0
APPID
  2
ACAD
 70
     0
  0
APPID
  2
ACAD_MLEADERVER
 70
     0
  0
APPID
  2
ACAD_EXEMPT_FROM_CAD_STANDARDS
 70
     0
  0
APPID
  2
ACAD_NAV_VCDISPLAY
 70
     0
  0
APPID
  2
ACAECLAYERSTANDARD
 70
     0
  0
APPID
  2
ACCMTRANSPARENCY
 70
     0
  0
APPID
  2
ACAD_DSTYLE_DIMJAG
 70
     0
  0
APPID
  2
ACAD_DSTYLE_DIMTALN
 70
     0
  0
APPID
  2
ACDBATTR
 70
     0
  0
ENDTAB
  0
TABLE
  2
DIMSTYLE
 70
     1
  0
DIMSTYLE
  2
STANDARD
 70
     0
  3

  4

  5

  6

  7

 40
1.0
 41
0.1875
 42
0.0625
 43
0.38
 44
0.125
 45
0.0
 46
0.0
 47
0.01
 48
0.01
140
0.15625
141
0.09
142
0.0
143
25.3999999999999986
144
1.0
145
0.0
146
1.0
147
0.09
 71
     1
 72
     0
 73
     1
 74
     1
 75
     0
 76
     0
 77
     0
 78
     4
170
     0
171
     2
172
     0
173
     0
174
     0
175
     0
176
     0
177
     0
178
     0
  0
ENDTAB
  0
ENDSEC
  0
SECTION
  2
BLOCKS
  0
BLOCK
  8
0
  2
$MODEL_SPACE
 70
     0
 10
0.0
 20
0.0
 30
0.0
  3
$MODEL_SPACE
  1

  0
ENDBLK
  5
21
  8
0
  0
BLOCK
 67
     1
  8
0
  2
$PAPER_SPACE
 70
     0
 10
0.0
 20
0.0
 30
0.0
  3
$PAPER_SPACE
  1

  0
ENDBLK
  5
1D
 67
     1
  8
0
  0
ENDSEC
  0
SECTION
  2
ENTITIES
  0
ATTDEF
  5
18FA2
  8
DEFPOINTS
 10
3453.3979758158679942
 20
144.1400771738977085
 30
0.0
 40
0.001
  1
K-562IN-SD
  3

  2
MODELNUMBER
 70
     0
1001
ACDBATTR
1070
     0
1070
     1
  0
ATTDEF
  5
18FA3
  8
DEFPOINTS
 10
3453.3979758158679942
 20
144.1384105072311002
 30
0.0
 40
0.001
  1
MALLECO
  3

  2
TRADENAME
 70
     0
1001
ACDBATTR
1070
     0
1070
     1
  0
ATTDEF
  5
18FA4
  8
DEFPOINTS
 10
3453.3979758158679942
 20
144.1367438405644066
 30
0.0
 40
0.001
  1
KITCHEN SINK FAUCET
  3

  2
PRODUCT
 70
     0
1001
ACDBATTR
1070
     0
1070
     1
  0
ARC
  5
1B438
  8
0
 10
3465.4033868938031446
 20
144.1417450418296937
 30
0.0
 40
0.6496067612583049
 50
305.5695514981168799
 51
234.2258673996713014
  0
ARC
  5
1B439
  8
0
 10
3465.4033868938031446
 20
144.1417450418296937
 30
0.0
 40
1.0011474345529989
 50
284.8041630754275957
 51
255.1834394069203995
  0
ARC
  5
1B43A
  8
0
 10
3471.7191203043998939
 20
143.7169303308344013
 30
0.0
 40
6.5979904917338361
 50
182.663922676748399
 51
183.9765866343632013
  0
ARC
  5
1B43B
  8
0
 10
3464.8494992109140185
 20
143.3965899125362
 30
0.0
 40
0.2790963859449662
 50
2.8100103431828041
 51
51.3972186820720012
  0
ARC
  5
1B43C
  8
0
 10
3461.8999388066631582
 20
142.824067842977513
 30
0.0
 40
3.2662165118005841
 50
6.1753938608518961
 51
7.6588090836395493
  0
ARC
  5
1B43D
  8
0
 10
3460.4464605580110401
 20
142.6668011211829139
 30
0.0
 40
4.7281781532562839
 50
0.0819421045238705
 51
6.1753938608518961
  0
ARC
  5
1B43E
  8
0
 10
3523.5460409297820661
 20
142.757043648282206
 30
0.0
 40
58.3714667491293326
 50
180.0819421045237902
 51
181.0100716645405043
  0
ARC
  5
1B43F
  8
0
 10
3459.4555466479268944
 20
141.6270703773857065
 30
0.0
 40
5.7289879831528063
 50
356.7619378298509218
 51
1.010071664540547
  0
ARC
  5
1B440
  8
0
 10
3442.8791099633172053
 20
142.5648837968375915
 30
0.0
 40
22.3319319139318502
 50
356.2451060881040235
 51
356.7619378298509218
  0
ARC
  5
1B441
  8
0
 10
3463.6422855529640401
 20
141.2022122568187115
 30
0.0
 40
1.52408881829849
 50
352.4188272818237806
 51
356.2451060881040235
  0
ARC
  5
1B442
  8
0
 10
3468.6503483319470433
 20
140.5356688791576971
 30
0.0
 40
3.528135728624187
 50
172.418827281823809
 51
173.016338801187004
  0
ARC
  5
1B443
  8
0
 10
3465.3905111041399323
 20
140.9349829858518888
 30
0.0
 40
0.2439325516583279
 50
173.0163388011854124
 51
179.9353024907269116
  0
ARC
  5
1B444
  8
0
 10
3465.3315311690457747
 20
140.9350495851120115
 30
0.0
 40
0.1849525789627408
 50
179.9353024907269116
 51
191.491875400368599
  0
ARC
  5
1B445
  8
0
 10
3465.3647209784621737
 20
140.941797227138693
 30
0.0
 40
0.2188213569448417
 50
191.491875400368599
 51
227.2473865088265939
  0
ARC
  5
1B446
  8
0
 10
3465.4521489482340257
 20
141.0363676174752072
 30
0.0
 40
0.3476126944900113
 50
227.2473865088265939
 51
249.5660182434089052
  0
ARC
  5
1B447
  8
0
 10
3465.4048427415159495
 20
140.9190307595621903
 30
0.0
 40
0.221168915512385
 50
250.4374999246174127
 51
269.5964927862959257
  0
ARC
  5
1B448
  8
0
 10
3459.0874500271870602
 20
143.7169303308344013
 30
0.0
 40
6.5979904917338361
 50
356.0234133656368272
 51
357.3360773232499241
  0
ARC
  5
1B449
  8
0
 10
3465.9570711206729356
 20
143.3965899125362
 30
0.0
 40
0.2790963859449698
 50
129.0456914567552076
 51
177.1899896568172039
  0
ARC
  5
1B44A
  8
0
 10
3468.906631524923796
 20
142.824067842977513
 30
0.0
 40
3.2662165118005841
 50
172.3411909163604037
 51
173.8246061391481021
  0
ARC
  5
1B44B
  8
0
 10
3470.360109773575914
 20
142.6668011211829139
 30
0.0
 40
4.7281781532562839
 50
173.8246061391481021
 51
179.9180578954760961
  0
ARC
  5
1B44C
  8
0
 10
3407.2605294018057975
 20
142.757043648282206
 30
0.0
 40
58.3714667491293326
 50
358.9899283354595241
 51
359.9180578954761245
  0
ARC
  5
1B44D
  8
0
 10
3471.3510236836609693
 20
141.6270703773857065
 30
0.0
 40
5.7289879831528063
 50
178.9899283354594957
 51
183.2380621701489929
  0
ARC
  5
1B44E
  8
0
 10
3487.9274603682711131
 20
142.5648837968375915
 30
0.0
 40
22.3319319139318502
 50
183.2380621701489929
 51
183.754893911896005
  0
ARC
  5
1B44F
  8
0
 10
3467.1642847786238235
 20
141.2022122568187115
 30
0.0
 40
1.52408881829849
 50
183.754893911896005
 51
187.581172718176191
  0
ARC
  5
1B450
  8
0
 10
3462.1562219996421845
 20
140.5356688791576971
 30
0.0
 40
3.528135728624187
 50
6.98366119881294
 51
7.5811727181761954
  0
ARC
  5
1B451
  8
0
 10
3465.4160592274470218
 20
140.9349829858518888
 30
0.0
 40
0.2439325516583279
 50
0.0646975092730822
 51
6.9836611988145574
  0
ARC
  5
1B452
  8
0
 10
3465.4750391625411794
 20
140.9350495851120115
 30
0.0
 40
0.1849525789627408
 50
348.508124599631401
 51
0.0646975092730822
  0
ARC
  5
1B453
  8
0
 10
3465.4418493531247805
 20
140.941797227138693
 30
0.0
 40
0.2188213569448417
 50
312.7526134911734061
 51
348.508124599631401
  0
ARC
  5
1B454
  8
0
 10
3465.3544213833538379
 20
141.0363676174752072
 30
0.0
 40
0.3476126944900113
 50
290.4339817565912085
 51
312.7526134911734061
  0
ARC
  5
1B455
  8
0
 10
3465.4012731326902212
 20
140.9216125937898028
 30
0.0
 40
0.2237543115190003
 50
270.5152193848376783
 51
289.4507879042678269
  0
CIRCLE
  5
1B456
  8
0
 10
3456.8635549918940342
 20
144.1417417309089046
 30
0.0
 40
0.3889610127000658
  0
ARC
  5
1B457
  8
0
 10
3453.4042940508579704
 20
144.1411235787745966
 30
0.0
 40
0.9790935912275744
 50
52.7883335434589469
 51
235.681892562996012
  0
LINE
  5
1B458
  8
0
 10
3452.8524556017478062
 20
144.1485985963907126
 30
0.0
 11
3452.8524556017478062
 21
136.5954969834168935
 31
0.0
  0
LINE
  5
1B459
  8
0
 10
3453.9544591375811251
 20
144.1434762836433094
 30
0.0
 11
3453.9544591375811251
 21
136.5954969834168935
 31
0.0
  0
ARC
  5
1B45A
  8
0
 10
3453.4034376471358883
 20
144.141794376739
 30
0.0
 40
0.5510240573188514
 50
0.1748858611659173
 51
179.2924755789728124
  0
ARC
  5
1B45B
  8
0
 10
3456.4667678622190579
 20
144.2346184691060955
 30
0.0
 40
0.6643502965331538
 50
19.4295066925375508
 51
52.5095017922285834
  0
ARC
  5
1B45C
  8
0
 10
3456.5035499494661053
 20
144.2370373580542093
 30
0.0
 40
0.6406440148609222
 50
54.9887510063943807
 51
77.9207184387959728
  0
ARC
  5
1B45D
  8
0
 10
3456.3832584795741241
 20
143.7223380343193071
 30
0.0
 40
1.16916223931476
 50
77.4345966877828431
 51
89.4493975203310185
  0
ARC
  5
1B45E
  8
0
 10
3456.3081189069398533
 20
133.537945794374906
 30
0.0
 40
11.3538290496548395
 50
89.5641151701036193
 51
90.2152099866195272
  0
ARC
  5
1B45F
  8
0
 10
3456.2672153233697827
 20
144.7404047375362097
 30
0.0
 40
0.1513000506826397
 50
90.6599545358002672
 51
123.9567556303534985
  0
ARC
  5
1B460
  8
0
 10
3456.4745314817751023
 20
144.5008876476865964
 30
0.0
 40
0.4673314507513695
 50
128.6421839142489887
 51
162.8021753784663019
  0
ARC
  5
1B461
  8
0
 10
3457.4163153923800564
 20
144.1626898507579995
 30
0.0
 40
1.4676817149231269
 50
161.060100261744509
 51
180.8184406883927124
  0
ARC
  5
1B462
  8
0
 10
3454.3216493860099945
 20
146.7178042941038996
 30
0.0
 40
1.8261202005351349
 50
259.7407173571363046
 51
268.6915247309964911
  0
ARC
  5
1B463
  8
0
 10
3454.6309801733300446
 20
160.2604884912572061
 30
0.0
 40
15.3723366759872206
 50
268.6915247309964911
 51
270.9037609387540897
  0
ARC
  5
1B464
  8
0
 10
3455.1649720276000153
 20
126.4097866760135958
 30
0.0
 40
18.4825767146118309
 50
89.3698237133093158
 51
90.9037609387541039
  0
ARC
  5
1B465
  8
0
 10
3479.4561034382559228
 20
-41678.3314595124975313
 30
0.0
 40
41823.2296416242679697
 50
90.0319294400957375
 51
90.0329991813353132
  0
ARC
  5
1B466
  8
0
 10
3456.1427104178951595
 20
144.7041587040413049
 30
0.0
 40
0.1876443202421127
 50
69.4572373601872926
 51
88.0254281648659145
  0
ARC
  5
1B467
  8
0
 10
3456.1446905738121131
 20
144.7615937667939079
 30
0.0
 40
0.1301751332733228
 50
88.0254281648659145
 51
125.2858748530345991
  0
ARC
  5
1B468
  8
0
 10
3456.3276991687298505
 20
144.5243660665628909
 30
0.0
 40
0.4297129646245908
 50
126.9328102745785003
 51
160.7606459062195938
  0
ARC
  5
1B469
  8
0
 10
3457.170871871802774
 20
144.1901720607542075
 30
0.0
 40
1.336448302391289
 50
159.1445502046115905
 51
177.0620348828198871
  0
ARC
  5
1B46A
  8
0
 10
3467.5521245862269097
 20
143.8136387059159063
 30
0.0
 40
11.7243936899572798
 50
177.8246536401485969
 51
178.3964678645795914
  0
ARC
  5
1B46B
  8
0
 10
3456.1807720067081391
 20
144.7145118198023113
 30
0.0
 40
0.1427769801169481
 50
93.5537669277829167
 51
115.6046138549651943
  0
ARC
  5
1B46C
  8
0
 10
3456.2137254996268894
 20
144.6463402139598031
 30
0.0
 40
0.2184952577080846
 50
115.671863809881998
 51
134.7859045694982001
  0
ARC
  5
1B46D
  8
0
 10
3456.5122417944271547
 20
144.398308010462614
 30
0.0
 40
0.6059666463350127
 50
138.2999356090095944
 51
166.0749428908856942
  0
ARC
  5
1B46E
  8
0
 10
3458.0354652905120929
 20
144.1133680248952089
 30
0.0
 40
2.1646103953569962
 50
174.424172412182287
 51
179.2493756113071015
  0
ARC
  5
1B46F
  8
0
 10
3457.2464679984591385
 20
144.1718575380884886
 30
0.0
 40
1.373787120494244
 50
164.2770169111001906
 51
173.6547242330134964
  0
ARC
  5
1B470
  8
0
 10
3454.276300039050966
 20
141.9422788453557018
 30
0.0
 40
1.44651265347828
 50
91.5848585989570552
 51
102.8547144757491054
  0
ARC
  5
1B471
  8
0
 10
3454.6198415137328084
 20
129.5257413711752008
 30
0.0
 40
13.86780178112347
 50
89.2437183909074747
 51
91.5848585989570552
  0
ARC
  5
1B472
  8
0
 10
3455.1523723792329292
 20
169.8678555375682038
 30
0.0
 40
26.4778270346106304
 50
269.2437183909074747
 51
270.5559688565987813
  0
ARC
  5
1B473
  8
0
 10
3455.8021731322860433
 20
102.9042626993327048
 30
0.0
 40
40.4889184949702923
 50
89.5202694684973892
 51
90.555968856598767
  0
ARC
  5
1B474
  8
0
 10
3456.2672153233697827
 20
143.5430787242815995
 30
0.0
 40
0.1513000506826397
 50
236.0432443696464873
 51
269.3400454641997044
  0
ARC
  5
1B475
  8
0
 10
3456.4745314817751023
 20
143.7825958141312128
 30
0.0
 40
0.4673314507513695
 50
197.1978246215336128
 51
231.3578160857510113
  0
ARC
  5
1B476
  8
0
 10
3457.5487898541427967
 20
144.1419194764197016
 30
0.0
 40
1.600006453331422
 50
180.0069467186023076
 51
198.1156765462422129
  0
ARC
  5
1B477
  8
0
 10
3456.1427104178951595
 20
143.5793247577765044
 30
0.0
 40
0.1876443202421127
 50
271.9745718351340997
 51
290.5427626397882932
  0
ARC
  5
1B478
  8
0
 10
3456.1446905738121131
 20
143.5218896950239014
 30
0.0
 40
0.1301751332733228
 50
234.7141251469653866
 51
271.9745718351340997
  0
ARC
  5
1B479
  8
0
 10
3456.3276991687298505
 20
143.7591173952548047
 30
0.0
 40
0.4297129646245908
 50
199.2393540937787861
 51
233.0671897254215139
  0
ARC
  5
1B47A
  8
0
 10
3457.170871871802774
 20
144.0933114010636018
 30
0.0
 40
1.336448302391289
 50
182.9379651171784076
 51
200.8554497953884095
  0
ARC
  5
1B47B
  8
0
 10
3467.5888544231052038
 20
144.4711479443539019
 30
0.0
 40
11.7611465237460209
 50
181.605029344688802
 51
182.174898483975511
  0
ARC
  5
1B47C
  8
0
 10
3456.1807720067081391
 20
143.568971642015498
 30
0.0
 40
0.1427769801169481
 50
244.3953861450347915
 51
266.4462330722171259
  0
ARC
  5
1B47D
  8
0
 10
3456.2137254996268894
 20
143.6371432478578924
 30
0.0
 40
0.2184952577080846
 50
225.2140954305017999
 51
244.3281361901179025
  0
ARC
  5
1B47E
  8
0
 10
3456.5122417944271547
 20
143.8851754513551953
 30
0.0
 40
0.6059666463350127
 50
193.9250571091126005
 51
221.7000643909904056
  0
ARC
  5
1B47F
  8
0
 10
3459.9939544359817774
 20
144.2783754782990115
 30
0.0
 40
4.1251777288571478
 50
181.8983183079496939
 51
184.4292611312430097
  0
ARC
  5
1B480
  8
0
 10
3457.2464679984591385
 20
144.111625923729207
 30
0.0
 40
1.373787120494244
 50
186.3452757669865036
 51
195.7229830888998094
  0
ARC
  5
1B481
  8
0
 10
3456.4667678622190579
 20
144.0488649927116001
 30
0.0
 40
0.6643502965331538
 50
307.490498207771509
 51
340.5704933074625274
  0
ARC
  5
1B482
  8
0
 10
3456.5035499494661053
 20
144.0464461037635999
 30
0.0
 40
0.6406440148609222
 50
282.0792815612040272
 51
305.0112489936055908
  0
ARC
  5
1B483
  8
0
 10
3456.3832584795741241
 20
144.5611454274985022
 30
0.0
 40
1.16916223931476
 50
270.5506024796690099
 51
282.5654033122170858
  0
ARC
  5
1B484
  8
0
 10
3456.3081189069398533
 20
154.7455376674427896
 30
0.0
 40
11.3538290496548395
 50
269.7847900133804728
 51
270.4358848298963949
  0
ARC
  5
1B485
  8
0
 10
3455.0756897534579366
 20
135.1729758830223886
 30
0.0
 40
2.5720324356884801
 50
171.891241635975291
 51
178.8579423216741873
  0
ARC
  5
1B486
  8
0
 10
3453.779757831290226
 20
135.2813499291868879
 30
0.0
 40
1.276006487761429
 50
159.9966008089020022
 51
168.4989481465730137
  0
ARC
  5
1B487
  8
0
 10
3453.9489678214758897
 20
135.219751160564698
 30
0.0
 40
1.4560798868919469
 50
149.285024452003114
 51
159.9966008089020022
  0
ARC
  5
1B488
  8
0
 10
3451.7557564385870137
 20
136.5227602453406064
 30
0.0
 40
1.0950000501230639
 50
329.2850244520030856
 51
343.8426270298227223
  0
ARC
  5
1B489
  8
0
 10
3451.6291876248710651
 20
136.5275910333438958
 30
0.0
 40
1.2182976932300931
 50
345.2809910034025052
 51
356.3755438850266728
  0
ARC
  5
1B48A
  8
0
 10
3429.6542178135177892
 20
137.7085229302182086
 30
0.0
 40
23.2249233203795704
 50
356.8951275938621848
 51
357.2531179442224811
  0
ARC
  5
1B48B
  8
0
 10
3453.4032330811810425
 20
135.2493550598179013
 30
0.0
 40
0.9190784061293825
 50
233.169653426636188
 51
270.0661413626893932
  0
ARC
  5
1B48C
  8
0
 10
3453.3868068942078935
 20
135.2250835000895108
 30
0.0
 40
0.8898055757109354
 50
203.7564053254754128
 51
233.0793909577514
  0
ARC
  5
1B48D
  8
0
 10
3453.3118771704321261
 20
135.1921036335581903
 30
0.0
 40
0.8079390068218884
 50
183.6262695220802925
 51
203.7564053254754128
  0
ARC
  5
1B48E
  8
0
 10
3455.0634278748748329
 20
135.2252722298597973
 30
0.0
 40
2.5592598335554122
 50
180.023110226464496
 51
181.8869293488419885
  0
ARC
  5
1B48F
  8
0
 10
3453.4368399554869029
 20
137.2181163307616885
 30
0.0
 40
0.9271200683760618
 50
256.8829109088309224
 51
267.9259196050199989
  0
ARC
  5
1B490
  8
0
 10
3453.377965577354189
 20
136.9315562157522947
 30
0.0
 40
0.6347223673602864
 50
235.9696470058659088
 51
256.1883440001441272
  0
ARC
  5
1B491
  8
0
 10
3453.2598810777008111
 20
136.7566886431791033
 30
0.0
 40
0.4237185356513527
 50
213.5201431055810133
 51
235.9696470058659088
  0
ARC
  5
1B492
  8
0
 10
3453.1837220979259655
 20
136.7062416006257024
 30
0.0
 40
0.3323670479641381
 50
195.7621603082203876
 51
213.5201431055810133
  0
ARC
  5
1B493
  8
0
 10
3453.164609104558167
 20
136.7008467995923979
 30
0.0
 40
0.3125072797457522
 50
185.0776855120213895
 51
195.7621603082203876
  0
ARC
  5
1B494
  8
0
 10
3453.2532054027051345
 20
136.7087190300954944
 30
0.0
 40
0.4014526340838218
 50
183.3908608427335878
 51
185.0776855120213895
  0
ARC
  5
1B495
  8
0
 10
3451.6839250997682029
 20
135.1677361565608066
 30
0.0
 40
2.6192595258597282
 50
1.2361051732303681
 51
8.0773444407671402
  0
ARC
  5
1B496
  8
0
 10
3453.0268141134979487
 20
135.2813499291868879
 30
0.0
 40
1.276006487761429
 50
11.5010518534269508
 51
20.0033991910979587
  0
ARC
  5
1B497
  8
0
 10
3452.8576041233118303
 20
135.219751160564698
 30
0.0
 40
1.4560798868919469
 50
20.0033991910979587
 51
30.7149755479969286
  0
ARC
  5
1B498
  8
0
 10
3455.050815506201161
 20
136.5227602453406064
 30
0.0
 40
1.0950000501230639
 50
196.1573729701771924
 51
210.714975547996886
  0
ARC
  5
1B499
  8
0
 10
3455.1773843199171097
 20
136.5275910333438958
 30
0.0
 40
1.2182976932300931
 50
183.6244561149732135
 51
194.7190089965974948
  0
ARC
  5
1B49A
  8
0
 10
3463.1960202865761858
 20
136.9733458884030881
 30
0.0
 40
9.2492822567820028
 50
182.3412815228132047
 51
183.2400962120813972
  0
ARC
  5
1B49B
  8
0
 10
3453.4015364365459391
 20
135.2547597822367038
 30
0.0
 40
0.9244866289627113
 50
270.1709055501054877
 51
306.718966101298804
  0
ARC
  5
1B49C
  8
0
 10
3453.4197650505798265
 20
135.2250835000895108
 30
0.0
 40
0.8898055757109354
 50
306.9206090422484863
 51
336.2435946745246156
  0
ARC
  5
1B49D
  8
0
 10
3453.4946947743560486
 20
135.1921036335581903
 30
0.0
 40
0.8079390068218884
 50
336.2435946745246156
 51
356.3737304779197075
  0
ARC
  5
1B49E
  8
0
 10
3450.8758790328779469
 20
135.246785253194389
 30
0.0
 40
3.4267702251448329
 50
358.2310345777237899
 51
359.6230386782062851
  0
ARC
  5
1B49F
  8
0
 10
3453.3697319892999076
 20
137.2181163307616885
 30
0.0
 40
0.9271200683760707
 50
272.0740803949801148
 51
283.1170890911690776
  0
ARC
  5
1B4A0
  8
0
 10
3453.4286063674348952
 20
136.9315562157522947
 30
0.0
 40
0.6347223673602864
 50
283.8116559998558728
 51
304.0303529941340912
  0
ARC
  5
1B4A1
  8
0
 10
3453.5466908670859993
 20
136.7566886431791033
 30
0.0
 40
0.4237185356513527
 50
304.0303529941340912
 51
326.4798568944190151
  0
ARC
  5
1B4A2
  8
0
 10
3453.622849846860845
 20
136.7062416006257024
 30
0.0
 40
0.3323670479641381
 50
326.4798568944190151
 51
344.2378396917795271
  0
ARC
  5
1B4A3
  8
0
 10
3453.457026103374119
 20
136.7438524461319105
 30
0.0
 40
0.5022501610666515
 50
345.247318944910603
 51
352.0581925220183734
  0
ENDSEC
  0
EOF
