  0
SECTION
  2
HEADER
  9
$ACADVER
  1
AC1009
  9
$INSBASE
 10
4494.7093648412701441
 20
160.1386447675035924
 30
0.0
  9
$EXTMIN
 10
4484.8033595940323721
 20
160.1291264980665972
 30
-0.0000000349181948
  9
$EXTMAX
 10
4495.7958461576899936
 20
175.2401120726173929
 30
0.0000000814935746
  9
$LIMMIN
 10
0.0
 20
0.0
  9
$LIMMAX
 10
11.6929133858000007
 20
8.2677165353999982
  9
$ORTHOMODE
 70
     0
  9
$REGENMODE
 70
     1
  9
$FILLMODE
 70
     1
  9
$QTEXTMODE
 70
     0
  9
$MIRRTEXT
 70
     0
  9
$DRAGMODE
 70
     2
  9
$LTSCALE
 40
0.6431102362
  9
$OSMODE
 70
  4095
  9
$ATTMODE
 70
     1
  9
$TEXTSIZE
 40
0.2
  9
$TRACEWID
 40
0.05
  9
$TEXTSTYLE
  7
STANDARD
  9
$CLAYER
  8
0
  9
$CELTYPE
  6
BYLAYER
  9
$CECOLOR
 62
   256
  9
$DIMSCALE
 40
1.0
  9
$DIMASZ
 40
0.1875
  9
$DIMEXO
 40
0.0625
  9
$DIMDLI
 40
0.4443307087
  9
$DIMRND
 40
0.0
  9
$DIMDLE
 40
0.0
  9
$DIMEXE
 40
0.125
  9
$DIMTP
 40
0.01
  9
$DIMTM
 40
0.01
  9
$DIMTXT
 40
2.0
  9
$DIMCEN
 40
0.1052362205
  9
$DIMTSZ
 40
0.0
  9
$DIMTOL
 70
     1
  9
$DIMLIM
 70
     0
  9
$DIMTIH
 70
     1
  9
$DIMTOH
 70
     1
  9
$DIMSE1
 70
     0
  9
$DIMSE2
 70
     0
  9
$DIMTAD
 70
     0
  9
$DIMZIN
 70
     0
  9
$DIMBLK
  1

  9
$DIMASO
 70
     1
  9
$DIMSHO
 70
     1
  9
$DIMPOST
  1
\X
  9
$DIMAPOST
  1

  9
$DIMALT
 70
     1
  9
$DIMALTD
 70
     2
  9
$DIMALTF
 40
25.3999999999999986
  9
$DIMLFAC
 40
1.0
  9
$DIMTOFL
 70
     0
  9
$DIMTVP
 40
0.0
  9
$DIMTIX
 70
     0
  9
$DIMSOXD
 70
     0
  9
$DIMSAH
 70
     0
  9
$DIMBLK1
  1

  9
$DIMBLK2
  1

  9
$DIMSTYLE
  2
STANDARD
  9
$DIMCLRD
 70
     0
  9
$DIMCLRE
 70
     0
  9
$DIMCLRT
 70
     0
  9
$DIMTFAC
 40
1.0
  9
$DIMGAP
 40
0.09
  9
$LUNITS
 70
     2
  9
$LUPREC
 70
     4
  9
$SKETCHINC
 40
0.1
  9
$FILLETRAD
 40
0.0
  9
$AUNITS
 70
     0
  9
$AUPREC
 70
     0
  9
$MENU
  1
.
  9
$ELEVATION
 40
0.0
  9
$PELEVATION
 40
0.0
  9
$THICKNESS
 40
0.0
  9
$LIMCHECK
 70
     0
  9
$BLIPMODE
 70
     0
  9
$CHAMFERA
 40
0.0
  9
$CHAMFERB
 40
0.0
  9
$SKPOLY
 70
     0
  9
$TDCREATE
 40
2458060.468368056230247
  9
$TDUPDATE
 40
2460251.6375231482088566
  9
$TDINDWG
 40
0.308733912
  9
$TDUSRTIMER
 40
0.308733912
  9
$USRTIMER
 70
     1
  9
$ANGBASE
 50
0.0
  9
$ANGDIR
 70
     0
  9
$PDMODE
 70
     0
  9
$PDSIZE
 40
0.3125
  9
$PLINEWID
 40
0.0
  9
$COORDS
 70
     1
  9
$SPLFRAME
 70
     0
  9
$SPLINETYPE
 70
     6
  9
$SPLINESEGS
 70
     8
  9
$ATTDIA
 70
     1
  9
$ATTREQ
 70
     1
  9
$HANDLING
 70
     1
  9
$HANDSEED
  5
851E
  9
$SURFTAB1
 70
     6
  9
$SURFTAB2
 70
     6
  9
$SURFTYPE
 70
     6
  9
$SURFU
 70
     6
  9
$SURFV
 70
     6
  9
$UCSNAME
  2

  9
$UCSORG
 10
0.0
 20
0.0
 30
0.0
  9
$UCSXDIR
 10
1.0
 20
0.0
 30
0.0
  9
$UCSYDIR
 10
0.0
 20
1.0
 30
0.0
  9
$PUCSNAME
  2

  9
$PUCSORG
 10
0.0
 20
0.0
 30
0.0
  9
$PUCSXDIR
 10
1.0
 20
0.0
 30
0.0
  9
$PUCSYDIR
 10
0.0
 20
1.0
 30
0.0
  9
$USERI1
 70
     0
  9
$USERI2
 70
     0
  9
$USERI3
 70
     0
  9
$USERI4
 70
     0
  9
$USERI5
 70
     0
  9
$USERR1
 40
0.0
  9
$USERR2
 40
0.0
  9
$USERR3
 40
0.0
  9
$USERR4
 40
0.0
  9
$USERR5
 40
0.0
  9
$WORLDVIEW
 70
     1
  9
$SHADEDGE
 70
     3
  9
$SHADEDIF
 70
    70
  9
$TILEMODE
 70
     1
  9
$MAXACTVP
 70
    64
  9
$PLIMCHECK
 70
     0
  9
$PEXTMIN
 10
1.0000000000000000E+20
 20
1.0000000000000000E+20
 30
1.0000000000000000E+20
  9
$PEXTMAX
 10
-1.0000000000000000E+20
 20
-1.0000000000000000E+20
 30
-1.0000000000000000E+20
  9
$PLIMMIN
 10
0.0
 20
0.0
  9
$PLIMMAX
 10
12.0
 20
9.0
  9
$UNITMODE
 70
     0
  9
$VISRETAIN
 70
     1
  9
$PLINEGEN
 70
     0
  9
$PSLTSCALE
 70
     1
  0
ENDSEC
  0
SECTION
  2
TABLES
  0
TABLE
  2
VPORT
 70
     1
  0
VPORT
  2
*ACTIVE
 70
     0
 10
0.0
 20
0.0
 11
1.0
 21
1.0
 12
196.0078548289866092
 22
36.8095239179104112
 13
0.0
 23
0.0
 14
1.0
 24
1.0
 15
0.0
 25
0.0
 16
0.0
 26
0.0
 36
53.1537765367766966
 17
4294.291748046875
 27
130.8750953674316122
 37
0.0
 40
15.2138980756260001
 41
2.1579545454545448
 42
50.0
 43
0.0
 44
0.0
 50
0.0
 51
0.0
 71
     0
 72
   100
 73
     1
 74
     1
 75
     0
 76
     0
 77
     0
 78
     0
  0
ENDTAB
  0
TABLE
  2
LTYPE
 70
     2
  0
LTYPE
  2
CONTINUOUS
 70
     0
  3
Solid line
 72
    65
 73
     0
 40
0.0
  0
LTYPE
  2
PHANTOM2
 70
     0
  3
___ _ _ ___ _ _ ___ _ _ ___ _ _
 72
    65
 73
     6
 40
1.25
 49
0.625
 49
-0.125
 49
0.125
 49
-0.125
 49
0.125
 49
-0.125
  0
ENDTAB
  0
TABLE
  2
LAYER
 70
     2
  0
LAYER
  2
0
 70
     0
 62
   255
  6
CONTINUOUS
  0
LAYER
  2
DEFPOINTS
 70
     0
 62
     7
  6
CONTINUOUS
  0
ENDTAB
  0
TABLE
  2
STYLE
 70
     1
  0
STYLE
  2
STANDARD
 70
     0
 40
0.0
 41
0.8
 50
0.0
 71
     0
 42
0.2
  3
txt
  4

  0
ENDTAB
  0
TABLE
  2
VIEW
 70
     0
  0
ENDTAB
  0
TABLE
  2
UCS
 70
     0
  0
ENDTAB
  0
TABLE
  2
APPID
 70
     9
  0
APPID
  2
ACAD
 70
     0
  0
APPID
  2
ACAD_MLEADERVER
 70
     0
  0
APPID
  2
ACAD_EXEMPT_FROM_CAD_STANDARDS
 70
     0
  0
APPID
  2
ACAD_NAV_VCDISPLAY
 70
     0
  0
APPID
  2
ACAECLAYERSTANDARD
 70
     0
  0
APPID
  2
ACCMTRANSPARENCY
 70
     0
  0
APPID
  2
ACAD_DSTYLE_DIMJAG
 70
     0
  0
APPID
  2
ACAD_DSTYLE_DIMTALN
 70
     0
  0
APPID
  2
ACDBATTR
 70
     0
  0
ENDTAB
  0
TABLE
  2
DIMSTYLE
 70
     1
  0
DIMSTYLE
  2
STANDARD
 70
     0
  3

  4

  5

  6

  7

 40
1.0
 41
0.1875
 42
0.0625
 43
0.38
 44
0.125
 45
0.0
 46
0.0
 47
0.01
 48
0.01
140
0.15625
141
0.09
142
0.0
143
25.3999999999999986
144
1.0
145
0.0
146
1.0
147
0.09
 71
     1
 72
     0
 73
     1
 74
     1
 75
     0
 76
     0
 77
     0
 78
     4
170
     0
171
     2
172
     0
173
     0
174
     0
175
     0
176
     0
177
     0
178
     0
  0
ENDTAB
  0
ENDSEC
  0
SECTION
  2
BLOCKS
  0
BLOCK
  8
0
  2
$MODEL_SPACE
 70
     0
 10
0.0
 20
0.0
 30
0.0
  3
$MODEL_SPACE
  1

  0
ENDBLK
  5
21
  8
0
  0
BLOCK
 67
     1
  8
0
  2
$PAPER_SPACE
 70
     0
 10
0.0
 20
0.0
 30
0.0
  3
$PAPER_SPACE
  1

  0
ENDBLK
  5
1D
 67
     1
  8
0
  0
ENDSEC
  0
SECTION
  2
ENTITIES
  0
ATTDEF
  5
3930
  8
DEFPOINTS
 10
4494.7054538795882763
 20
160.1421518121192094
 30
0.0
 40
0.001
  1
K-562T-B4
  3

  2
MODELNUMBER
 70
     0
1001
ACDBATTR
1070
     0
1070
     1
  0
ATTDEF
  5
3931
  8
DEFPOINTS
 10
4494.7054538795882763
 20
160.140485145452601
 30
0.0
 40
0.001
  1
MALLECO
  3

  2
TRADENAME
 70
     0
1001
ACDBATTR
1070
     0
1070
     1
  0
ATTDEF
  5
3932
  8
DEFPOINTS
 10
4494.7054538795882763
 20
160.1388184787859075
 30
0.0
 40
0.001
  1
KITCHEN SINK FAUCET
  3

  2
PRODUCT
 70
     0
1001
ACDBATTR
1070
     0
1070
     1
  0
ARC
  5
839C
  8
0
 10
4490.4551210034660471
 20
170.4237111283412105
 30
0.0
 40
4.810701151505647
 50
358.811759413732716
 51
138.0479662521682087
  0
ARC
  5
839D
  8
0
 10
4490.4599573590021464
 20
170.4316707919304008
 30
0.0
 40
3.69988392817781
 50
358.2848864168490763
 51
135.2644333952765976
  0
ARC
  5
839E
  8
0
 10
3174.1658601405038098
 20
165.9116773049971982
 30
0.0
 40
1319.9945459696250509
 50
0.0444027735648504
 51
0.1058253508336983
  0
ARC
  5
839F
  8
0
 10
4463.54353647035623
 20
166.8663215757150908
 30
0.0
 40
30.6174695067968798
 50
355.6485083621697072
 51
359.996662720413326
  0
ARC
  5
83A0
  8
0
 10
4494.1810055769246901
 20
166.86442018310359
 30
0.0
 40
0.02
 50
90.0
 51
179.6618622416274889
  0
ARC
  5
83A1
  8
0
 10
27020.8482792368304217
 20
933.5587056519799489
 30
0.0
 40
22539.5701739008982258
 50
181.9492306431355928
 51
181.9524146685506025
  0
ARC
  5
83A2
  8
0
 10
4453.5702126566311563
 20
163.4519387098995082
 30
0.0
 40
40.8518967942356284
 50
0.8232582150415858
 51
3.0808071325565831
  0
ARC
  5
83A3
  8
0
 10
4912.7208192313019026
 20
168.4359623332597948
 30
0.0
 40
417.4603008558078159
 50
179.7408756602289088
 51
180.1403698965752938
  0
ARC
  5
83A4
  8
0
 10
4094.9262342120769063
 20
169.3412241469337118
 30
0.0
 40
399.2331516214836142
 50
359.857702669846276
 51
0.1406027358414611
  0
ARC
  5
83A5
  8
0
 10
6844.620550286083926
 20
169.2137716526565896
 30
0.0
 40
2350.207960501667003
 50
180.1273668336447997
 51
180.1302279898208951
  0
ARC
  5
83A6
  8
0
 10
4492.4270400767609317
 20
164.1421168649546019
 30
0.0
 40
2.0098582845407962
 50
347.102527746606313
 51
352.2754910339232879
  0
ARC
  5
83A7
  8
0
 10
4493.5276842846687941
 20
163.8498063385677881
 30
0.0
 40
0.8726202038693507
 50
331.9370303546157857
 51
349.6814664420642771
  0
ARC
  5
83A8
  8
0
 10
4491.9839710334472329
 20
165.203387878890311
 30
0.0
 40
2.909542610337005
 50
318.0737402506745184
 51
322.6764942159471161
  0
ARC
  5
83A9
  8
0
 10
4494.7769550206021449
 20
162.7341310553366043
 30
0.0
 40
0.8188605192191134
 50
140.1073477197346904
 51
159.0322710312661059
  0
ARC
  5
83AA
  8
0
 10
4494.7514615891996073
 20
162.7425573181864138
 30
0.0
 40
0.7920409306015526
 50
158.9415335958501885
 51
179.2960511139264099
  0
ARC
  5
83AB
  8
0
 10
4497.0003050154773518
 20
162.7426417382444868
 30
0.0
 40
3.0408398788040492
 50
179.8182389275164041
 51
182.8536740388177861
  0
LINE
  5
83AC
  8
0
 10
4494.3504454122648895
 20
166.9293330559536059
 30
0.0
 11
4495.0682988406751974
 21
166.9293330559536059
 31
0.0
  0
LINE
  5
83AD
  8
0
 10
4494.4383967232752184
 20
164.0093327481536107
 30
0.0
 11
4494.9803475296630495
 21
164.0093327481536107
 31
0.0
  0
ARC
  5
83AE
  8
0
 10
4494.4478893731284188
 20
164.0393327481536119
 30
0.0
 40
0.03
 50
180.8232582150610881
 51
270.0
  0
ARC
  5
83AF
  8
0
 10
4494.4383967582098194
 20
163.9893326638116093
 30
0.0
 40
0.0200000843423846
 50
90.0001000828131765
 51
179.9997708311036888
  0
ARC
  5
83B0
  8
0
 10
4494.3504582182631566
 20
166.8993028683221951
 30
0.0
 40
0.0300301903656059
 50
90.024433067748447
 51
179.9424099222154894
  0
LINE
  5
83B1
  8
0
 10
4494.166065039868954
 20
166.9159162461035919
 30
0.0
 11
4494.3241751009682048
 21
166.9159162461035919
 31
0.0
  0
LINE
  5
83B2
  8
0
 10
4494.166065039868954
 20
166.8844201831036003
 30
0.0
 11
4494.3209355870003492
 21
166.884420183103714
 31
0.0
  0
LINE
  5
83B3
  8
0
 10
4494.166065039868954
 20
166.9159162461035919
 30
0.0
 11
4494.166065039868954
 21
166.8844201831036003
 31
0.0
  0
ARC
  5
83B4
  8
0
 10
4494.179968927961454
 20
166.9359162461034032
 30
0.0
 40
0.0199999999999812
 50
183.6602628176472081
 51
270.000000000208388
  0
ARC
  5
83B5
  8
0
 10
4525.8861782495214356
 20
166.8665469933567067
 30
0.0
 40
30.6284399876724187
 50
180.0037577668186941
 51
184.3503529213585921
  0
ARC
  5
83B6
  8
0
 10
4495.2377386760126683
 20
166.86442018310359
 30
0.0
 40
0.02
 50
0.3381377584164781
 51
90.0
  0
ARC
  5
83B7
  8
0
 10
4722.8636425519162003
 20
180.7160930602175881
 30
0.0
 40
228.09175118543439
 50
184.065974669439214
 51
184.5659891863857069
  0
ARC
  5
83B8
  8
0
 10
-18031.4410043411990046
 20
933.5590962873983472
 30
0.0
 40
22539.5816499086104159
 50
358.0475853323300157
 51
358.0507667607158737
  0
ARC
  5
83B9
  8
0
 10
4535.8485315963071116
 20
163.4519387098995082
 30
0.0
 40
40.8518967942356284
 50
176.9191928674433996
 51
179.1767417849584092
  0
ARC
  5
83BA
  8
0
 10
2144.7981939668547966
 20
169.2137716526565896
 30
0.0
 40
2350.207960501667003
 50
359.8697720101791901
 51
359.872633166355115
  0
ARC
  5
83BB
  8
0
 10
4495.9611970494806883
 20
163.954561954606902
 30
0.0
 40
0.9646553355528023
 50
184.9114701247243033
 51
195.7014553352790074
  0
ARC
  5
83BC
  8
0
 10
4495.8910453978687656
 20
163.8498063385677881
 30
0.0
 40
0.8726202038693507
 50
190.3185335579348134
 51
208.0629696453842996
  0
ARC
  5
83BD
  8
0
 10
4497.4347586490894173
 20
165.203387878890311
 30
0.0
 40
2.909542610337005
 50
217.3235057840529123
 51
221.9262597493253963
  0
ARC
  5
83BE
  8
0
 10
4494.6417746619363243
 20
162.7341310553366043
 30
0.0
 40
0.8188605192191134
 50
20.9677289687339012
 51
39.8926522802652883
  0
ARC
  5
83BF
  8
0
 10
4494.6672680933361335
 20
162.7425573181864138
 30
0.0
 40
0.7920409306015526
 50
0.7039488860736234
 51
21.0584664041498009
  0
ARC
  5
83C0
  8
0
 10
4494.9708548798098491
 20
164.0393327481536119
 30
0.0
 40
0.03
 50
270.0
 51
359.1767417849388835
  0
ARC
  5
83C1
  8
0
 10
4494.9803474946329516
 20
163.9893326637177893
 30
0.0
 40
0.0200000844361308
 50
0.0002292826186594
 51
89.9998996484544733
  0
ARC
  5
83C2
  8
0
 10
4495.0682988406751974
 20
166.8993330559574133
 30
0.0
 40
0.03
 50
358.050766760932504
 51
90.0000000030223788
  0
LINE
  5
83C3
  8
0
 10
4495.2526792130693138
 20
166.9159162461035919
 30
0.0
 11
4495.0945691519691536
 21
166.9159162461035919
 31
0.0
  0
LINE
  5
83C4
  8
0
 10
4495.2526792130693138
 20
166.8844201831036003
 30
0.0
 11
4495.0978086659360997
 21
166.884420183103714
 31
0.0
  0
LINE
  5
83C5
  8
0
 10
4495.2526792130693138
 20
166.9159162461035919
 30
0.0
 11
4495.2526792130693138
 21
166.8844201831036003
 31
0.0
  0
ARC
  5
83C6
  8
0
 10
4495.2403412272751666
 20
166.9365092702803963
 30
0.0
 40
0.021712045492803
 50
288.4752185553812751
 51
358.4372744138975122
  0
ARC
  5
83C7
  8
0
 10
5522.0387163638497441
 20
245.3725067161884112
 30
0.0
 40
1029.8783532609859321
 50
184.7001305416580976
 51
184.7465772304767881
  0
ARC
  5
83C8
  8
0
 10
1344.4688532116260831
 20
-98.5582175287644588
 30
0.0
 40
3161.8251636599479752
 50
4.708481177849464
 51
4.7135279728604651
  0
ARC
  5
83C9
  8
0
 10
4922.04989138835208
 20
196.4229054010970117
 30
0.0
 40
427.8962667029459794
 50
184.5392491253288938
 51
184.7135279728603905
  0
LINE
  5
83CA
  8
0
 10
4493.738114841319657
 20
160.1386447675035924
 30
0.0
 11
4495.6806148412188122
 21
160.1386447675035924
 31
0.0
  0
ARC
  5
83CB
  8
0
 10
4493.7389165491467793
 20
160.1511933596434858
 30
0.0
 40
0.0125741759226929
 50
178.88216253090539
 51
266.3444400821945806
  0
ARC
  5
83CC
  8
0
 10
4495.6798131333916899
 20
160.1511933596434858
 30
0.0
 40
0.0125741759226929
 50
273.6555599178053058
 51
1.1178374690945241
  0
ARC
  5
83CD
  8
0
 10
4266.5550871306222689
 20
180.7160930602175881
 30
0.0
 40
228.09175118543439
 50
355.4340108136142931
 51
355.9340253305608144
  0
ARC
  5
83CE
  8
0
 10
3467.3800133186900894
 20
245.3725067161884112
 30
0.0
 40
1029.8783532609859321
 50
355.2534227695231834
 51
355.2998694583417887
  0
ARC
  5
83CF
  8
0
 10
7644.9498764709142051
 20
-98.5582175287644588
 30
0.0
 40
3161.8251636599479752
 50
175.2864720271394958
 51
175.2915188221504934
  0
ARC
  5
83D0
  8
0
 10
4067.368838294186844
 20
196.4229054010970117
 30
0.0
 40
427.8962667029459794
 50
355.2864720271394958
 51
355.4607508746710778
  0
ARC
  5
83D1
  8
0
 10
4494.7642718484348734
 20
162.8576268388943902
 30
0.0
 40
0.897717081822158
 50
228.3153025147013011
 51
266.4934336303014106
  0
ARC
  5
83D2
  8
0
 10
4494.6400945234572646
 20
162.6794914071097935
 30
0.0
 40
0.6825860026173697
 50
187.4275173138107959
 51
226.1552027695771869
  0
ARC
  5
83D3
  8
0
 10
4493.7089653587572684
 20
162.7124197428684056
 30
0.0
 40
1.750737896206229
 50
356.0185939954521928
 51
1.3048758800884659
  0
ARC
  5
83D4
  8
0
 10
4494.6544578341054148
 20
162.8576268388943049
 30
0.0
 40
0.8977170818221119
 50
273.5065663696985894
 51
311.6846974852987273
  0
ARC
  5
83D5
  8
0
 10
4494.7779988527054229
 20
162.6798724583914009
 30
0.0
 40
0.6833016258551341
 50
313.8611448236941897
 51
352.5150138958068169
  0
ARC
  5
83D6
  8
0
 10
4494.7163095098330814
 20
161.9707895438303069
 30
0.0
 40
0.2195416794434106
 50
71.3952179843364405
 51
112.2302128447386025
  0
ARC
  5
83D7
  8
0
 10
4494.7086657124946214
 20
162.2382391139670119
 30
0.0
 40
0.1602168743434944
 50
240.501753173275489
 51
299.2019241965790002
  0
ARC
  5
83D8
  8
0
 10
4494.6512314617611992
 20
162.1354910349469947
 30
0.0
 40
0.0425117891427797
 50
115.021815202582502
 51
239.6880200261242067
  0
ARC
  5
83D9
  8
0
 10
4494.7661038933720192
 20
162.1384989053970003
 30
0.0
 40
0.045153752656458
 50
297.3287300542318121
 51
63.3576432423262901
  0
LINE
  5
83DB
  8
0
 10
4495.2620451973689342
 20
166.9359171540257876
 30
0.0
 11
4495.2620451973689342
 21
167.2005433307124918
 31
0.0
  0
ARC
  5
83DC
  8
0
 10
4495.7696206418722795
 20
167.3075359446237087
 30
0.0
 40
0.5187294586715323
 50
168.244426222858408
 51
191.9032090210397996
  0
LINE
  5
83DD
  8
0
 10
4495.2644829514701996
 20
167.3489871122035879
 30
0.0
 11
4495.2644826399700833
 21
167.2230038093036057
 31
0.0
  0
ARC
  5
83DE
  8
0
 10
4495.2120363046578859
 20
167.3433350171306984
 30
0.0
 40
0.0527503264499834
 50
6.1509395786574848
 51
35.2118774248365298
  0
ARC
  5
83DF
  8
0
 10
4495.2526704522906584
 20
167.2230048224224959
 30
0.0
 40
0.0118121877218807
 50
305.3770450071522191
 51
359.9950858014989876
  0
ARC
  5
83E0
  8
0
 10
4494.7079288348832051
 20
162.7043059930049935
 30
0.0
 40
0.7895840421055496
 50
220.8494382642207086
 51
270.1049580046066012
  0
ARC
  5
83E1
  8
0
 10
4494.5812900464570703
 20
162.5884952613311043
 30
0.0
 40
0.6180602263938189
 50
179.7444189768698948
 51
220.4070810208758076
  0
ARC
  5
83E2
  8
0
 10
4494.6998593788466678
 20
162.7283351607067914
 30
0.0
 40
0.8136675310528518
 50
270.6700910402715863
 51
318.3755126909391038
  0
ARC
  5
83E3
  8
0
 10
4494.8374604408900268
 20
162.5884952613311043
 30
0.0
 40
0.6180602263938189
 50
319.5929189791240788
 51
0.2555810231292825
  0
LINE
  5
83E4
  8
0
 10
4484.8434284572686011
 20
169.6801952077966007
 30
0.0
 11
4486.493952651845575
 21
169.1919926078257106
 31
0.0
  0
ARC
  5
83E5
  8
0
 10
4486.5051280205489093
 20
169.2297744967983135
 30
0.0
 40
0.0394
 50
253.5224997374807003
 51
344.2558413221623255
  0
LINE
  5
83E6
  8
0
 10
4484.9862049838320672
 20
169.626617055161887
 30
0.0
 11
4486.3450102593324118
 21
169.2247001190619073
 31
0.0
  0
LINE
  5
83E7
  8
0
 10
4484.8170003757268205
 20
169.7297389218732917
 30
0.0
 11
4485.0152710420134099
 21
170.3636253356239934
 31
0.0
  0
ARC
  5
83E8
  8
0
 10
4484.8546038259710258
 20
169.7179770967692036
 30
0.0
 40
0.0394
 50
162.6310585327931904
 51
253.5224997374807003
  0
LINE
  5
83E9
  8
0
 10
4486.5430498470032035
 20
169.2190836091598101
 30
0.0
 11
4486.683719087776808
 21
169.7180538271882995
 31
0.0
  0
ARC
  5
83EA
  8
0
 10
4494.7517221397429239
 20
166.999112708983688
 30
0.0
 40
10.3013797713365101
 50
139.9771614090601872
 51
160.9369787805578085
  0
ARC
  5
83EB
  8
0
 10
4486.8781334895611508
 20
173.6111880781882917
 30
0.0
 40
0.0197
 50
45.1908875678629087
 51
139.9771614090601872
  0
ARC
  5
83EC
  8
0
 10
4490.323306091100676
 20
170.6661279007016958
 30
0.0
 40
3.4531122725701562
 50
140.7857434938837002
 51
174.6719134719238014
  0
ARC
  5
83ED
  8
0
 10
4486.8693819537957097
 20
170.9882465256224862
 30
0.0
 40
0.0158
 50
332.5746869854227725
 51
354.6719134719205044
  0
ARC
  5
83EE
  8
0
 10
4487.6326155897713761
 20
172.8617165931864861
 30
0.0
 40
0.0197
 50
320.7857434938849792
 51
45.1908875678629087
  0
LINE
  5
83EF
  8
0
 10
4486.8773797523699614
 20
173.6397044600035997
 30
0.0
 11
4487.654879177282055
 21
172.8673685113917031
 31
0.0
  0
LINE
  5
83F0
  8
0
 10
4487.8287104185701537
 20
173.0331997255036072
 30
0.0
 11
4487.7843169275693072
 21
172.9885094404035897
 31
0.0
  0
LINE
  5
83F1
  8
0
 10
4487.7843169275693072
 20
172.9885094404035897
 30
0.0
 11
4487.7820581050700639
 21
172.9907532618036043
 31
0.0
  0
LINE
  5
83F2
  8
0
 10
4487.7820581050700639
 20
172.9907532618036043
 30
0.0
 11
4487.6599186289222416
 21
172.8703654552103899
 31
0.0
  0
ARC
  5
83F3
  8
0
 10
4487.6515913322127744
 20
172.878632589394897
 30
0.0
 40
0.0117341117310146
 50
286.2718718493234746
 51
315.207722921399295
  0
LINE
  5
83F4
  8
0
 10
4487.7397658102700007
 20
172.9606236241035901
 30
0.0
 11
4487.6509787801442144
 21
172.8712430054775098
 31
0.0
  0
ARC
  5
83F5
  8
0
 10
4488.1386086018137576
 20
172.562617966732887
 30
0.0
 40
0.5634572527402378
 50
123.3666104744083043
 51
135.0601924210438938
  0
LINE
  5
83F6
  8
0
 10
4487.8287104185701537
 20
173.0331997255036072
 30
0.0
 11
4487.8282909079798628
 21
173.0336165445883125
 31
0.0
  0
ARC
  5
83F7
  8
0
 10
4488.1094750920219667
 20
172.5949016492068893
 30
0.0
 40
0.521090495772481
 50
122.2130615179700044
 51
135.3103966105308871
  0
LINE
  5
83F8
  8
0
 10
4487.7390177387360382
 20
172.9613667282810923
 30
0.0
 11
4487.6585550597701513
 21
172.8803649787035965
 31
0.0
  0
LINE
  5
83F9
  8
0
 10
4487.6585550597701513
 20
172.8803649787035965
 30
0.0
 11
4487.6482851566261161
 21
172.8739187402335062
 31
0.0
  0
LINE
  5
83FA
  8
0
 10
4486.8600897037986215
 20
170.9360356450897882
 30
0.0
 11
4486.8834062231480857
 21
170.9809691724545075
 31
0.0
  0
LINE
  5
83FB
  8
0
 10
4486.8600899740349632
 20
170.936036165864806
 30
0.0
 11
4487.0709786794641332
 21
170.8343210411908046
 31
0.0
  0
LINE
  5
83FC
  8
0
 10
4487.0862212840766006
 20
170.7920648887680954
 30
0.0
 11
4486.8573232263215687
 21
170.291782161172506
 31
0.0
  0
LINE
  5
83FD
  8
0
 10
4486.8548306888678781
 20
170.2809202317436075
 30
0.0
 11
4486.8540471449687175
 21
170.245326528803588
 31
0.0
  0
LINE
  5
83FE
  8
0
 10
4486.8446438458686316
 20
170.2070954242036009
 30
0.0
 11
4486.7235768053524225
 21
169.97656899057381
 31
0.0
  0
ARC
  5
83FF
  8
0
 10
4488.0211152446918277
 20
169.8577631149680087
 30
0.0
 40
1.3438014346257161
 50
175.8730387782092066
 51
185.7458304704763066
  0
ARC
  5
8400
  8
0
 10
4423.3028346148512355
 20
179.3197225289314929
 30
0.0
 40
64.0661703880297182
 50
351.5943316325182764
 51
352.2500925078637124
  0
ARC
  5
8401
  8
0
 10
4487.5666897861292455
 20
170.5860448435593923
 30
0.0
 40
0.7885285267866362
 50
153.6500186339983998
 51
173.1244322955272992
  0
ARC
  5
8402
  8
0
 10
4487.0547226494945789
 20
169.8212115190115128
 30
0.0
 40
0.3657779573231395
 50
154.8663217383239896
 51
170.9974491812693032
  0
ARC
  5
8403
  8
0
 10
4467.7072138909761634
 20
172.8857722058926072
 30
0.0
 40
19.2229337760397883
 50
350.7342641247312258
 51
350.9994116529775852
  0
ARC
  5
8404
  8
0
 10
4486.7635303715742339
 20
170.2473180118684013
 30
0.0
 40
0.0905386783138286
 50
333.624085196617898
 51
358.7396239964065785
  0
ARC
  5
8405
  8
0
 10
4486.882385774465547
 20
170.2803139900566975
 30
0.0
 40
0.0275617537209296
 50
155.4120199437348049
 51
178.7396341843086987
  0
ARC
  5
8406
  8
0
 10
4487.0570292829834216
 20
170.8054120002202865
 30
0.0
 40
0.0320985718061608
 50
335.4292625956344978
 51
64.2414300554015085
  0
ARC
  5
8407
  8
0
 10
4486.3467290397084071
 20
169.2390088166420128
 30
0.0
 40
0.0144115589865413
 50
263.1503713320689144
 51
330.1754489022774237
  0
ARC
  5
8408
  8
0
 10
4484.9909078795863024
 20
169.6385020833700992
 30
0.0
 40
0.0127816714082641
 50
171.8403439892744871
 51
248.4113357500449126
  0
ARC
  5
8409
  8
0
 10
4486.6704155749148413
 20
169.7215425855887077
 30
0.0
 40
0.0137533592136744
 50
345.3054514839612921
 51
7.0371682398352151
  0
LINE
  5
840A
  8
0
 10
4486.0342852453686646
 20
169.2164970445705023
 30
0.0
 11
4485.2424712404663296
 21
169.4507053532045973
 31
0.0
  0
LINE
  5
840B
  8
0
 10
4485.2357060387048477
 20
169.4630891888228916
 30
0.0
 11
4485.2370383933921403
 21
169.467666971796092
 31
0.0
  0
ARC
  5
840C
  8
0
 10
4485.2453076338051687
 20
169.4602946635461933
 30
0.0
 40
0.01
 50
163.772467424342608
 51
253.5224678131484097
  0
LINE
  5
840D
  8
0
 10
4485.130226932837104
 20
169.5840172349230102
 30
0.0
 11
4485.1368021556700114
 21
169.4972739689036132
 31
0.0
  0
LINE
  5
840E
  8
0
 10
4485.1529954987699966
 20
169.4926496656036079
 30
0.0
 11
4485.1466630031845852
 21
169.5791556589823017
 31
0.0
  0
LINE
  5
840F
  8
0
 10
4485.2004612317687133
 20
169.4790352267035871
 30
0.0
 11
4485.1948263737158413
 21
169.5649095601002045
 31
0.0
  0
LINE
  5
8410
  8
0
 10
4485.2649454066504404
 20
169.4650158257717862
 30
0.0
 11
4485.2746322261482419
 21
169.4829482018637918
 31
0.0
  0
ARC
  5
8411
  8
0
 10
4485.4677811643223322
 20
170.8598224580919123
 30
0.0
 40
1.402171704734412
 50
256.3466275629277789
 51
257.0241268399386172
  0
ARC
  5
8412
  8
0
 10
4485.0430439570427552
 20
168.9379435644833052
 30
0.0
 40
0.567134112109895
 50
78.834288113786414
 51
80.4842178666412451
  0
ARC
  5
8413
  8
0
 10
4485.2730072465710691
 20
169.8937730793952881
 30
0.0
 40
0.418691787239926
 50
253.3433908821959051
 51
260.0001566173609717
  0
ARC
  5
8414
  8
0
 10
4485.1162354122407123
 20
169.154931430066398
 30
0.0
 40
0.3397129826426818
 50
75.7029230873193768
 51
83.7879031405067565
  0
ARC
  5
8415
  8
0
 10
4485.1338354259105472
 20
169.2317175293030118
 30
0.0
 40
0.2602467931406827
 50
75.2312716139465891
 51
82.9623744105715843
  0
ARC
  5
8416
  8
0
 10
4485.2368632345460355
 20
169.7251073815714051
 30
0.0
 40
0.2456318066326704
 50
253.1642569552271027
 51
261.428238336152674
  0
ARC
  5
8417
  8
0
 10
4485.2781027843193442
 20
169.680846649327691
 30
0.0
 40
0.2162314985934771
 50
248.9571038381872086
 51
266.5114786995692953
  0
ARC
  5
8418
  8
0
 10
4485.1884311353123849
 20
169.2683894890988938
 30
0.0
 40
0.2109889807355183
 50
68.7372261046677977
 51
86.7313564330900846
  0
ARC
  5
8419
  8
0
 10
4485.2054142616298122
 20
169.3469698123743967
 30
0.0
 40
0.129582996107961
 50
68.813502395631815
 51
86.5701990396732697
  0
ARC
  5
841A
  8
0
 10
4485.2599209895079184
 20
169.596789521000801
 30
0.0
 40
0.1292234685925682
 50
248.7886004487506
 51
266.5951009865394781
  0
LINE
  5
841B
  8
0
 10
4485.3402844739757711
 20
169.4426077271934901
 30
0.0
 11
4485.3719160795317293
 21
169.4992131315727875
 31
0.0
  0
LINE
  5
841C
  8
0
 10
4485.2759857428700343
 20
169.4574126038035899
 30
0.0
 11
4485.2714898027079471
 21
169.5422335144247938
 31
0.0
  0
ARC
  5
841D
  8
0
 10
4485.2766318344556566
 20
169.3131889931337923
 30
0.0
 40
0.1442250578401164
 50
63.8104341943436921
 51
90.2566713821832565
  0
ARC
  5
841E
  8
0
 10
4485.3400895034001223
 20
169.5887905912634039
 30
0.0
 40
0.1461829938916124
 50
243.9906876532504043
 51
270.0764179232712081
  0
ARC
  5
841F
  8
0
 10
4485.288364195846043
 20
169.3648897678720004
 30
0.0
 40
0.0897049792389802
 50
64.046855328114404
 51
89.8112214232817081
  0
ARC
  5
8420
  8
0
 10
4485.3278647183879002
 20
169.535023706427296
 30
0.0
 40
0.0894758341567451
 50
244.0132947831515935
 51
269.8447819682450017
  0
LINE
  5
8421
  8
0
 10
4485.4391647180318614
 20
169.4131210980679043
 30
0.0
 11
4485.4779162504510168
 21
169.4811752547149126
 31
0.0
  0
LINE
  5
8422
  8
0
 10
4485.3748659869252151
 20
169.4279259746780042
 30
0.0
 11
4485.3714514892626539
 21
169.5104403719986124
 31
0.0
  0
ARC
  5
8423
  8
0
 10
4485.3755120785126564
 20
169.2837023640082066
 30
0.0
 40
0.1442250578401164
 50
63.8104341943436921
 51
90.2566713821832565
  0
ARC
  5
8424
  8
0
 10
4485.4389697474553031
 20
169.5593039621377898
 30
0.0
 40
0.1461829938915956
 50
243.9906876532500917
 51
270.0764179232712081
  0
ARC
  5
8425
  8
0
 10
4485.3872444399021333
 20
169.3354031387463863
 30
0.0
 40
0.0897049792389802
 50
64.046855328114404
 51
89.8112214232817081
  0
ARC
  5
8426
  8
0
 10
4485.426744962443081
 20
169.5055370773017103
 30
0.0
 40
0.0894758341567451
 50
244.0132947831515935
 51
269.8447819682450017
  0
LINE
  5
8427
  8
0
 10
4485.4876750092407747
 20
169.4782887407282885
 30
0.0
 11
4485.4892277253702559
 21
169.3968483450036047
 31
0.0
  0
LINE
  5
8428
  8
0
 10
4485.5529548522054029
 20
169.3798841343271988
 30
0.0
 11
4485.5941220624981725
 21
169.4468030861804095
 31
0.0
  0
LINE
  5
8429
  8
0
 10
4485.6123380738690685
 20
169.3616703648035866
 30
0.0
 11
4485.612441300442697
 21
169.441384493745403
 31
0.0
  0
ARC
  5
842A
  8
0
 10
4485.500781766115324
 20
169.3120723515287978
 30
0.0
 40
0.0855597383649005
 50
52.4260065639029591
 51
97.7609694738053747
  0
ARC
  5
842B
  8
0
 10
4485.5426174964513848
 20
169.4692307965208897
 30
0.0
 40
0.0899426869938559
 50
233.5872710875864868
 51
276.5997432967313898
  0
ARC
  5
842C
  8
0
 10
4485.5084473956931106
 20
169.3428775482225888
 30
0.0
 40
0.0513493956911137
 50
51.6025009523709315
 51
97.4206579674151243
  0
ARC
  5
842D
  8
0
 10
4485.5345868978120052
 20
169.437207573446301
 30
0.0
 40
0.0543916889962968
 50
232.9502552027900038
 51
276.0729037169871845
  0
ARC
  5
842E
  8
0
 10
4484.9970734858115975
 20
169.6342326097106934
 30
0.0
 40
0.0108179564626311
 50
160.8984149926789939
 51
237.2677127595434001
  0
ARC
  5
842F
  8
0
 10
4485.0188530695213558
 20
169.6267426852593019
 30
0.0
 40
0.0096870260618482
 50
154.614230816045108
 51
239.0764369081927896
  0
LINE
  5
8430
  8
0
 10
4486.0466984820277503
 20
169.2232081469495881
 30
0.0
 11
4486.0483214278820014
 21
169.2286082772926079
 31
0.0
  0
ARC
  5
8431
  8
0
 10
4486.0371216391413327
 20
169.2260863547836038
 30
0.0
 40
0.01
 50
253.522465218043493
 51
343.2724656068591003
  0
LINE
  5
8432
  8
0
 10
4486.2009883073778838
 20
169.2672999137732006
 30
0.0
 11
4486.1528420087097402
 21
169.2040756368936059
 31
0.0
  0
LINE
  5
8433
  8
0
 10
4486.1321810260560596
 20
169.2030192918481077
 30
0.0
 11
4486.1845522372514097
 21
169.2721614904590979
 31
0.0
  0
LINE
  5
8434
  8
0
 10
4486.0849466531599319
 20
169.2174159155109976
 30
0.0
 11
4486.1363888673649853
 21
169.2864075915252045
 31
0.0
  0
LINE
  5
8435
  8
0
 10
4486.0232118576732319
 20
169.2407304482863992
 30
0.0
 11
4486.0248385470113135
 21
169.2610469062967127
 31
0.0
  0
ARC
  5
8436
  8
0
 10
4486.249683055627429
 20
169.6048850477280894
 30
0.0
 40
0.418691787239926
 50
247.0447764138480125
 51
253.7015421489738003
  0
ARC
  5
8437
  8
0
 10
4485.9793139635712578
 20
168.8996439932770954
 30
0.0
 40
0.3397129826426818
 50
63.2570298906830573
 51
71.3420099438341708
  0
ARC
  5
8438
  8
0
 10
4486.0063160284425976
 20
168.9736490877625954
 30
0.0
 40
0.2602467931406827
 50
64.0825586206428142
 51
71.8136614172602918
  0
ARC
  5
8439
  8
0
 10
4486.1882604417569382
 20
169.4436964323328993
 30
0.0
 40
0.2456318066326704
 50
245.6166946949992109
 51
253.8806760759603947
  0
ARC
  5
843A
  8
0
 10
4486.129579437088978
 20
169.4289909035950075
 30
0.0
 40
0.2162314985934771
 50
240.5334543315977101
 51
258.0878291930080195
  0
ARC
  5
843B
  8
0
 10
4485.9804537640311537
 20
169.034119472246914
 30
0.0
 40
0.2109889807355183
 50
60.3135765980809566
 51
78.3077069264980992
  0
ARC
  5
843C
  8
0
 10
4486.0089494815656508
 20
169.1092945204196951
 30
0.0
 40
0.129582996107961
 50
60.4747339914786579
 51
78.2314306355635978
  0
ARC
  5
843D
  8
0
 10
4486.099110240455957
 20
169.3485682292943864
 30
0.0
 40
0.1292234685925682
 50
240.449832044620706
 51
258.2563325824085041
  0
LINE
  5
843E
  8
0
 10
4485.9478054563533078
 20
169.2629109033669863
 30
0.0
 11
4485.9520557307596391
 21
169.3276153502197872
 31
0.0
  0
LINE
  5
843F
  8
0
 10
4486.0098119304147986
 20
169.2403563391349905
 30
0.0
 11
4486.0597254394006086
 21
169.3090836406765902
 31
0.0
  0
ARC
  5
8440
  8
0
 10
4485.9308148699483354
 20
169.119690139450114
 30
0.0
 40
0.1442250578401164
 50
56.7882616490036014
 51
83.2344988368559058
  0
ARC
  5
8441
  8
0
 10
4486.0274897792705815
 20
169.3854665088782951
 30
0.0
 40
0.1461829938916124
 50
236.9685151079391119
 51
263.0542453779503944
  0
ARC
  5
8442
  8
0
 10
4485.9490945229217687
 20
169.1694543102900923
 30
0.0
 40
0.0897049792389802
 50
57.2337116079160921
 51
82.9980777030731645
  0
ARC
  5
8443
  8
0
 10
4486.0084993927312098
 20
169.3337008011885985
 30
0.0
 40
0.0894758341567451
 50
237.2001510629594918
 51
263.0316382480460788
  0
LINE
  5
8444
  8
0
 10
4485.8487951268543839
 20
169.2919577382108969
 30
0.0
 11
4485.8532989944269502
 21
169.370141909746394
 31
0.0
  0
LINE
  5
8445
  8
0
 10
4485.9108016009176936
 20
169.2694031739789011
 30
0.0
 11
4485.9598570079679121
 21
169.3386234438445115
 31
0.0
  0
ARC
  5
8446
  8
0
 10
4485.8318045404494114
 20
169.1487369742939961
 30
0.0
 40
0.1442250578401164
 50
56.7882616490036014
 51
83.2344988368559058
  0
ARC
  5
8447
  8
0
 10
4485.928479449774386
 20
169.414513343722092
 30
0.0
 40
0.1461829938915956
 50
236.9685151079391119
 51
263.0542453779503944
  0
ARC
  5
8448
  8
0
 10
4485.8500841934246637
 20
169.1985011451340029
 30
0.0
 40
0.0897049792389802
 50
57.2337116079160921
 51
82.9980777030731645
  0
ARC
  5
8449
  8
0
 10
4485.9094890632331953
 20
169.362747636032509
 30
0.0
 40
0.0894758341567451
 50
237.2001510629594918
 51
263.0316382480460788
  0
LINE
  5
844A
  8
0
 10
4485.8435402357690691
 20
169.3730284241754021
 30
0.0
 11
4485.7979353149148665
 21
169.3055366455863009
 31
0.0
  0
LINE
  5
844B
  8
0
 10
4485.7352338354849053
 20
169.3259683761957888
 30
0.0
 11
4485.7370931839386685
 21
169.4045140835499126
 31
0.0
  0
ARC
  5
844C
  8
0
 10
4485.7421238059359894
 20
169.240686507632887
 30
0.0
 40
0.0855597383649005
 50
49.2839635573850217
 51
94.6189264672512991
  0
ARC
  5
844D
  8
0
 10
4485.7925107848741391
 20
169.3953156042429953
 30
0.0
 40
0.0899426869938559
 50
230.4451897344515885
 51
273.4576619435968041
  0
ARC
  5
844E
  8
0
 10
4485.7524490423993484
 20
169.2707050271187086
 30
0.0
 40
0.0513493956911137
 50
49.624275063766639
 51
95.4424320788282756
  0
ARC
  5
844F
  8
0
 10
4485.7818292096098958
 20
169.3640765056570103
 30
0.0
 40
0.0543916889962968
 50
230.9720293141741081
 51
274.0946778284201173
  0
ARC
  5
8450
  8
0
 10
4486.3400332405290101
 20
169.2370025395570963
 30
0.0
 40
0.0108179564626311
 50
269.77722027167448
 51
346.1465180385021085
  0
ARC
  5
8451
  8
0
 10
4486.317683670000406
 20
169.2425654463411036
 30
0.0
 40
0.0096870260618482
 50
267.9684961229968962
 51
352.430702215143981
  0
LINE
  5
8452
  8
0
 10
4486.1327935433164384
 20
169.2038279573172019
 30
0.0
 11
4486.1404346467643336
 21
169.2010439818349994
 31
0.0
  0
ARC
  5
8453
  8
0
 10
4486.1445874712662771
 20
169.2109531516317134
 30
0.0
 40
0.0107441890061309
 50
247.2619761794175872
 51
320.199617252287112
  0
LINE
  5
8454
  8
0
 10
4485.6756905882193678
 20
169.3434092440976997
 30
0.0
 11
4485.718775351973818
 21
169.409932263639206
 31
0.0
  0
ARC
  5
8455
  8
0
 10
4485.6647307818047921
 20
169.424410488416413
 30
0.0
 40
0.0817393353153612
 50
230.135587143595103
 51
277.7055629980218896
  0
ARC
  5
8456
  8
0
 10
4485.6246772970216625
 20
169.285454671281002
 30
0.0
 40
0.0772080849977554
 50
48.6448316533565972
 51
99.1963184882529845
  0
ARC
  5
8457
  8
0
 10
4485.6316045134071828
 20
169.3106971745390865
 30
0.0
 40
0.0482122611659606
 50
49.0156589982061277
 51
98.0317393672103918
  0
ARC
  5
8458
  8
0
 10
4485.6564883606306466
 20
169.3948314115679921
 30
0.0
 40
0.0482122611658342
 50
229.0156589981374111
 51
278.0317393672632988
  0
ENDSEC
  0
EOF
