  0
SECTION
  2
HEADER
  9
$ACADVER
  1
AC1009
  9
$INSBASE
 10
7110.4166679675927298
 20
349.1597411471062173
 30
0.0
  9
$EXTMIN
 10
7105.9296187128720703
 20
348.2837568950955074
 30
0.0
  9
$EXTMAX
 10
7114.9037172223133894
 20
350.0357253991168136
 30
0.0
  9
$LIMMIN
 10
0.0
 20
0.0
  9
$LIMMAX
 10
11.6929133858000007
 20
8.2677165353999982
  9
$ORTHOMODE
 70
     0
  9
$REGENMODE
 70
     1
  9
$FILLMODE
 70
     1
  9
$QTEXTMODE
 70
     0
  9
$MIRRTEXT
 70
     0
  9
$DRAGMODE
 70
     2
  9
$LTSCALE
 40
0.6431102362
  9
$OSMODE
 70
  4095
  9
$ATTMODE
 70
     1
  9
$TEXTSIZE
 40
0.2
  9
$TRACEWID
 40
0.05
  9
$TEXTSTYLE
  7
STANDARD
  9
$CLAYER
  8
0
  9
$CELTYPE
  6
BYLAYER
  9
$CECOLOR
 62
   256
  9
$DIMSCALE
 40
1.0
  9
$DIMASZ
 40
0.1875
  9
$DIMEXO
 40
0.0625
  9
$DIMDLI
 40
0.4443307087
  9
$DIMRND
 40
0.0
  9
$DIMDLE
 40
0.0
  9
$DIMEXE
 40
0.125
  9
$DIMTP
 40
0.01
  9
$DIMTM
 40
0.01
  9
$DIMTXT
 40
2.0
  9
$DIMCEN
 40
0.1052362205
  9
$DIMTSZ
 40
0.0
  9
$DIMTOL
 70
     1
  9
$DIMLIM
 70
     0
  9
$DIMTIH
 70
     1
  9
$DIMTOH
 70
     1
  9
$DIMSE1
 70
     0
  9
$DIMSE2
 70
     0
  9
$DIMTAD
 70
     0
  9
$DIMZIN
 70
     0
  9
$DIMBLK
  1

  9
$DIMASO
 70
     1
  9
$DIMSHO
 70
     1
  9
$DIMPOST
  1
\X
  9
$DIMAPOST
  1

  9
$DIMALT
 70
     1
  9
$DIMALTD
 70
     2
  9
$DIMALTF
 40
25.3999999999999986
  9
$DIMLFAC
 40
1.0
  9
$DIMTOFL
 70
     0
  9
$DIMTVP
 40
0.0
  9
$DIMTIX
 70
     0
  9
$DIMSOXD
 70
     0
  9
$DIMSAH
 70
     0
  9
$DIMBLK1
  1

  9
$DIMBLK2
  1

  9
$DIMSTYLE
  2
STANDARD
  9
$DIMCLRD
 70
     0
  9
$DIMCLRE
 70
     0
  9
$DIMCLRT
 70
     0
  9
$DIMTFAC
 40
1.0
  9
$DIMGAP
 40
0.09
  9
$LUNITS
 70
     2
  9
$LUPREC
 70
     4
  9
$SKETCHINC
 40
0.1
  9
$FILLETRAD
 40
0.0
  9
$AUNITS
 70
     0
  9
$AUPREC
 70
     0
  9
$MENU
  1
.
  9
$ELEVATION
 40
0.0
  9
$PELEVATION
 40
0.0
  9
$THICKNESS
 40
0.0
  9
$LIMCHECK
 70
     0
  9
$BLIPMODE
 70
     0
  9
$CHAMFERA
 40
0.0
  9
$CHAMFERB
 40
0.0
  9
$SKPOLY
 70
     0
  9
$TDCREATE
 40
2458060.468368056230247
  9
$TDUPDATE
 40
2460555.4863310190849006
  9
$TDINDWG
 40
1.0074607638999999
  9
$TDUSRTIMER
 40
1.0074607638999999
  9
$USRTIMER
 70
     1
  9
$ANGBASE
 50
0.0
  9
$ANGDIR
 70
     0
  9
$PDMODE
 70
     0
  9
$PDSIZE
 40
0.3125
  9
$PLINEWID
 40
0.0
  9
$COORDS
 70
     0
  9
$SPLFRAME
 70
     0
  9
$SPLINETYPE
 70
     6
  9
$SPLINESEGS
 70
     8
  9
$ATTDIA
 70
     1
  9
$ATTREQ
 70
     1
  9
$HANDLING
 70
     1
  9
$HANDSEED
  5
349F8
  9
$SURFTAB1
 70
     6
  9
$SURFTAB2
 70
     6
  9
$SURFTYPE
 70
     6
  9
$SURFU
 70
     6
  9
$SURFV
 70
     6
  9
$UCSNAME
  2

  9
$UCSORG
 10
0.0
 20
0.0
 30
0.0
  9
$UCSXDIR
 10
1.0
 20
0.0
 30
0.0
  9
$UCSYDIR
 10
0.0
 20
1.0
 30
0.0
  9
$PUCSNAME
  2

  9
$PUCSORG
 10
0.0
 20
0.0
 30
0.0
  9
$PUCSXDIR
 10
1.0
 20
0.0
 30
0.0
  9
$PUCSYDIR
 10
0.0
 20
1.0
 30
0.0
  9
$USERI1
 70
     0
  9
$USERI2
 70
     0
  9
$USERI3
 70
     0
  9
$USERI4
 70
     0
  9
$USERI5
 70
     0
  9
$USERR1
 40
0.0
  9
$USERR2
 40
0.0
  9
$USERR3
 40
0.0
  9
$USERR4
 40
0.0
  9
$USERR5
 40
0.0
  9
$WORLDVIEW
 70
     1
  9
$SHADEDGE
 70
     3
  9
$SHADEDIF
 70
    70
  9
$TILEMODE
 70
     1
  9
$MAXACTVP
 70
    64
  9
$PLIMCHECK
 70
     0
  9
$PEXTMIN
 10
1.0000000000000000E+20
 20
1.0000000000000000E+20
 30
1.0000000000000000E+20
  9
$PEXTMAX
 10
-1.0000000000000000E+20
 20
-1.0000000000000000E+20
 30
-1.0000000000000000E+20
  9
$PLIMMIN
 10
0.0
 20
0.0
  9
$PLIMMAX
 10
12.0
 20
9.0
  9
$UNITMODE
 70
     0
  9
$VISRETAIN
 70
     1
  9
$PLINEGEN
 70
     0
  9
$PSLTSCALE
 70
     1
  0
ENDSEC
  0
SECTION
  2
TABLES
  0
TABLE
  2
VPORT
 70
     1
  0
VPORT
  2
*ACTIVE
 70
     0
 10
0.0
 20
0.0
 11
1.0
 21
1.0
 12
3199.0513115222811393
 22
216.580136044567098
 13
0.0
 23
0.0
 14
1.0
 24
1.0
 15
0.0
 25
0.0
 16
0.0
 26
0.0
 36
60.4960186965801583
 17
3911.3653564453120453
 27
132.5796051025390057
 37
0.0
 40
4.0147980581033957
 41
2.2423167848699759
 42
50.0
 43
0.0
 44
0.0
 50
0.0
 51
0.0
 71
     0
 72
   100
 73
     1
 74
     1
 75
     0
 76
     0
 77
     0
 78
     0
  0
ENDTAB
  0
TABLE
  2
LTYPE
 70
     2
  0
LTYPE
  2
CONTINUOUS
 70
     0
  3
Solid line
 72
    65
 73
     0
 40
0.0
  0
LTYPE
  2
PHANTOM2
 70
     0
  3
___ _ _ ___ _ _ ___ _ _ ___ _ _
 72
    65
 73
     6
 40
1.25
 49
0.625
 49
-0.125
 49
0.125
 49
-0.125
 49
0.125
 49
-0.125
  0
ENDTAB
  0
TABLE
  2
LAYER
 70
     2
  0
LAYER
  2
0
 70
     0
 62
   255
  6
CONTINUOUS
  0
LAYER
  2
DEFPOINTS
 70
     0
 62
     7
  6
CONTINUOUS
  0
ENDTAB
  0
TABLE
  2
STYLE
 70
     1
  0
STYLE
  2
STANDARD
 70
     0
 40
0.0
 41
0.8
 50
0.0
 71
     0
 42
0.2
  3
txt
  4

  0
ENDTAB
  0
TABLE
  2
VIEW
 70
     0
  0
ENDTAB
  0
TABLE
  2
UCS
 70
     0
  0
ENDTAB
  0
TABLE
  2
APPID
 70
    11
  0
APPID
  2
ACAD
 70
     0
  0
APPID
  2
ACAD_MLEADERVER
 70
     0
  0
APPID
  2
ACAD_EXEMPT_FROM_CAD_STANDARDS
 70
     0
  0
APPID
  2
ACAD_NAV_VCDISPLAY
 70
     0
  0
APPID
  2
ACAECLAYERSTANDARD
 70
     0
  0
APPID
  2
ACCMTRANSPARENCY
 70
     0
  0
APPID
  2
ACAD_DSTYLE_DIMJAG
 70
     0
  0
APPID
  2
ACAD_DSTYLE_DIMTALN
 70
     0
  0
APPID
  2
ACDBATTR
 70
     0
  0
APPID
  2
ACADANNOTATIVE
 70
     0
  0
APPID
  2
DCO15
 70
     0
  0
ENDTAB
  0
TABLE
  2
DIMSTYLE
 70
     1
  0
DIMSTYLE
  2
STANDARD
 70
     0
  3

  4

  5

  6

  7

 40
1.0
 41
0.1875
 42
0.0625
 43
0.38
 44
0.125
 45
0.0
 46
0.0
 47
0.01
 48
0.01
140
0.15625
141
0.09
142
0.0
143
25.3999999999999986
144
1.0
145
0.0
146
1.0
147
0.09
 71
     1
 72
     0
 73
     1
 74
     1
 75
     0
 76
     0
 77
     0
 78
     4
170
     0
171
     2
172
     0
173
     0
174
     0
175
     0
176
     0
177
     0
178
     0
  0
ENDTAB
  0
ENDSEC
  0
SECTION
  2
BLOCKS
  0
BLOCK
  8
0
  2
$MODEL_SPACE
 70
     0
 10
0.0
 20
0.0
 30
0.0
  3
$MODEL_SPACE
  1

  0
ENDBLK
  5
21
  8
0
  0
BLOCK
 67
     1
  8
0
  2
$PAPER_SPACE
 70
     0
 10
0.0
 20
0.0
 30
0.0
  3
$PAPER_SPACE
  1

  0
ENDBLK
  5
1D
 67
     1
  8
0
  0
BLOCK
  8
0
  2
_FILLED
 70
     0
 10
0.0
 20
0.0
 30
0.0
  3
_FILLED
  1

  0
SOLID
  5
2853B
  8
0
  6
BYBLOCK
 62
     0
 10
0.0
 20
0.0
 30
0.0
 11
-1.0
 21
0.1666666667
 31
0.0
 12
-1.0
 22
-0.1666666667
 32
0.0
 13
-1.0
 23
-0.1666666667
 33
0.0
  0
ENDBLK
  5
2853C
  8
0
  6
BYBLOCK
 62
     0
  0
ENDSEC
  0
SECTION
  2
ENTITIES
  0
ATTDEF
  5
2842F
  8
DEFPOINTS
 10
7110.4170314928878724
 20
349.1579461727699254
 30
0.0
 40
0.001
  1
K-5632IN
  3

  2
MODELNUMBER
 70
     0
1001
ACDBATTR
1070
     0
1070
     1
  0
ATTDEF
  5
28430
  8
DEFPOINTS
 10
7110.4169056832297429
 20
349.1562793323907954
 30
0.0
 40
0.001
  1
COMPLEMENTARY
  3

  2
TRADENAME
 70
     0
1001
ACDBATTR
1070
     0
1070
     1
  0
ATTDEF
  5
28431
  8
DEFPOINTS
 10
7110.4170314928878724
 20
349.1546128394365951
 30
0.0
 40
0.001
  1
TOILET TISSUE HOLDER
  3

  2
PRODUCT
 70
     0
1001
ACDBATTR
1070
     0
1070
     1
  0
ARC
  5
34822
  8
0
 10
7106.8056029648823824
 20
349.1597411471062173
 30
0.0
 40
0.8759842520106401
 50
25.2751869030942693
 51
334.7248130969056774
  0
ARC
  5
34823
  8
0
 10
7106.8056029648823824
 20
349.1597411998561142
 30
0.0
 40
0.8240353163148206
 50
26.9930932461383684
 51
333.006898521567507
  0
ARC
  5
34824
  8
0
 10
7106.8056029648823824
 20
349.1597411998561142
 30
0.0
 40
0.7842409599148211
 50
28.4840604976871106
 51
331.5159307331048808
  0
ARC
  5
34825
  8
0
 10
7106.9047524225952657
 20
344.9882295898340203
 30
0.0
 40
4.645383439618068
 50
91.2230474359551522
 51
95.1328080278007775
  0
ARC
  5
34826
  8
0
 10
7106.5065975334082395
 20
349.4587557384210186
 30
0.0
 40
0.1572
 50
96.37054059158163
 51
173.6409925602347073
  0
ARC
  5
34827
  8
0
 10
7109.1898081723447831
 20
349.1597411471062173
 30
0.0
 40
2.8570201900731331
 50
173.6412315387065064
 51
186.3587684612934083
  0
ARC
  5
34828
  8
0
 10
7107.3242322465748657
 20
360.888281475583085
 30
0.0
 40
12.2123688186163104
 50
266.0790759778232086
 51
267.5660368481758269
  0
ARC
  5
34829
  8
0
 10
7106.5065975334082395
 20
348.8607265557913024
 30
0.0
 40
0.1572
 50
186.3590074397652074
 51
263.6294594084183132
  0
ARC
  5
3482A
  8
0
 10
7106.7856286547066702
 20
350.7318622487949256
 30
0.0
 40
2.1284257266984499
 50
268.5818715232528007
 51
270.5375865707711114
  0
ARC
  5
3482B
  8
0
 10
7106.7305555077200552
 20
348.3079073119217242
 30
0.0
 40
0.2961908331504585
 50
89.5361523314629153
 51
93.8712406645849882
  0
ARC
  5
3482C
  8
0
 10
7106.7137159889625764
 20
348.5529437870566767
 30
0.0
 40
0.0505772036662786
 50
93.5794418966563768
 51
104.3221283162397981
  0
ARC
  5
3482D
  8
0
 10
7106.7031958131410647
 20
348.5941495842437803
 30
0.0
 40
0.0080496617533034
 50
104.3221283162390023
 51
132.329727606161498
  0
ARC
  5
3482E
  8
0
 10
7106.6995730283888406
 20
348.5987908331745757
 30
0.0
 40
0.0022243080121999
 50
143.9266035959909971
 51
226.3558559765768905
  0
ARC
  5
3482F
  8
0
 10
7106.7375045292183131
 20
348.6497912797730123
 30
0.0
 40
0.0657680374735147
 50
233.1237368086437982
 51
256.1274330181365144
  0
ARC
  5
34830
  8
0
 10
7106.7987795596782234
 20
348.8484459878284838
 30
0.0
 40
0.2735768567808569
 50
253.6432869785226103
 51
264.846263878238517
  0
ARC
  5
34831
  8
0
 10
7106.8189426522112626
 20
349.1825789765711079
 30
0.0
 40
0.6082513614287576
 50
265.7819751643274913
 51
268.7429267784361855
  0
ARC
  5
34832
  8
0
 10
7106.7064448722394445
 20
344.9882295898340203
 30
0.0
 40
4.645383439618068
 50
84.8671919721992225
 51
88.776952564044862
  0
ARC
  5
34833
  8
0
 10
7107.1045997614291991
 20
349.4587557384210186
 30
0.0
 40
0.1572
 50
6.3590074397652314
 51
83.6294594084183842
  0
ARC
  5
34834
  8
0
 10
7104.4213891224890176
 20
349.1597411471062173
 30
0.0
 40
2.8570201900731331
 50
353.6412315387065064
 51
6.3587684612934874
  0
ARC
  5
34835
  8
0
 10
7106.2869650482616635
 20
360.888281475583085
 30
0.0
 40
12.2123688186163104
 50
272.4339631518241731
 51
273.9209240221767914
  0
ARC
  5
34836
  8
0
 10
7107.1045997614291991
 20
348.8607265557913024
 30
0.0
 40
0.1572
 50
276.3705405915815732
 51
353.6409925602347926
  0
ARC
  5
34837
  8
0
 10
7106.8255686401289495
 20
350.7318622487949256
 30
0.0
 40
2.1284257266984499
 50
269.4624134292287749
 51
271.4181284767471993
  0
ARC
  5
34838
  8
0
 10
7106.8806417871137455
 20
348.3079073119217242
 30
0.0
 40
0.2961908331504585
 50
86.128759335415026
 51
90.4638476685370989
  0
ARC
  5
34839
  8
0
 10
7106.8974813058712243
 20
348.5529437870566767
 30
0.0
 40
0.0505772036662786
 50
75.6778716837601593
 51
86.4205581033436374
  0
ARC
  5
3483A
  8
0
 10
7106.908001481696374
 20
348.5941495842437803
 30
0.0
 40
0.0080496617533034
 50
47.6702723938384594
 51
75.6778716837609835
  0
ARC
  5
3483B
  8
0
 10
7106.9116242664458696
 20
348.5987908331745757
 30
0.0
 40
0.0022243080121999
 50
313.6441440234231095
 51
36.0733964040089674
  0
ARC
  5
3483C
  8
0
 10
7106.8736927656191256
 20
348.6497912797730123
 30
0.0
 40
0.0657680374735147
 50
283.8725669818634856
 51
306.8762631913560881
  0
ARC
  5
3483D
  8
0
 10
7106.8124177351583057
 20
348.8484459878284838
 30
0.0
 40
0.2735768567808569
 50
275.1537361217614261
 51
286.356713021477276
  0
ARC
  5
3483E
  8
0
 10
7106.7922546426243571
 20
349.1825789765711079
 30
0.0
 40
0.6082513614287576
 50
271.2570732215637008
 51
274.2180248356723951
  0
LINE
  5
3483F
  8
0
 10
7107.2614270758258499
 20
349.4707858225061727
 30
0.0
 11
7107.3206667444683262
 21
349.4707858225061727
 31
0.0
  0
LINE
  5
34840
  8
0
 10
7107.4251216025395479
 20
349.5337568951060803
 30
0.0
 11
7110.3269498861682223
 21
349.5337568951060803
 31
0.0
  0
ARC
  5
34841
  8
0
 10
7107.3206667444683262
 20
349.5495049266061756
 30
0.0
 40
0.0787191041000002
 50
270.0
 51
332.1677191397598108
  0
ARC
  5
34842
  8
0
 10
7107.4251216025395479
 20
349.4943568951060797
 30
0.0
 40
0.0394
 50
90.0
 51
152.1677191397481863
  0
LINE
  5
34843
  8
0
 10
7107.3902794706136774
 20
349.5127521619655226
 30
0.0
 11
7107.3902794706136774
 21
348.806730132246912
 31
0.0
  0
LINE
  5
34844
  8
0
 10
7107.2614270758258499
 20
348.8486964717062051
 30
0.0
 11
7107.3206667444683262
 21
348.8486964717062051
 31
0.0
  0
LINE
  5
34845
  8
0
 10
7107.4251216025395479
 20
348.7857253991061839
 30
0.0
 11
7110.3269498861682223
 21
348.7857253991061839
 31
0.0
  0
ARC
  5
34846
  8
0
 10
7107.3206667444683262
 20
348.7699773676060886
 30
0.0
 40
0.0787191041000002
 50
27.8322808602402283
 51
90.0
  0
ARC
  5
34847
  8
0
 10
7107.4251216025395479
 20
348.8251253991061844
 30
0.0
 40
0.0394
 50
207.8322808602517
 51
270.0
  0
LINE
  5
34848
  8
0
 10
7110.3269498861682223
 20
349.5534419345062247
 30
0.0
 11
7110.3269498861682223
 21
348.7660403597060963
 31
0.0
  0
LINE
  5
34849
  8
0
 10
7110.3269498861682223
 20
349.5534419345062247
 30
0.0
 11
7113.4087985942578598
 21
349.5534419345062247
 31
0.0
  0
LINE
  5
3484A
  8
0
 10
7110.3269498861682223
 20
348.7660403597060963
 30
0.0
 11
7113.4087985942578598
 21
348.7660403597060963
 31
0.0
  0
ARC
  5
3484B
  8
0
 10
7114.0277329703039868
 20
349.1597411471062173
 30
0.0
 40
0.8759842520106401
 50
206.7076453006280872
 51
153.2923546993719128
  0
ARC
  5
3484C
  8
0
 10
7114.0277329703039868
 20
349.1597411998561142
 30
0.0
 40
0.8240353163148206
 50
208.5399759079159026
 51
151.4600324422303004
  0
ARC
  5
3484D
  8
0
 10
7114.0277329703039868
 20
349.1597411998561142
 30
0.0
 40
0.7842409599148211
 50
210.133410794560092
 51
149.8665981175113018
  0
ARC
  5
3484E
  8
0
 10
7113.928583512590194
 20
344.9882295898340203
 30
0.0
 40
4.645383439618068
 50
84.8671919721992225
 51
88.776952564044862
  0
ARC
  5
3484F
  8
0
 10
7114.3267384017781296
 20
349.4587557384210186
 30
0.0
 40
0.1572
 50
6.3590074397652314
 51
83.6294594084183842
  0
ARC
  5
34850
  8
0
 10
7111.6435277628397671
 20
349.1597411471062173
 30
0.0
 40
2.8570201900731331
 50
353.6412315387065064
 51
6.3587684612934874
  0
ARC
  5
34851
  8
0
 10
7113.509103688612413
 20
360.888281475583085
 30
0.0
 40
12.2123688186163104
 50
272.4339631518241731
 51
273.9209240221767914
  0
ARC
  5
34852
  8
0
 10
7114.3267384017781296
 20
348.8607265557913024
 30
0.0
 40
0.1572
 50
276.3705405915815732
 51
353.6409925602347926
  0
ARC
  5
34853
  8
0
 10
7114.04770728047788
 20
350.7318622487949256
 30
0.0
 40
2.1284257266984499
 50
269.4624134292287749
 51
271.4181284767471993
  0
ARC
  5
34854
  8
0
 10
7114.1027804274654045
 20
348.3079073119217242
 30
0.0
 40
0.2961908331504585
 50
86.128759335415026
 51
90.4638476685370989
  0
ARC
  5
34855
  8
0
 10
7114.1196199462219738
 20
348.5529437870566767
 30
0.0
 40
0.0505772036662786
 50
75.6778716837601593
 51
86.4205581033436374
  0
ARC
  5
34856
  8
0
 10
7114.1301401220462139
 20
348.5941495842437803
 30
0.0
 40
0.0080496617533034
 50
47.6702723938384594
 51
75.6778716837609835
  0
ARC
  5
34857
  8
0
 10
7114.1337629067957096
 20
348.5987908331745757
 30
0.0
 40
0.0022243080121999
 50
313.6441440234231095
 51
36.0733964040089674
  0
ARC
  5
34858
  8
0
 10
7114.0958314059680561
 20
348.6497912797730123
 30
0.0
 40
0.0657680374735147
 50
283.8725669818634856
 51
306.8762631913560881
  0
ARC
  5
34859
  8
0
 10
7114.0345563755072362
 20
348.8484459878284838
 30
0.0
 40
0.2735768567808569
 50
275.1537361217614261
 51
286.356713021477276
  0
ARC
  5
3485A
  8
0
 10
7114.0143932829760161
 20
349.1825789765711079
 30
0.0
 40
0.6082513614287576
 50
271.2570732215637008
 51
274.2180248356723951
  0
ARC
  5
3485B
  8
0
 10
7114.1268910629441962
 20
344.9882295898340203
 30
0.0
 40
4.645383439618068
 50
91.2230474359551522
 51
95.1328080278007775
  0
ARC
  5
3485C
  8
0
 10
7113.7287361737580795
 20
349.4587557384210186
 30
0.0
 40
0.1572
 50
96.37054059158163
 51
173.6409925602347073
  0
ARC
  5
3485D
  8
0
 10
7116.4119468126964421
 20
349.1597411471062173
 30
0.0
 40
2.8570201900731331
 50
173.6412315387065064
 51
186.3587684612934083
  0
ARC
  5
3485E
  8
0
 10
7114.5463708869237962
 20
360.888281475583085
 30
0.0
 40
12.2123688186163104
 50
266.0790759778232086
 51
267.5660368481758269
  0
ARC
  5
3485F
  8
0
 10
7113.7287361737580795
 20
348.8607265557913024
 30
0.0
 40
0.1572
 50
186.3590074397652074
 51
263.6294594084183132
  0
ARC
  5
34860
  8
0
 10
7114.0077672950556007
 20
350.7318622487949256
 30
0.0
 40
2.1284257266984499
 50
268.5818715232528007
 51
270.5375865707711114
  0
ARC
  5
34861
  8
0
 10
7113.9526941480689857
 20
348.3079073119217242
 30
0.0
 40
0.2961908331504585
 50
89.5361523314629153
 51
93.8712406645849882
  0
ARC
  5
34862
  8
0
 10
7113.9358546293124164
 20
348.5529437870566767
 30
0.0
 40
0.0505772036662786
 50
93.5794418966563768
 51
104.3221283162397981
  0
ARC
  5
34863
  8
0
 10
7113.9253344534899952
 20
348.5941495842437803
 30
0.0
 40
0.0080496617533034
 50
104.3221283162390023
 51
132.329727606161498
  0
ARC
  5
34864
  8
0
 10
7113.9217116687386806
 20
348.5987908331745757
 30
0.0
 40
0.0022243080121999
 50
143.9266035959909971
 51
226.3558559765768905
  0
ARC
  5
34865
  8
0
 10
7113.9596431695681531
 20
348.6497912797730123
 30
0.0
 40
0.0657680374735147
 50
233.1237368086437982
 51
256.1274330181365144
  0
ARC
  5
34866
  8
0
 10
7114.0209182000280634
 20
348.8484459878284838
 30
0.0
 40
0.2735768567808569
 50
253.6432869785226103
 51
264.846263878238517
  0
ARC
  5
34867
  8
0
 10
7114.0410812925611026
 20
349.1825789765711079
 30
0.0
 40
0.6082513614287576
 50
265.7819751643274913
 51
268.7429267784361855
  0
LINE
  5
34868
  8
0
 10
7113.5719088593596098
 20
349.4707858225061727
 30
0.0
 11
7113.5376376881677061
 21
349.4707858225061727
 31
0.0
  0
ARC
  5
34869
  8
0
 10
7113.5376376881677061
 20
349.5731269739060849
 30
0.0
 40
0.1023411514000001
 50
204.6359808615098927
 51
270.0
  0
ARC
  5
3486A
  8
0
 10
7113.4087985942578598
 20
349.5140419345062242
 30
0.0
 40
0.0394
 50
24.6359808615098785
 51
90.0
  0
LINE
  5
3486B
  8
0
 10
7113.5719088593596098
 20
348.8486964717062051
 30
0.0
 11
7113.5376376881677061
 21
348.8486964717062051
 31
0.0
  0
ARC
  5
3486C
  8
0
 10
7113.5376376881677061
 20
348.7463553203061792
 30
0.0
 40
0.1023411514000001
 50
90.0
 51
155.3640191384901073
  0
ARC
  5
3486D
  8
0
 10
7113.4087985942578598
 20
348.8054403597060968
 30
0.0
 40
0.0394
 50
270.0
 51
335.3640191384901073
  0
LINE
  5
3486E
  8
0
 10
7113.4446121900264188
 20
349.5304658913414073
 30
0.0
 11
7113.4446121900264188
 21
348.7890164028710274
 31
0.0
  0
ENDSEC
  0
EOF
