  0
SECTION
  2
HEADER
  9
$ACADVER
  1
AC1009
  9
$INSBASE
 10
7191.3542774724546689
 20
305.3954294983803948
 30
0.0
  9
$EXTMIN
 10
7186.8672239002689821
 20
302.5570762596684062
 30
0.0
  9
$EXTMAX
 10
7195.8413310446403557
 20
305.4003265380774792
 30
0.0
  9
$LIMMIN
 10
0.0
 20
0.0
  9
$LIMMAX
 10
11.6929133858000007
 20
8.2677165353999982
  9
$ORTHOMODE
 70
     0
  9
$REGENMODE
 70
     1
  9
$FILLMODE
 70
     1
  9
$QTEXTMODE
 70
     0
  9
$MIRRTEXT
 70
     0
  9
$DRAGMODE
 70
     2
  9
$LTSCALE
 40
0.6431102362
  9
$OSMODE
 70
  4095
  9
$ATTMODE
 70
     1
  9
$TEXTSIZE
 40
0.2
  9
$TRACEWID
 40
0.05
  9
$TEXTSTYLE
  7
STANDARD
  9
$CLAYER
  8
0
  9
$CELTYPE
  6
BYLAYER
  9
$CECOLOR
 62
   256
  9
$DIMSCALE
 40
1.0
  9
$DIMASZ
 40
0.1875
  9
$DIMEXO
 40
0.0625
  9
$DIMDLI
 40
0.4443307087
  9
$DIMRND
 40
0.0
  9
$DIMDLE
 40
0.0
  9
$DIMEXE
 40
0.125
  9
$DIMTP
 40
0.01
  9
$DIMTM
 40
0.01
  9
$DIMTXT
 40
2.0
  9
$DIMCEN
 40
0.1052362205
  9
$DIMTSZ
 40
0.0
  9
$DIMTOL
 70
     1
  9
$DIMLIM
 70
     0
  9
$DIMTIH
 70
     1
  9
$DIMTOH
 70
     1
  9
$DIMSE1
 70
     0
  9
$DIMSE2
 70
     0
  9
$DIMTAD
 70
     0
  9
$DIMZIN
 70
     0
  9
$DIMBLK
  1

  9
$DIMASO
 70
     1
  9
$DIMSHO
 70
     1
  9
$DIMPOST
  1
\X
  9
$DIMAPOST
  1

  9
$DIMALT
 70
     1
  9
$DIMALTD
 70
     2
  9
$DIMALTF
 40
25.3999999999999986
  9
$DIMLFAC
 40
1.0
  9
$DIMTOFL
 70
     0
  9
$DIMTVP
 40
0.0
  9
$DIMTIX
 70
     0
  9
$DIMSOXD
 70
     0
  9
$DIMSAH
 70
     0
  9
$DIMBLK1
  1

  9
$DIMBLK2
  1

  9
$DIMSTYLE
  2
STANDARD
  9
$DIMCLRD
 70
     0
  9
$DIMCLRE
 70
     0
  9
$DIMCLRT
 70
     0
  9
$DIMTFAC
 40
1.0
  9
$DIMGAP
 40
0.09
  9
$LUNITS
 70
     2
  9
$LUPREC
 70
     4
  9
$SKETCHINC
 40
0.1
  9
$FILLETRAD
 40
0.0
  9
$AUNITS
 70
     0
  9
$AUPREC
 70
     0
  9
$MENU
  1
.
  9
$ELEVATION
 40
0.0
  9
$PELEVATION
 40
0.0
  9
$THICKNESS
 40
0.0
  9
$LIMCHECK
 70
     0
  9
$BLIPMODE
 70
     0
  9
$CHAMFERA
 40
0.0
  9
$CHAMFERB
 40
0.0
  9
$SKPOLY
 70
     0
  9
$TDCREATE
 40
2458060.468368056230247
  9
$TDUPDATE
 40
2460555.4865162041969597
  9
$TDINDWG
 40
0.9983288194
  9
$TDUSRTIMER
 40
0.9983288194
  9
$USRTIMER
 70
     1
  9
$ANGBASE
 50
0.0
  9
$ANGDIR
 70
     0
  9
$PDMODE
 70
     0
  9
$PDSIZE
 40
0.3125
  9
$PLINEWID
 40
0.0
  9
$COORDS
 70
     0
  9
$SPLFRAME
 70
     0
  9
$SPLINETYPE
 70
     6
  9
$SPLINESEGS
 70
     8
  9
$ATTDIA
 70
     1
  9
$ATTREQ
 70
     1
  9
$HANDLING
 70
     1
  9
$HANDSEED
  5
34C34
  9
$SURFTAB1
 70
     6
  9
$SURFTAB2
 70
     6
  9
$SURFTYPE
 70
     6
  9
$SURFU
 70
     6
  9
$SURFV
 70
     6
  9
$UCSNAME
  2

  9
$UCSORG
 10
0.0
 20
0.0
 30
0.0
  9
$UCSXDIR
 10
1.0
 20
0.0
 30
0.0
  9
$UCSYDIR
 10
0.0
 20
1.0
 30
0.0
  9
$PUCSNAME
  2

  9
$PUCSORG
 10
0.0
 20
0.0
 30
0.0
  9
$PUCSXDIR
 10
1.0
 20
0.0
 30
0.0
  9
$PUCSYDIR
 10
0.0
 20
1.0
 30
0.0
  9
$USERI1
 70
     0
  9
$USERI2
 70
     0
  9
$USERI3
 70
     0
  9
$USERI4
 70
     0
  9
$USERI5
 70
     0
  9
$USERR1
 40
0.0
  9
$USERR2
 40
0.0
  9
$USERR3
 40
0.0
  9
$USERR4
 40
0.0
  9
$USERR5
 40
0.0
  9
$WORLDVIEW
 70
     1
  9
$SHADEDGE
 70
     3
  9
$SHADEDIF
 70
    70
  9
$TILEMODE
 70
     1
  9
$MAXACTVP
 70
    64
  9
$PLIMCHECK
 70
     0
  9
$PEXTMIN
 10
1.0000000000000000E+20
 20
1.0000000000000000E+20
 30
1.0000000000000000E+20
  9
$PEXTMAX
 10
-1.0000000000000000E+20
 20
-1.0000000000000000E+20
 30
-1.0000000000000000E+20
  9
$PLIMMIN
 10
0.0
 20
0.0
  9
$PLIMMAX
 10
12.0
 20
9.0
  9
$UNITMODE
 70
     0
  9
$VISRETAIN
 70
     1
  9
$PLINEGEN
 70
     0
  9
$PSLTSCALE
 70
     1
  0
ENDSEC
  0
SECTION
  2
TABLES
  0
TABLE
  2
VPORT
 70
     1
  0
VPORT
  2
*ACTIVE
 70
     0
 10
0.0
 20
0.0
 11
1.0
 21
1.0
 12
3279.9889210271421689
 22
171.3990962963339086
 13
0.0
 23
0.0
 14
1.0
 24
1.0
 15
0.0
 25
0.0
 16
0.0
 26
0.0
 36
60.4960186965801583
 17
3911.3653564453120453
 27
132.5796051025390057
 37
0.0
 40
4.014801921165291
 41
2.2423167848699759
 42
50.0
 43
0.0
 44
0.0
 50
0.0
 51
0.0
 71
     0
 72
   100
 73
     1
 74
     1
 75
     0
 76
     0
 77
     0
 78
     0
  0
ENDTAB
  0
TABLE
  2
LTYPE
 70
     2
  0
LTYPE
  2
CONTINUOUS
 70
     0
  3
Solid line
 72
    65
 73
     0
 40
0.0
  0
LTYPE
  2
PHANTOM2
 70
     0
  3
___ _ _ ___ _ _ ___ _ _ ___ _ _
 72
    65
 73
     6
 40
1.25
 49
0.625
 49
-0.125
 49
0.125
 49
-0.125
 49
0.125
 49
-0.125
  0
ENDTAB
  0
TABLE
  2
LAYER
 70
     2
  0
LAYER
  2
0
 70
     0
 62
   255
  6
CONTINUOUS
  0
LAYER
  2
DEFPOINTS
 70
     0
 62
     7
  6
CONTINUOUS
  0
ENDTAB
  0
TABLE
  2
STYLE
 70
     1
  0
STYLE
  2
STANDARD
 70
     0
 40
0.0
 41
0.8
 50
0.0
 71
     0
 42
0.2
  3
txt
  4

  0
ENDTAB
  0
TABLE
  2
VIEW
 70
     0
  0
ENDTAB
  0
TABLE
  2
UCS
 70
     0
  0
ENDTAB
  0
TABLE
  2
APPID
 70
    11
  0
APPID
  2
ACAD
 70
     0
  0
APPID
  2
ACAD_MLEADERVER
 70
     0
  0
APPID
  2
ACAD_EXEMPT_FROM_CAD_STANDARDS
 70
     0
  0
APPID
  2
ACAD_NAV_VCDISPLAY
 70
     0
  0
APPID
  2
ACAECLAYERSTANDARD
 70
     0
  0
APPID
  2
ACCMTRANSPARENCY
 70
     0
  0
APPID
  2
ACAD_DSTYLE_DIMJAG
 70
     0
  0
APPID
  2
ACAD_DSTYLE_DIMTALN
 70
     0
  0
APPID
  2
ACDBATTR
 70
     0
  0
APPID
  2
ACADANNOTATIVE
 70
     0
  0
APPID
  2
DCO15
 70
     0
  0
ENDTAB
  0
TABLE
  2
DIMSTYLE
 70
     1
  0
DIMSTYLE
  2
STANDARD
 70
     0
  3

  4

  5

  6

  7

 40
1.0
 41
0.1875
 42
0.0625
 43
0.38
 44
0.125
 45
0.0
 46
0.0
 47
0.01
 48
0.01
140
0.15625
141
0.09
142
0.0
143
25.3999999999999986
144
1.0
145
0.0
146
1.0
147
0.09
 71
     1
 72
     0
 73
     1
 74
     1
 75
     0
 76
     0
 77
     0
 78
     4
170
     0
171
     2
172
     0
173
     0
174
     0
175
     0
176
     0
177
     0
178
     0
  0
ENDTAB
  0
ENDSEC
  0
SECTION
  2
BLOCKS
  0
BLOCK
  8
0
  2
$MODEL_SPACE
 70
     0
 10
0.0
 20
0.0
 30
0.0
  3
$MODEL_SPACE
  1

  0
ENDBLK
  5
21
  8
0
  0
BLOCK
 67
     1
  8
0
  2
$PAPER_SPACE
 70
     0
 10
0.0
 20
0.0
 30
0.0
  3
$PAPER_SPACE
  1

  0
ENDBLK
  5
1D
 67
     1
  8
0
  0
BLOCK
  8
0
  2
_FILLED
 70
     0
 10
0.0
 20
0.0
 30
0.0
  3
_FILLED
  1

  0
SOLID
  5
2853B
  8
0
  6
BYBLOCK
 62
     0
 10
0.0
 20
0.0
 30
0.0
 11
-1.0
 21
0.1666666667
 31
0.0
 12
-1.0
 22
-0.1666666667
 32
0.0
 13
-1.0
 23
-0.1666666667
 33
0.0
  0
ENDBLK
  5
2853C
  8
0
  6
BYBLOCK
 62
     0
  0
ENDSEC
  0
SECTION
  2
ENTITIES
  0
ATTDEF
  5
2842F
  8
DEFPOINTS
 10
7191.3438917128596586
 20
305.3993265380775028
 30
0.0
 40
0.001
  1
K-5632IN
  3

  2
MODELNUMBER
 70
     0
1001
ACDBATTR
1070
     0
1070
     1
  0
ATTDEF
  5
28430
  8
DEFPOINTS
 10
7191.3437659032024385
 20
305.3976596976983728
 30
0.0
 40
0.001
  1
COMPLEMENTARY
  3

  2
TRADENAME
 70
     0
1001
ACDBATTR
1070
     0
1070
     1
  0
ATTDEF
  5
28431
  8
DEFPOINTS
 10
7191.3438917128596586
 20
305.3959932047441725
 30
0.0
 40
0.001
  1
TOILET TISSUE HOLDER
  3

  2
PRODUCT
 70
     0
1001
ACDBATTR
1070
     0
1070
     1
  0
LINE
  5
34A5B
  8
0
 10
7188.3278889754756165
 20
302.6686771691370836
 30
0.0
 11
7188.3278889754756165
 21
303.3746090558237825
 31
0.0
  0
LINE
  5
34A5C
  8
0
 10
7191.2645593910292519
 20
302.6279423250804257
 30
0.0
 11
7191.2645593910292519
 21
303.4153438998803267
 31
0.0
  0
LINE
  5
34A5D
  8
0
 10
7186.9251322080854152
 20
305.3954294983803948
 30
0.0
 11
7188.5612840964740826
 21
305.3954294983803948
 31
0.0
  0
LINE
  5
34A5E
  8
0
 10
7186.9384921474629664
 20
305.1082572856802813
 30
0.0
 11
7188.5479241551693121
 21
305.1082572856802813
 31
0.0
  0
LINE
  5
34A5F
  8
0
 10
7186.9191727832139804
 20
305.124103422503822
 30
0.0
 11
7186.8672239002689821
 21
305.3838478368335814
 31
0.0
  0
LINE
  5
34A60
  8
0
 10
7186.8672239002689821
 20
305.3838478368335814
 30
0.0
 11
7186.9251322080854152
 21
305.3954294983803948
 31
0.0
  0
ARC
  5
34A61
  8
0
 10
7186.9384921493910952
 20
305.1279572910689808
 30
0.0
 40
0.0197000053885951
 50
191.2813998052143063
 51
269.9999943970062191
  0
ARC
  5
34A62
  8
0
 10
7176.2496488367323764
 20
302.4990366682379204
 30
0.0
 40
11.0214795573086803
 50
0.6611661039680014
 51
2.8905088473185252
  0
ARC
  5
34A63
  8
0
 10
7176.2418146523268661
 20
302.49871484758512
 30
0.0
 40
11.0293200033266299
 50
2.890126260781793
 51
6.6249199212199059
  0
ARC
  5
34A64
  8
0
 10
7176.2224330824183198
 20
302.4964637804349081
 30
0.0
 40
11.0488318601197708
 50
6.6249199212199059
 51
8.1968548556672278
  0
ARC
  5
34A65
  8
0
 10
7179.6955014841250886
 20
302.8652035415364026
 30
0.0
 40
7.5597924531794458
 50
9.1836808189255876
 51
12.01878371004657
  0
ARC
  5
34A66
  8
0
 10
-8821081.7233002670109272
 20
-1765349.1529695980716497
 30
0.0
 40
9003102.9562416598200798
 50
11.3099314118425394
 51
11.3099356502109494
  0
ARC
  5
34A67
  8
0
 10
7186.9396564026419583
 20
305.0885572162711128
 30
0.0
 40
0.0197000682248498
 50
11.4098763456513108
 51
89.9999281216804974
  0
LINE
  5
34A68
  8
0
 10
7186.8672239002689821
 20
305.3838478368335814
 30
0.0
 11
7188.6191924042896062
 21
305.3838478368335814
 31
0.0
  0
ARC
  5
34A69
  8
0
 10
7187.8290468227532983
 20
307.516293096227173
 30
0.0
 40
4.9599596681179214
 50
263.9833445554262994
 51
269.0083711549260101
  0
ARC
  5
34A6A
  8
0
 10
7187.3136972947122558
 20
302.6267224110986831
 30
0.0
 40
0.0433056615410703
 50
180.669377919419702
 51
263.9804946690520069
  0
LINE
  5
34A6B
  8
0
 10
7187.3091559588419841
 20
302.5836555260243017
 30
0.0
 11
7188.1772603457166042
 21
302.5836555260243017
 31
0.0
  0
LINE
  5
34A6C
  8
0
 10
7188.5672435213446079
 20
305.124103422503822
 30
0.0
 11
7188.6191924042896062
 21
305.3838478368335814
 31
0.0
  0
LINE
  5
34A6D
  8
0
 10
7188.6191924042896062
 20
305.3838478368335814
 30
0.0
 11
7188.5612840964740826
 21
305.3954294983803948
 31
0.0
  0
ARC
  5
34A6E
  8
0
 10
7188.5479241551693121
 20
305.1279572910689808
 30
0.0
 40
0.0197000053885951
 50
270.0000056029937809
 51
348.7186001947857221
  0
ARC
  5
34A6F
  8
0
 10
7199.2367674678271214
 20
302.4990366682379204
 30
0.0
 40
11.0214795573086803
 50
178.9402742835258948
 51
179.3388338960320141
  0
ARC
  5
34A70
  8
0
 10
7199.2446016522317223
 20
302.49871484758512
 30
0.0
 40
11.0293200033266299
 50
173.375080078780087
 51
175.627269289585314
  0
ARC
  5
34A71
  8
0
 10
7199.263983222142997
 20
302.4964637804349081
 30
0.0
 40
11.0488318601197708
 50
172.9186772023695084
 51
173.375080078780087
  0
ARC
  5
34A72
  8
0
 10
7195.7909126502736399
 20
302.8652039208263886
 30
0.0
 40
7.5597902502895407
 50
167.9812156753978911
 51
170.7879334357851917
  0
ARC
  5
34A73
  8
0
 10
8835457.2097165714949369
 20
-1765349.1529695990029722
 30
0.0
 40
9003102.9562416598200798
 50
168.6900643497889973
 51
168.690068588157402
  0
ARC
  5
34A74
  8
0
 10
7188.54675990191663
 20
305.0885572162711128
 30
0.0
 40
0.0197000682248498
 50
90.0000718783195026
 51
168.5901236543487016
  0
ARC
  5
34A75
  8
0
 10
7187.6573694818061995
 20
307.516293096227173
 30
0.0
 40
4.9599596681179214
 50
270.9916288450739899
 51
276.0166554445737006
  0
ARC
  5
34A76
  8
0
 10
7188.172719009847242
 20
302.6267224110986831
 30
0.0
 40
0.0433056615410703
 50
276.0195053309479931
 51
359.3306220805803264
  0
ARC
  5
34A77
  8
0
 10
7205.7649162960078684
 20
301.6181579690658054
 30
0.0
 40
17.6085926113379898
 50
171.9781704813836996
 51
172.6903072374450119
  0
ARC
  5
34A78
  8
0
 10
7188.9117446602422206
 20
303.0703100107095906
 30
0.0
 40
0.7168754904352668
 50
157.9324577100580029
 51
165.9262659053916025
  0
ARC
  5
34A79
  8
0
 10
7188.9884098698566959
 20
303.0510903995624972
 30
0.0
 40
0.7959131258876152
 50
165.9262659053916025
 51
175.9362185606933906
  0
ARC
  5
34A7A
  8
0
 10
7189.5559962606439512
 20
303.0189654894476803
 30
0.0
 40
1.3643735878741989
 50
176.2796893175033119
 51
185.1459915447763933
  0
ARC
  5
34A7B
  8
0
 10
7193.573964447779872
 20
303.3552433213006907
 30
0.0
 40
5.3963690227892194
 50
184.8756232298026987
 51
186.943482747937793
  0
LINE
  5
34A7C
  8
0
 10
7188.2582762493302653
 20
303.332666734580414
 30
0.0
 11
7188.2446019332146534
 21
303.332666734580414
 31
0.0
  0
ARC
  5
34A7D
  8
0
 10
7188.2582762493302653
 20
303.4114068919806186
 30
0.0
 40
0.0787401574002678
 50
270.0000000000521254
 51
332.138716532725482
  0
LINE
  5
34A7E
  8
0
 10
7188.3627549141956479
 20
303.395658860480296
 30
0.0
 11
7191.2645593910292519
 21
303.395658860480296
 31
0.0
  0
ARC
  5
34A7F
  8
0
 10
7188.3627549552566052
 20
303.3562587128483869
 30
0.0
 40
0.0394001476320219
 50
90.000059712566113
 51
152.241681636668801
  0
LINE
  5
34A80
  8
0
 10
7188.2582762493302653
 20
302.7106194903803953
 30
0.0
 11
7188.2162355682330599
 21
302.7106194903803953
 31
0.0
  0
ARC
  5
34A81
  8
0
 10
7188.2582762493302653
 20
302.6318793329800769
 30
0.0
 40
0.0787401574002678
 50
27.8612834672745286
 51
89.9999999999478888
  0
LINE
  5
34A82
  8
0
 10
7188.3627549141956479
 20
302.6476273644802859
 30
0.0
 11
7191.2645593910292519
 21
302.6476273644802859
 31
0.0
  0
ARC
  5
34A83
  8
0
 10
7188.3627549552566052
 20
302.6870275121123086
 30
0.0
 40
0.0394001476320219
 50
207.758318363331199
 51
269.9999402874337875
  0
LINE
  5
34A84
  8
0
 10
7191.2645593910292519
 20
303.4153438998803267
 30
0.0
 11
7194.3463849378867963
 21
303.4153438998803267
 31
0.0
  0
LINE
  5
34A85
  8
0
 10
7191.2645593910292519
 20
302.6279423250804257
 30
0.0
 11
7194.3463849378867963
 21
302.6279423250804257
 31
0.0
  0
LINE
  5
34A86
  8
0
 10
7195.7834227368248321
 20
305.3954294983803948
 30
0.0
 11
7194.1472708484361647
 21
305.3954294983803948
 31
0.0
  0
LINE
  5
34A87
  8
0
 10
7195.7700627974463714
 20
305.1082572856802813
 30
0.0
 11
7194.1606307897400256
 21
305.1082572856802813
 31
0.0
  0
LINE
  5
34A88
  8
0
 10
7195.7893821616953574
 20
305.124103422503822
 30
0.0
 11
7195.8413310446403557
 21
305.3838478368335814
 31
0.0
  0
LINE
  5
34A89
  8
0
 10
7195.8413310446403557
 20
305.3838478368335814
 30
0.0
 11
7195.7834227368248321
 21
305.3954294983803948
 31
0.0
  0
ARC
  5
34A8A
  8
0
 10
7195.7700627955209711
 20
305.1279572910689808
 30
0.0
 40
0.0197000053885951
 50
270.0000056029937809
 51
348.7186001947857221
  0
ARC
  5
34A8B
  8
0
 10
7206.4589061081778709
 20
302.4990366682379204
 30
0.0
 40
11.0214795573086803
 50
177.109491152681386
 51
179.3388338960320141
  0
ARC
  5
34A8C
  8
0
 10
7206.4667402925815622
 20
302.49871484758512
 30
0.0
 40
11.0293200033266299
 50
173.375080078780087
 51
177.1098737392181874
  0
ARC
  5
34A8D
  8
0
 10
7206.486121862492837
 20
302.4964637804349081
 30
0.0
 40
11.0488318601197708
 50
171.8031451443326887
 51
173.375080078780087
  0
ARC
  5
34A8E
  8
0
 10
7203.0130534607851587
 20
302.8652035415364026
 30
0.0
 40
7.5597924531794458
 50
167.9812162899534087
 51
170.8163191810743911
  0
ARC
  5
34A8F
  8
0
 10
8835464.4318552128970623
 20
-1765349.1529695980716497
 30
0.0
 40
9003102.9562416598200798
 50
168.6900643497889973
 51
168.690068588157402
  0
ARC
  5
34A90
  8
0
 10
7195.768898542268289
 20
305.0885572162711128
 30
0.0
 40
0.0197000682248498
 50
90.0000718783195026
 51
168.5901236543487016
  0
LINE
  5
34A91
  8
0
 10
7195.8413310446403557
 20
305.3838478368335814
 30
0.0
 11
7194.0893625406188221
 21
305.3838478368335814
 31
0.0
  0
ARC
  5
34A92
  8
0
 10
7194.879508122156949
 20
307.516293096227173
 30
0.0
 40
4.9599596681179214
 50
270.9916288450739899
 51
276.0166554445737006
  0
ARC
  5
34A93
  8
0
 10
7195.394857650197082
 20
302.6267224110986831
 30
0.0
 40
0.0433056615410703
 50
276.0195053309479931
 51
359.3306220805803264
  0
LINE
  5
34A94
  8
0
 10
7195.3993989860682632
 20
302.5836555260243017
 30
0.0
 11
7194.5312945991909146
 21
302.5836555260243017
 31
0.0
  0
LINE
  5
34A95
  8
0
 10
7194.1413114235638204
 20
305.124103422503822
 30
0.0
 11
7194.0893625406188221
 21
305.3838478368335814
 31
0.0
  0
LINE
  5
34A96
  8
0
 10
7194.0893625406188221
 20
305.3838478368335814
 30
0.0
 11
7194.1472708484361647
 21
305.3954294983803948
 31
0.0
  0
ARC
  5
34A97
  8
0
 10
7194.1606307897400256
 20
305.1279572910689808
 30
0.0
 40
0.0197000053885951
 50
191.2813998052143063
 51
269.9999943970062191
  0
ARC
  5
34A98
  8
0
 10
7183.4717874770813069
 20
302.4990366682379204
 30
0.0
 40
11.0214795573086803
 50
0.6611661039680014
 51
1.0597257164740761
  0
ARC
  5
34A99
  8
0
 10
7183.463953292676706
 20
302.49871484758512
 30
0.0
 40
11.0293200033266299
 50
4.3727307104147126
 51
6.6249199212199059
  0
ARC
  5
34A9A
  8
0
 10
7183.4445717227681598
 20
302.4964637804349081
 30
0.0
 40
11.0488318601197708
 50
6.6249199212199059
 51
7.0813227976304596
  0
ARC
  5
34A9B
  8
0
 10
7186.9176422946347884
 20
302.8652039208263886
 30
0.0
 40
7.5597902502895407
 50
9.2120665642148154
 51
12.0187843246021
  0
ARC
  5
34A9C
  8
0
 10
-8821074.501161627471447
 20
-1765349.1529695990029722
 30
0.0
 40
9003102.9562416598200798
 50
11.3099314118425394
 51
11.3099356502109494
  0
ARC
  5
34A9D
  8
0
 10
7194.1617950429908888
 20
305.0885572162711128
 30
0.0
 40
0.0197000682248498
 50
11.4098763456513108
 51
89.9999281216804974
  0
ARC
  5
34A9E
  8
0
 10
7195.0511854631031383
 20
307.516293096227173
 30
0.0
 40
4.9599596681179214
 50
263.9833445554262994
 51
269.0083711549260101
  0
ARC
  5
34A9F
  8
0
 10
7194.5358359350620958
 20
302.6267224110986831
 30
0.0
 40
0.0433056615410703
 50
180.669377919419702
 51
263.9804946690520069
  0
ARC
  5
34AA0
  8
0
 10
7176.9436386489041979
 20
301.6181579690658054
 30
0.0
 40
17.6085926113379898
 50
7.309692762554957
 51
8.0218295186163342
  0
ARC
  5
34AA1
  8
0
 10
7193.7968102846662077
 20
303.0703100107095906
 30
0.0
 40
0.7168754904352668
 50
14.0737340946083496
 51
22.0675422899419509
  0
ARC
  5
34AA2
  8
0
 10
7193.7201450750517324
 20
303.0510903995624972
 30
0.0
 40
0.7959131258876152
 50
4.0637814393065881
 51
14.0737340946083496
  0
ARC
  5
34AA3
  8
0
 10
7193.1525586842653865
 20
303.0189654894476803
 30
0.0
 40
1.3643735878741989
 50
354.8540084552236067
 51
3.7203106824966641
  0
ARC
  5
34AA4
  8
0
 10
7189.1345904971303753
 20
303.3552433213006907
 30
0.0
 40
5.3963690227892194
 50
353.0565172520621786
 51
355.124376770197216
  0
ARC
  5
34AA5
  8
0
 10
7194.4752471930296451
 20
303.4350289392804143
 30
0.0
 40
0.1023622046999969
 50
204.6616647704582022
 51
263.5202973006914817
  0
ARC
  5
34AA6
  8
0
 10
7194.3463848925730417
 20
303.3759437453396117
 30
0.0
 40
0.0394001545408418
 50
24.5553904289721494
 51
89.9999341045576955
  0
LINE
  5
34AA7
  8
0
 10
7194.3822216948892674
 20
303.3923173758958001
 30
0.0
 11
7194.3822216948892674
 21
302.6509688490650092
 31
0.0
  0
ARC
  5
34AA8
  8
0
 10
7194.4756579309878362
 20
302.607920185878811
 30
0.0
 40
0.1028762247475537
 50
93.3607098940926932
 51
155.2631662973869027
  0
ARC
  5
34AA9
  8
0
 10
7194.3463848925730417
 20
302.6673424796213112
 30
0.0
 40
0.0394001545409622
 50
270.0000658955465269
 51
335.4446095706488791
  0
LINE
  5
34AAA
  8
0
 10
7194.4696271389448157
 20
302.710619490480326
 30
0.0
 11
7194.4923193766881013
 21
302.710619490480326
 31
0.0
  0
ENDSEC
  0
EOF
