  0
SECTION
  2
HEADER
  9
$ACADVER
  1
AC1009
  9
$INSBASE
 10
4078.168759022643826
 20
126.9419167639083952
 30
0.0
  9
$EXTMIN
 10
4076.0964056007978797
 20
126.0674867870084057
 30
0.0
  9
$EXTMAX
 10
4078.1890206554571705
 20
127.8163467408083989
 30
0.0
  9
$LIMMIN
 10
0.0
 20
0.0
  9
$LIMMAX
 10
11.6929133858000007
 20
8.2677165353999982
  9
$ORTHOMODE
 70
     1
  9
$REGENMODE
 70
     1
  9
$FILLMODE
 70
     1
  9
$QTEXTMODE
 70
     0
  9
$MIRRTEXT
 70
     0
  9
$DRAGMODE
 70
     2
  9
$LTSCALE
 40
0.6431102362
  9
$OSMODE
 70
  4095
  9
$ATTMODE
 70
     1
  9
$TEXTSIZE
 40
0.2
  9
$TRACEWID
 40
0.05
  9
$TEXTSTYLE
  7
STANDARD
  9
$CLAYER
  8
0
  9
$CELTYPE
  6
BYLAYER
  9
$CECOLOR
 62
   256
  9
$DIMSCALE
 40
1.0
  9
$DIMASZ
 40
0.1875
  9
$DIMEXO
 40
0.0625
  9
$DIMDLI
 40
0.4443307087
  9
$DIMRND
 40
0.0
  9
$DIMDLE
 40
0.0
  9
$DIMEXE
 40
0.125
  9
$DIMTP
 40
0.01
  9
$DIMTM
 40
0.01
  9
$DIMTXT
 40
2.0
  9
$DIMCEN
 40
0.1052362205
  9
$DIMTSZ
 40
0.0
  9
$DIMTOL
 70
     1
  9
$DIMLIM
 70
     0
  9
$DIMTIH
 70
     1
  9
$DIMTOH
 70
     1
  9
$DIMSE1
 70
     0
  9
$DIMSE2
 70
     0
  9
$DIMTAD
 70
     0
  9
$DIMZIN
 70
     0
  9
$DIMBLK
  1

  9
$DIMASO
 70
     1
  9
$DIMSHO
 70
     1
  9
$DIMPOST
  1
\X
  9
$DIMAPOST
  1

  9
$DIMALT
 70
     1
  9
$DIMALTD
 70
     2
  9
$DIMALTF
 40
25.3999999999999986
  9
$DIMLFAC
 40
1.0
  9
$DIMTOFL
 70
     0
  9
$DIMTVP
 40
0.0
  9
$DIMTIX
 70
     0
  9
$DIMSOXD
 70
     0
  9
$DIMSAH
 70
     0
  9
$DIMBLK1
  1

  9
$DIMBLK2
  1

  9
$DIMSTYLE
  2
STANDARD
  9
$DIMCLRD
 70
     0
  9
$DIMCLRE
 70
     0
  9
$DIMCLRT
 70
     0
  9
$DIMTFAC
 40
1.0
  9
$DIMGAP
 40
0.09
  9
$LUNITS
 70
     2
  9
$LUPREC
 70
     4
  9
$SKETCHINC
 40
0.1
  9
$FILLETRAD
 40
0.0
  9
$AUNITS
 70
     0
  9
$AUPREC
 70
     0
  9
$MENU
  1
.
  9
$ELEVATION
 40
0.0
  9
$PELEVATION
 40
0.0
  9
$THICKNESS
 40
0.0
  9
$LIMCHECK
 70
     0
  9
$BLIPMODE
 70
     0
  9
$CHAMFERA
 40
0.0
  9
$CHAMFERB
 40
0.0
  9
$SKPOLY
 70
     0
  9
$TDCREATE
 40
2458060.468368056230247
  9
$TDUPDATE
 40
2458992.5761111108586192
  9
$TDINDWG
 40
0.3246366898
  9
$TDUSRTIMER
 40
0.3246366898
  9
$USRTIMER
 70
     1
  9
$ANGBASE
 50
0.0
  9
$ANGDIR
 70
     0
  9
$PDMODE
 70
     0
  9
$PDSIZE
 40
0.3125
  9
$PLINEWID
 40
0.0
  9
$COORDS
 70
     1
  9
$SPLFRAME
 70
     0
  9
$SPLINETYPE
 70
     6
  9
$SPLINESEGS
 70
     8
  9
$ATTDIA
 70
     1
  9
$ATTREQ
 70
     1
  9
$HANDLING
 70
     1
  9
$HANDSEED
  5
68B2
  9
$SURFTAB1
 70
     6
  9
$SURFTAB2
 70
     6
  9
$SURFTYPE
 70
     6
  9
$SURFU
 70
     6
  9
$SURFV
 70
     6
  9
$UCSNAME
  2

  9
$UCSORG
 10
0.0
 20
0.0
 30
0.0
  9
$UCSXDIR
 10
1.0
 20
0.0
 30
0.0
  9
$UCSYDIR
 10
0.0
 20
1.0
 30
0.0
  9
$PUCSNAME
  2

  9
$PUCSORG
 10
0.0
 20
0.0
 30
0.0
  9
$PUCSXDIR
 10
1.0
 20
0.0
 30
0.0
  9
$PUCSYDIR
 10
0.0
 20
1.0
 30
0.0
  9
$USERI1
 70
     0
  9
$USERI2
 70
     0
  9
$USERI3
 70
     0
  9
$USERI4
 70
     0
  9
$USERI5
 70
     0
  9
$USERR1
 40
0.0
  9
$USERR2
 40
0.0
  9
$USERR3
 40
0.0
  9
$USERR4
 40
0.0
  9
$USERR5
 40
0.0
  9
$WORLDVIEW
 70
     1
  9
$SHADEDGE
 70
     3
  9
$SHADEDIF
 70
    70
  9
$TILEMODE
 70
     1
  9
$MAXACTVP
 70
    64
  9
$PLIMCHECK
 70
     0
  9
$PEXTMIN
 10
1.0000000000000000E+20
 20
1.0000000000000000E+20
 30
1.0000000000000000E+20
  9
$PEXTMAX
 10
-1.0000000000000000E+20
 20
-1.0000000000000000E+20
 30
-1.0000000000000000E+20
  9
$PLIMMIN
 10
0.0
 20
0.0
  9
$PLIMMAX
 10
12.0
 20
9.0
  9
$UNITMODE
 70
     0
  9
$VISRETAIN
 70
     1
  9
$PLINEGEN
 70
     0
  9
$PSLTSCALE
 70
     1
  0
ENDSEC
  0
SECTION
  2
TABLES
  0
TABLE
  2
VPORT
 70
     1
  0
VPORT
  2
*ACTIVE
 70
     0
 10
0.0
 20
0.0
 11
1.0
 21
1.0
 12
0.0
 22
0.0
 13
0.0
 23
0.0
 14
1.0
 24
1.0
 15
0.0
 25
0.0
 16
0.0
 26
0.0
 36
10.20840620843083
 17
4077.1427281013238826
 27
126.9419174194335938
 37
0.0
 40
2.7305695313913798
 41
2.9513274336283182
 42
50.0
 43
0.0
 44
0.0
 50
0.0
 51
0.0
 71
     0
 72
   100
 73
     1
 74
     1
 75
     0
 76
     0
 77
     0
 78
     0
  0
ENDTAB
  0
TABLE
  2
LTYPE
 70
     2
  0
LTYPE
  2
CONTINUOUS
 70
     0
  3
Solid line
 72
    65
 73
     0
 40
0.0
  0
LTYPE
  2
PHANTOM2
 70
     0
  3
___ _ _ ___ _ _ ___ _ _ ___ _ _
 72
    65
 73
     6
 40
1.25
 49
0.625
 49
-0.125
 49
0.125
 49
-0.125
 49
0.125
 49
-0.125
  0
ENDTAB
  0
TABLE
  2
LAYER
 70
     2
  0
LAYER
  2
0
 70
     0
 62
   255
  6
CONTINUOUS
  0
LAYER
  2
DEFPOINTS
 70
     0
 62
     7
  6
CONTINUOUS
  0
ENDTAB
  0
TABLE
  2
STYLE
 70
     1
  0
STYLE
  2
STANDARD
 70
     0
 40
0.0
 41
0.8
 50
0.0
 71
     0
 42
0.2
  3
txt
  4

  0
ENDTAB
  0
TABLE
  2
VIEW
 70
     0
  0
ENDTAB
  0
TABLE
  2
UCS
 70
     0
  0
ENDTAB
  0
TABLE
  2
APPID
 70
     9
  0
APPID
  2
ACAD
 70
     0
  0
APPID
  2
ACAD_MLEADERVER
 70
     0
  0
APPID
  2
ACAD_EXEMPT_FROM_CAD_STANDARDS
 70
     0
  0
APPID
  2
ACAD_NAV_VCDISPLAY
 70
     0
  0
APPID
  2
ACAECLAYERSTANDARD
 70
     0
  0
APPID
  2
ACCMTRANSPARENCY
 70
     0
  0
APPID
  2
ACAD_DSTYLE_DIMJAG
 70
     0
  0
APPID
  2
ACAD_DSTYLE_DIMTALN
 70
     0
  0
APPID
  2
ACDBATTR
 70
     0
  0
ENDTAB
  0
TABLE
  2
DIMSTYLE
 70
     1
  0
DIMSTYLE
  2
STANDARD
 70
     0
  3

  4

  5

  6

  7

 40
1.0
 41
0.1875
 42
0.0625
 43
0.38
 44
0.125
 45
0.0
 46
0.0
 47
0.01
 48
0.01
140
0.15625
141
0.09
142
0.0
143
25.3999999999999986
144
1.0
145
0.0
146
1.0
147
0.09
 71
     1
 72
     0
 73
     1
 74
     1
 75
     0
 76
     0
 77
     0
 78
     4
170
     0
171
     2
172
     0
173
     0
174
     0
175
     0
176
     0
177
     0
178
     0
  0
ENDTAB
  0
ENDSEC
  0
SECTION
  2
BLOCKS
  0
BLOCK
  8
0
  2
$MODEL_SPACE
 70
     0
 10
0.0
 20
0.0
 30
0.0
  3
$MODEL_SPACE
  1

  0
ENDBLK
  5
21
  8
0
  0
BLOCK
 67
     1
  8
0
  2
$PAPER_SPACE
 70
     0
 10
0.0
 20
0.0
 30
0.0
  3
$PAPER_SPACE
  1

  0
ENDBLK
  5
1D
 67
     1
  8
0
  0
ENDSEC
  0
SECTION
  2
ENTITIES
  0
ATTDEF
  5
3930
  8
DEFPOINTS
 10
4078.178353988787876
 20
126.943583430575103
 30
0.0
 40
0.001
  1
K-5635IN
  3

  2
MODELNUMBER
 70
     0
1001
ACDBATTR
1070
     0
1070
     1
  0
ATTDEF
  5
3931
  8
DEFPOINTS
 10
4078.178353988787876
 20
126.9419167639083952
 30
0.0
 40
0.001
  1
COMPLEMENTARY
  3

  2
TRADENAME
 70
     0
1001
ACDBATTR
1070
     0
1070
     1
  0
ATTDEF
  5
3932
  8
DEFPOINTS
 10
4078.178353988787876
 20
126.9402500972417016
 30
0.0
 40
0.001
  1
ROBE HOOK
  3

  2
PRODUCT
 70
     0
1001
ACDBATTR
1070
     0
1070
     1
  0
LINE
  5
680D
  8
0
 10
4076.2731177310311068
 20
127.1147508425867017
 30
0.0
 11
4076.2495316834438199
 21
127.3843406006083967
 31
0.0
  0
LINE
  5
680E
  8
0
 10
4076.5776950233439493
 20
126.8631766064084019
 30
0.0
 11
4076.5476629517452238
 21
126.8631766064084019
 31
0.0
  0
ARC
  5
680F
  8
0
 10
4077.8425853595449553
 20
126.7794907133084052
 30
0.0
 40
0.9842519684999999
 50
129.0138067863059064
 51
160.899489663196988
  0
ARC
  5
6810
  8
0
 10
4076.5494851742191713
 20
127.2571306890656047
 30
0.0
 40
0.3949628018307184
 50
274.0957849405700131
 51
336.8040356229425925
  0
ARC
  5
6811
  8
0
 10
4076.5583347229458013
 20
127.1504167552422047
 30
0.0
 40
0.287438323475874
 50
187.1277436527398947
 51
267.8722809047882265
  0
ARC
  5
6812
  8
0
 10
4076.2071975089338594
 20
127.3774520032982025
 30
0.0
 40
0.0428909676313353
 50
9.2421407998675722
 51
87.6476418381413964
  0
LINE
  5
6813
  8
0
 10
4078.168759022643826
 20
127.8163467408083989
 30
0.0
 11
4077.9147859403437906
 21
127.7556753931583984
 31
0.0
  0
LINE
  5
6814
  8
0
 10
4077.2738209767808257
 20
127.5601237699437007
 30
0.0
 11
4077.8845635380439489
 21
127.7060234010584026
 31
0.0
  0
LINE
  5
6815
  8
0
 10
4077.8996747391438475
 20
127.7365290938583939
 30
0.0
 11
4077.8996747391438475
 21
126.1473044338583946
 31
0.0
  0
LINE
  5
6816
  8
0
 10
4078.168759022643826
 20
126.0674867870084057
 30
0.0
 11
4078.168759022643826
 21
127.8163467408083989
 31
0.0
  0
ARC
  5
6817
  8
0
 10
4075.6325975092117915
 20
134.7654109438159082
 30
0.0
 40
7.3676825298491311
 50
274.1306846490520002
 51
274.4867291687061197
  0
ARC
  5
6818
  8
0
 10
4079.6869398933267803
 20
126.9389943676163028
 30
0.0
 40
3.590535481822962
 50
172.9088065763137934
 51
179.9533660118181899
  0
ARC
  5
6819
  8
0
 10
4076.7248375235158164
 20
129.8582992867623034
 30
0.0
 40
2.3628359101010301
 50
282.5784705550943841
 51
283.4349303759578902
  0
ARC
  5
681A
  8
0
 10
4076.1677711264851496
 20
127.3720099229048941
 30
0.0
 40
0.0450790807464107
 50
95.6876454731584261
 51
166.880362358111114
  0
ARC
  5
681B
  8
0
 10
4077.8774830182960613
 20
127.7271480967147994
 30
0.0
 40
0.0222797335259232
 50
288.5299856572336239
 51
354.9055380738341228
  0
ARC
  5
681C
  8
0
 10
4077.9234661676919131
 20
127.7332881295659064
 30
0.0
 40
0.024011162443348
 50
111.1928364409109946
 51
172.2426869213940961
  0
LINE
  5
681D
  8
0
 10
4076.123868689659048
 20
127.3822422032822033
 30
0.0
 11
4076.123868689659048
 21
126.5015913244345001
 31
0.0
  0
LINE
  5
681E
  8
0
 10
4078.168759022643826
 20
126.0674867870084057
 30
0.0
 11
4077.9147859403437906
 21
126.1281581345584044
 31
0.0
  0
LINE
  5
681F
  8
0
 10
4077.2738209767808257
 20
126.3237097577731021
 30
0.0
 11
4077.3865642436539929
 21
126.2967766404652963
 31
0.0
  0
LINE
  5
6820
  8
0
 10
4077.6107621899141122
 20
126.243218235122697
 30
0.0
 11
4077.8845635380439489
 21
126.1778101266584002
 31
0.0
  0
ARC
  5
6821
  8
0
 10
4076.5526712438941104
 20
123.2210296322578955
 30
0.0
 40
3.1846995816152042
 50
80.1729543624900032
 51
84.5791150926671094
  0
ARC
  5
6822
  8
0
 10
4075.3639069759451559
 20
115.4766902427583943
 30
0.0
 40
11.0193105957000004
 50
85.1882094112084332
 51
85.8398195943911588
  0
ARC
  5
6823
  8
0
 10
4079.6869398933267803
 20
126.9448391601005
 30
0.0
 40
3.590535481822962
 50
180.0466339881818101
 51
187.0911934236854108
  0
ARC
  5
6824
  8
0
 10
4076.7248375235158164
 20
124.0255342409544994
 30
0.0
 40
2.3628359101010301
 50
76.565069624042124
 51
80.956980064473683
  0
ARC
  5
6825
  8
0
 10
4076.1677711264851496
 20
126.5118236048118945
 30
0.0
 40
0.0450790807464107
 50
193.119637641888005
 51
264.3123545268414887
  0
ARC
  5
6826
  8
0
 10
4077.8774830182960613
 20
126.1566854310020034
 30
0.0
 40
0.0222797335259232
 50
5.0944619261659101
 51
71.4700143427663477
  0
ARC
  5
6827
  8
0
 10
4077.9234661676919131
 20
126.1505453981508964
 30
0.0
 40
0.024011162443348
 50
187.7573130786057902
 51
248.8071635590889912
  0
ARC
  5
6828
  8
0
 10
4076.1936585642429236
 20
123.1775336477303995
 30
0.0
 40
3.2809944366806181
 50
78.3975125933389023
 51
88.3481238447007087
  0
ARC
  5
6829
  8
0
 10
4077.2483507780630134
 20
127.5126863882765065
 30
0.0
 40
0.0404882390401274
 50
102.7607834385510017
 51
128.7808859287194991
  0
ARC
  5
682A
  8
0
 10
4077.3329177194618751
 20
125.5761791684885935
 30
0.0
 40
0.7225916316820463
 50
67.3866106988200357
 51
85.7423391584232064
  0
ENDSEC
  0
EOF
