  0
SECTION
  2
HEADER
  9
$ACADVER
  1
AC1009
  9
$INSBASE
 10
413.8692376810993778
 20
76.1924546030880805
 30
0.0
  9
$EXTMIN
 10
412.5183359167666026
 20
71.6306983480091048
 30
-0.0015258207003583
  9
$EXTMAX
 10
415.2108897981901237
 20
76.2000503533567723
 30
0.0000000349246037
  9
$LIMMIN
 10
0.0
 20
0.0
  9
$LIMMAX
 10
11.6929133858000007
 20
8.2677165353999982
  9
$ORTHOMODE
 70
     0
  9
$REGENMODE
 70
     1
  9
$FILLMODE
 70
     1
  9
$QTEXTMODE
 70
     0
  9
$MIRRTEXT
 70
     0
  9
$DRAGMODE
 70
     2
  9
$LTSCALE
 40
0.6431102362
  9
$OSMODE
 70
  2047
  9
$ATTMODE
 70
     1
  9
$TEXTSIZE
 40
0.2
  9
$TRACEWID
 40
0.05
  9
$TEXTSTYLE
  7
STANDARD
  9
$CLAYER
  8
0
  9
$CELTYPE
  6
BYLAYER
  9
$CECOLOR
 62
   256
  9
$DIMSCALE
 40
1.0
  9
$DIMASZ
 40
0.1875
  9
$DIMEXO
 40
0.0625
  9
$DIMDLI
 40
0.4443307087
  9
$DIMRND
 40
0.0
  9
$DIMDLE
 40
0.0
  9
$DIMEXE
 40
0.125
  9
$DIMTP
 40
0.01
  9
$DIMTM
 40
0.01
  9
$DIMTXT
 40
1.0
  9
$DIMCEN
 40
0.1052362205
  9
$DIMTSZ
 40
0.0
  9
$DIMTOL
 70
     1
  9
$DIMLIM
 70
     0
  9
$DIMTIH
 70
     0
  9
$DIMTOH
 70
     1
  9
$DIMSE1
 70
     0
  9
$DIMSE2
 70
     0
  9
$DIMTAD
 70
     0
  9
$DIMZIN
 70
     0
  9
$DIMBLK
  1

  9
$DIMASO
 70
     1
  9
$DIMSHO
 70
     1
  9
$DIMPOST
  1
\X
  9
$DIMAPOST
  1

  9
$DIMALT
 70
     1
  9
$DIMALTD
 70
     2
  9
$DIMALTF
 40
25.3999999999999986
  9
$DIMLFAC
 40
1.0
  9
$DIMTOFL
 70
     0
  9
$DIMTVP
 40
0.0
  9
$DIMTIX
 70
     0
  9
$DIMSOXD
 70
     0
  9
$DIMSAH
 70
     0
  9
$DIMBLK1
  1

  9
$DIMBLK2
  1

  9
$DIMSTYLE
  2
STANDARD
  9
$DIMCLRD
 70
     0
  9
$DIMCLRE
 70
     0
  9
$DIMCLRT
 70
     0
  9
$DIMTFAC
 40
1.0
  9
$DIMGAP
 40
0.09
  9
$LUNITS
 70
     2
  9
$LUPREC
 70
     4
  9
$SKETCHINC
 40
0.1
  9
$FILLETRAD
 40
0.0
  9
$AUNITS
 70
     0
  9
$AUPREC
 70
     0
  9
$MENU
  1
.
  9
$ELEVATION
 40
0.0
  9
$PELEVATION
 40
0.0
  9
$THICKNESS
 40
0.0
  9
$LIMCHECK
 70
     0
  9
$BLIPMODE
 70
     0
  9
$CHAMFERA
 40
0.0
  9
$CHAMFERB
 40
0.0
  9
$SKPOLY
 70
     0
  9
$TDCREATE
 40
2458172.5207638889551163
  9
$TDUPDATE
 40
2459047.4540625000372529
  9
$TDINDWG
 40
0.2702055324
  9
$TDUSRTIMER
 40
0.2702055324
  9
$USRTIMER
 70
     1
  9
$ANGBASE
 50
0.0
  9
$ANGDIR
 70
     0
  9
$PDMODE
 70
     0
  9
$PDSIZE
 40
0.3125
  9
$PLINEWID
 40
0.0
  9
$COORDS
 70
     1
  9
$SPLFRAME
 70
     0
  9
$SPLINETYPE
 70
     6
  9
$SPLINESEGS
 70
     8
  9
$ATTDIA
 70
     1
  9
$ATTREQ
 70
     1
  9
$HANDLING
 70
     1
  9
$HANDSEED
  5
C7B4
  9
$SURFTAB1
 70
     6
  9
$SURFTAB2
 70
     6
  9
$SURFTYPE
 70
     6
  9
$SURFU
 70
     6
  9
$SURFV
 70
     6
  9
$UCSNAME
  2

  9
$UCSORG
 10
0.0
 20
0.0
 30
0.0
  9
$UCSXDIR
 10
1.0
 20
0.0
 30
0.0
  9
$UCSYDIR
 10
0.0
 20
1.0
 30
0.0
  9
$PUCSNAME
  2

  9
$PUCSORG
 10
0.0
 20
0.0
 30
0.0
  9
$PUCSXDIR
 10
1.0
 20
0.0
 30
0.0
  9
$PUCSYDIR
 10
0.0
 20
1.0
 30
0.0
  9
$USERI1
 70
     0
  9
$USERI2
 70
     0
  9
$USERI3
 70
     0
  9
$USERI4
 70
     0
  9
$USERI5
 70
     0
  9
$USERR1
 40
0.0
  9
$USERR2
 40
0.0
  9
$USERR3
 40
0.0
  9
$USERR4
 40
0.0
  9
$USERR5
 40
0.0
  9
$WORLDVIEW
 70
     1
  9
$SHADEDGE
 70
     3
  9
$SHADEDIF
 70
    70
  9
$TILEMODE
 70
     1
  9
$MAXACTVP
 70
    64
  9
$PLIMCHECK
 70
     0
  9
$PEXTMIN
 10
1.0000000000000000E+20
 20
1.0000000000000000E+20
 30
1.0000000000000000E+20
  9
$PEXTMAX
 10
-1.0000000000000000E+20
 20
-1.0000000000000000E+20
 30
-1.0000000000000000E+20
  9
$PLIMMIN
 10
0.0
 20
0.0
  9
$PLIMMAX
 10
12.0
 20
9.0
  9
$UNITMODE
 70
     0
  9
$VISRETAIN
 70
     1
  9
$PLINEGEN
 70
     0
  9
$PSLTSCALE
 70
     1
  0
ENDSEC
  0
SECTION
  2
TABLES
  0
TABLE
  2
VPORT
 70
     1
  0
VPORT
  2
*ACTIVE
 70
     0
 10
0.0
 20
0.0
 11
1.0
 21
1.0
 12
-15.7646762505753504
 22
4.2128328384642506
 13
0.0
 23
0.0
 14
1.0
 24
1.0
 15
0.0
 25
0.0
 16
0.0
 26
0.0
 36
14.6338572656650907
 17
429.6292891080536833
 27
69.7025415122186871
 37
0.0
 40
4.6073771260579122
 41
2.6486111111111108
 42
50.0
 43
0.0
 44
0.0
 50
0.0
 51
0.0
 71
     0
 72
   100
 73
     1
 74
     1
 75
     0
 76
     0
 77
     0
 78
     0
  0
ENDTAB
  0
TABLE
  2
LTYPE
 70
     2
  0
LTYPE
  2
CONTINUOUS
 70
     0
  3
Solid line
 72
    65
 73
     0
 40
0.0
  0
LTYPE
  2
PHANTOM2
 70
     0
  3
___ _ _ ___ _ _ ___ _ _ ___ _ _
 72
    65
 73
     6
 40
1.25
 49
0.625
 49
-0.125
 49
0.125
 49
-0.125
 49
0.125
 49
-0.125
  0
ENDTAB
  0
TABLE
  2
LAYER
 70
     2
  0
LAYER
  2
0
 70
     0
 62
   255
  6
CONTINUOUS
  0
LAYER
  2
DEFPOINTS
 70
     0
 62
     7
  6
CONTINUOUS
  0
ENDTAB
  0
TABLE
  2
STYLE
 70
     1
  0
STYLE
  2
STANDARD
 70
     0
 40
0.0
 41
0.8
 50
0.0
 71
     0
 42
0.2
  3
txt
  4

  0
ENDTAB
  0
TABLE
  2
VIEW
 70
     0
  0
ENDTAB
  0
TABLE
  2
UCS
 70
     0
  0
ENDTAB
  0
TABLE
  2
APPID
 70
    10
  0
APPID
  2
ACAD
 70
     0
  0
APPID
  2
ACAD_MLEADERVER
 70
     0
  0
APPID
  2
ACAD_EXEMPT_FROM_CAD_STANDARDS
 70
     0
  0
APPID
  2
ACAD_DSTYLE_DIMJAG
 70
     0
  0
APPID
  2
ACAD_DSTYLE_DIMTALN
 70
     0
  0
APPID
  2
ACAD_NAV_VCDISPLAY
 70
     0
  0
APPID
  2
ACAECLAYERSTANDARD
 70
     0
  0
APPID
  2
ACCMTRANSPARENCY
 70
     0
  0
APPID
  2
DCO15
 70
     0
  0
APPID
  2
ACDBATTR
 70
     0
  0
ENDTAB
  0
TABLE
  2
DIMSTYLE
 70
     1
  0
DIMSTYLE
  2
STANDARD
 70
     0
  3

  4

  5

  6

  7

 40
1.0
 41
0.1875
 42
0.0625
 43
0.38
 44
0.125
 45
0.0
 46
0.0
 47
0.01
 48
0.01
140
0.15625
141
0.09
142
0.0
143
25.3999999999999986
144
1.0
145
0.0
146
1.0
147
0.09
 71
     1
 72
     0
 73
     1
 74
     1
 75
     0
 76
     0
 77
     0
 78
     4
170
     0
171
     2
172
     0
173
     0
174
     0
175
     0
176
     0
177
     0
178
     0
  0
ENDTAB
  0
ENDSEC
  0
SECTION
  2
BLOCKS
  0
BLOCK
  8
0
  2
$MODEL_SPACE
 70
     0
 10
0.0
 20
0.0
 30
0.0
  3
$MODEL_SPACE
  1

  0
ENDBLK
  5
21
  8
0
  0
BLOCK
 67
     1
  8
0
  2
$PAPER_SPACE
 70
     0
 10
0.0
 20
0.0
 30
0.0
  3
$PAPER_SPACE
  1

  0
ENDBLK
  5
1D
 67
     1
  8
0
  0
BLOCK
  8
0
  2
_FILLED
 70
     0
 10
0.0
 20
0.0
 30
0.0
  3
_FILLED
  1

  0
SOLID
  5
87E2
  8
0
  6
BYBLOCK
 62
     0
 10
0.0
 20
0.0
 30
0.0
 11
-1.0
 21
0.1666666667
 31
0.0
 12
-1.0
 22
-0.1666666667
 32
0.0
 13
-1.0
 23
-0.1666666667
 33
0.0
  0
ENDBLK
  5
87E3
  8
0
  6
BYBLOCK
 62
     0
  0
ENDSEC
  0
SECTION
  2
ENTITIES
  0
ATTDEF
  5
C190
  8
DEFPOINTS
 10
413.8695174326268216
 20
76.1961850130782068
 30
0.0
 40
0.001
  1
K-5637IN
  3

  2
MODELNUMBER
 70
     0
1001
ACDBATTR
1070
     0
1070
     1
  0
ATTDEF
  5
C191
  8
DEFPOINTS
 10
413.8695174326268216
 20
76.1945183464115416
 30
0.0
 40
0.001
  1

  3

  2
TRADENAME
 70
     0
1001
ACDBATTR
1070
     0
1070
     1
  0
ATTDEF
  5
C192
  8
DEFPOINTS
 10
413.8695174326268216
 20
76.1928516797448765
 30
0.0
 40
0.001
  1
TUMBLER HOLDER
  3

  2
PRODUCT
 70
     0
1001
ACDBATTR
1070
     0
1070
     1
  0
ARC
  5
C487
  8
0
 10
413.8693573829136767
 20
72.9445417553412767
 30
0.0
 40
1.3289329512254471
 50
180.0051153731697866
 51
256.2855110245599235
  0
ARC
  5
C488
  8
0
 10
413.8696126224480736
 20
72.971090187937989
 30
0.0
 40
1.3294556651217391
 50
90.0161589120239967
 51
181.1493528111249987
  0
ARC
  5
C489
  8
0
 10
413.8691583741613726
 20
72.9713798687986497
 30
0.0
 40
1.329165933655424
 50
358.8379069326372246
 51
89.9965813502135745
  0
ARC
  5
C48A
  8
0
 10
413.8691182274994276
 20
72.9445416306880787
 30
0.0
 40
1.3289327030000011
 50
283.7150068225686823
 51
359.9948900019998064
  0
LINE
  5
C48B
  8
0
 10
414.1841983424994851
 20
71.6534489616880848
 30
0.0
 11
414.1841983424994851
 21
71.670629985740149
 31
0.0
  0
ARC
  5
C48C
  8
0
 10
413.8698772563067791
 20
72.9423569637231708
 30
0.0
 40
1.309995134248646
 50
269.9720414123016212
 51
310.0279180902250005
  0
ARC
  5
C48D
  8
0
 10
413.836412432186421
 20
72.9821993455845472
 30
0.0
 40
1.3620269499559901
 50
310.0279180902250005
 51
359.159008306630426
  0
LINE
  5
C48E
  8
0
 10
412.9932534290994113
 20
76.1924546030880805
 30
0.0
 11
414.7452219330995149
 21
76.1924546030880805
 31
0.0
  0
LINE
  5
C48F
  8
0
 10
414.7452219330995149
 20
76.1924546030880805
 30
0.0
 11
414.6677120904993785
 21
75.9168640515880639
 31
0.0
  0
LINE
  5
C490
  8
0
 10
414.6677120904993785
 20
75.9168640515880639
 30
0.0
 11
413.0707632717994215
 21
75.9168640515880639
 31
0.0
  0
LINE
  5
C491
  8
0
 10
413.0707632717994215
 20
75.9168640515880639
 30
0.0
 11
412.9932534290994113
 21
76.1924546030880805
 31
0.0
  0
LINE
  5
C492
  8
0
 10
413.1113642975994935
 20
75.9168618021880803
 30
0.0
 11
413.3244255960993883
 21
75.1593106157880868
 31
0.0
  0
ARC
  5
C493
  8
0
 10
412.0163679028120214
 20
74.7488877062639858
 30
0.0
 40
1.3709346788343559
 50
0.0771814175507446
 51
17.4200391446950391
  0
LINE
  5
C494
  8
0
 10
413.3873013377994994
 20
74.750734450488082
 30
0.0
 11
413.3968736924314271
 21
74.444191211982826
 31
0.0
  0
ARC
  5
C495
  8
0
 10
412.6876619266383841
 20
74.4102261655097124
 30
0.0
 40
0.710024614447389
 50
356.7214769159340904
 51
2.7418722394007511
  0
ARC
  5
C496
  8
0
 10
413.0790762561870224
 20
74.389195064586616
 30
0.0
 40
0.3180511685508524
 50
337.3468803559561024
 51
356.4713918131639048
  0
ARC
  5
C497
  8
0
 10
413.0909267023142775
 20
74.3867766214909807
 30
0.0
 40
0.3061923596319003
 50
317.5816616758096984
 51
336.9104399374274976
  0
ARC
  5
C498
  8
0
 10
413.8692376810993778
 20
72.9719821620880822
 30
0.0
 40
1.1646990343000001
 50
90.0
 51
270.0
  0
ARC
  5
C499
  8
0
 10
413.8692376810993778
 20
72.9719821620880822
 30
0.0
 40
1.1646990343000001
 50
270.0
 51
90.0
  0
LINE
  5
C49A
  8
0
 10
413.5542888767994896
 20
71.6534977493880803
 30
0.0
 11
413.5542884135491022
 21
71.6707232440958819
 31
0.0
  0
ARC
  5
C49B
  8
0
 10
413.8716119444836181
 20
72.9639105392685536
 30
0.0
 40
1.3315508265480389
 50
179.0797832525585989
 51
269.8978369126139114
  0
LINE
  5
C49C
  8
0
 10
414.6271116974410234
 20
75.9168640515880639
 30
0.0
 11
414.4140497658522122
 21
75.1593106155383452
 31
0.0
  0
ARC
  5
C49D
  8
0
 10
415.7221074589514842
 20
74.7488877054147025
 30
0.0
 40
1.3709346788343559
 50
162.5799608290427898
 51
179.922818556187309
  0
LINE
  5
C49E
  8
0
 10
414.3511740239649725
 20
74.7507344502671742
 30
0.0
 11
414.3416016691925279
 21
74.4441912117663236
 31
0.0
  0
ARC
  5
C49F
  8
0
 10
415.0508134349698821
 20
74.4102261649681225
 30
0.0
 40
0.710024614447389
 50
177.2581277343373074
 51
183.2785230578033122
  0
ARC
  5
C4A0
  8
0
 10
414.6593991054115804
 20
74.389195064224424
 30
0.0
 40
0.3180511685508524
 50
183.5286081605740094
 51
202.6531196177814138
  0
ARC
  5
C4A1
  8
0
 10
414.6475486592833022
 20
74.3867766211342314
 30
0.0
 40
0.3061923596319003
 50
203.0895600363110987
 51
222.3721675031065104
  0
ENDSEC
  0
EOF
