  0
SECTION
  2
HEADER
  9
$ACADVER
  1
AC1009
  9
$INSBASE
 10
421.2098419623050063
 20
67.5079067148071772
 30
0.0
  9
$EXTMIN
 10
416.6062445650240988
 20
66.4233295745859778
 30
-0.0015258207003583
  9
$EXTMAX
 10
421.2339168720400266
 20
70.1990254949025712
 30
0.0000000349246037
  9
$LIMMIN
 10
0.0
 20
0.0
  9
$LIMMAX
 10
11.6929133858000007
 20
8.2677165353999982
  9
$ORTHOMODE
 70
     0
  9
$REGENMODE
 70
     1
  9
$FILLMODE
 70
     1
  9
$QTEXTMODE
 70
     0
  9
$MIRRTEXT
 70
     0
  9
$DRAGMODE
 70
     2
  9
$LTSCALE
 40
0.6431102362
  9
$OSMODE
 70
  2047
  9
$ATTMODE
 70
     1
  9
$TEXTSIZE
 40
0.2
  9
$TRACEWID
 40
0.05
  9
$TEXTSTYLE
  7
STANDARD
  9
$CLAYER
  8
0
  9
$CELTYPE
  6
BYLAYER
  9
$CECOLOR
 62
   256
  9
$DIMSCALE
 40
1.0
  9
$DIMASZ
 40
0.1875
  9
$DIMEXO
 40
0.0625
  9
$DIMDLI
 40
0.4443307087
  9
$DIMRND
 40
0.0
  9
$DIMDLE
 40
0.0
  9
$DIMEXE
 40
0.125
  9
$DIMTP
 40
0.01
  9
$DIMTM
 40
0.01
  9
$DIMTXT
 40
1.0
  9
$DIMCEN
 40
0.1052362205
  9
$DIMTSZ
 40
0.0
  9
$DIMTOL
 70
     1
  9
$DIMLIM
 70
     0
  9
$DIMTIH
 70
     0
  9
$DIMTOH
 70
     1
  9
$DIMSE1
 70
     0
  9
$DIMSE2
 70
     0
  9
$DIMTAD
 70
     0
  9
$DIMZIN
 70
     0
  9
$DIMBLK
  1

  9
$DIMASO
 70
     1
  9
$DIMSHO
 70
     1
  9
$DIMPOST
  1
\X
  9
$DIMAPOST
  1

  9
$DIMALT
 70
     1
  9
$DIMALTD
 70
     2
  9
$DIMALTF
 40
25.3999999999999986
  9
$DIMLFAC
 40
1.0
  9
$DIMTOFL
 70
     0
  9
$DIMTVP
 40
0.0
  9
$DIMTIX
 70
     0
  9
$DIMSOXD
 70
     0
  9
$DIMSAH
 70
     0
  9
$DIMBLK1
  1

  9
$DIMBLK2
  1

  9
$DIMSTYLE
  2
STANDARD
  9
$DIMCLRD
 70
     0
  9
$DIMCLRE
 70
     0
  9
$DIMCLRT
 70
     0
  9
$DIMTFAC
 40
1.0
  9
$DIMGAP
 40
0.09
  9
$LUNITS
 70
     2
  9
$LUPREC
 70
     4
  9
$SKETCHINC
 40
0.1
  9
$FILLETRAD
 40
0.0
  9
$AUNITS
 70
     0
  9
$AUPREC
 70
     0
  9
$MENU
  1
.
  9
$ELEVATION
 40
0.0
  9
$PELEVATION
 40
0.0
  9
$THICKNESS
 40
0.0
  9
$LIMCHECK
 70
     0
  9
$BLIPMODE
 70
     0
  9
$CHAMFERA
 40
0.0
  9
$CHAMFERB
 40
0.0
  9
$SKPOLY
 70
     0
  9
$TDCREATE
 40
2458172.5207638889551163
  9
$TDUPDATE
 40
2459047.4536342588253319
  9
$TDINDWG
 40
0.2694647917
  9
$TDUSRTIMER
 40
0.2694647917
  9
$USRTIMER
 70
     1
  9
$ANGBASE
 50
0.0
  9
$ANGDIR
 70
     0
  9
$PDMODE
 70
     0
  9
$PDSIZE
 40
0.3125
  9
$PLINEWID
 40
0.0
  9
$COORDS
 70
     1
  9
$SPLFRAME
 70
     0
  9
$SPLINETYPE
 70
     6
  9
$SPLINESEGS
 70
     8
  9
$ATTDIA
 70
     1
  9
$ATTREQ
 70
     1
  9
$HANDLING
 70
     1
  9
$HANDSEED
  5
CC70
  9
$SURFTAB1
 70
     6
  9
$SURFTAB2
 70
     6
  9
$SURFTYPE
 70
     6
  9
$SURFU
 70
     6
  9
$SURFV
 70
     6
  9
$UCSNAME
  2

  9
$UCSORG
 10
0.0
 20
0.0
 30
0.0
  9
$UCSXDIR
 10
1.0
 20
0.0
 30
0.0
  9
$UCSYDIR
 10
0.0
 20
1.0
 30
0.0
  9
$PUCSNAME
  2

  9
$PUCSORG
 10
0.0
 20
0.0
 30
0.0
  9
$PUCSXDIR
 10
1.0
 20
0.0
 30
0.0
  9
$PUCSYDIR
 10
0.0
 20
1.0
 30
0.0
  9
$USERI1
 70
     0
  9
$USERI2
 70
     0
  9
$USERI3
 70
     0
  9
$USERI4
 70
     0
  9
$USERI5
 70
     0
  9
$USERR1
 40
0.0
  9
$USERR2
 40
0.0
  9
$USERR3
 40
0.0
  9
$USERR4
 40
0.0
  9
$USERR5
 40
0.0
  9
$WORLDVIEW
 70
     1
  9
$SHADEDGE
 70
     3
  9
$SHADEDIF
 70
    70
  9
$TILEMODE
 70
     1
  9
$MAXACTVP
 70
    64
  9
$PLIMCHECK
 70
     0
  9
$PEXTMIN
 10
1.0000000000000000E+20
 20
1.0000000000000000E+20
 30
1.0000000000000000E+20
  9
$PEXTMAX
 10
-1.0000000000000000E+20
 20
-1.0000000000000000E+20
 30
-1.0000000000000000E+20
  9
$PLIMMIN
 10
0.0
 20
0.0
  9
$PLIMMAX
 10
12.0
 20
9.0
  9
$UNITMODE
 70
     0
  9
$VISRETAIN
 70
     1
  9
$PLINEGEN
 70
     0
  9
$PSLTSCALE
 70
     1
  0
ENDSEC
  0
SECTION
  2
TABLES
  0
TABLE
  2
VPORT
 70
     1
  0
VPORT
  2
*ACTIVE
 70
     0
 10
0.0
 20
0.0
 11
1.0
 21
1.0
 12
-10.7092083895216792
 22
-1.391363977474412
 13
0.0
 23
0.0
 14
1.0
 24
1.0
 15
0.0
 25
0.0
 16
0.0
 26
0.0
 36
14.6338572656650907
 17
429.6292891080536833
 27
69.7025415122186871
 37
0.0
 40
3.807116413412154
 41
2.6486111111111108
 42
50.0
 43
0.0
 44
0.0
 50
0.0
 51
0.0
 71
     0
 72
   100
 73
     1
 74
     1
 75
     0
 76
     0
 77
     0
 78
     0
  0
ENDTAB
  0
TABLE
  2
LTYPE
 70
     2
  0
LTYPE
  2
CONTINUOUS
 70
     0
  3
Solid line
 72
    65
 73
     0
 40
0.0
  0
LTYPE
  2
PHANTOM2
 70
     0
  3
___ _ _ ___ _ _ ___ _ _ ___ _ _
 72
    65
 73
     6
 40
1.25
 49
0.625
 49
-0.125
 49
0.125
 49
-0.125
 49
0.125
 49
-0.125
  0
ENDTAB
  0
TABLE
  2
LAYER
 70
     2
  0
LAYER
  2
0
 70
     0
 62
   255
  6
CONTINUOUS
  0
LAYER
  2
DEFPOINTS
 70
     0
 62
     7
  6
CONTINUOUS
  0
ENDTAB
  0
TABLE
  2
STYLE
 70
     1
  0
STYLE
  2
STANDARD
 70
     0
 40
0.0
 41
0.8
 50
0.0
 71
     0
 42
0.2
  3
txt
  4

  0
ENDTAB
  0
TABLE
  2
VIEW
 70
     0
  0
ENDTAB
  0
TABLE
  2
UCS
 70
     0
  0
ENDTAB
  0
TABLE
  2
APPID
 70
    10
  0
APPID
  2
ACAD
 70
     0
  0
APPID
  2
ACAD_MLEADERVER
 70
     0
  0
APPID
  2
ACAD_EXEMPT_FROM_CAD_STANDARDS
 70
     0
  0
APPID
  2
ACAD_DSTYLE_DIMJAG
 70
     0
  0
APPID
  2
ACAD_DSTYLE_DIMTALN
 70
     0
  0
APPID
  2
ACAD_NAV_VCDISPLAY
 70
     0
  0
APPID
  2
ACAECLAYERSTANDARD
 70
     0
  0
APPID
  2
ACCMTRANSPARENCY
 70
     0
  0
APPID
  2
DCO15
 70
     0
  0
APPID
  2
ACDBATTR
 70
     0
  0
ENDTAB
  0
TABLE
  2
DIMSTYLE
 70
     1
  0
DIMSTYLE
  2
STANDARD
 70
     0
  3

  4

  5

  6

  7

 40
1.0
 41
0.1875
 42
0.0625
 43
0.38
 44
0.125
 45
0.0
 46
0.0
 47
0.01
 48
0.01
140
0.15625
141
0.09
142
0.0
143
25.3999999999999986
144
1.0
145
0.0
146
1.0
147
0.09
 71
     1
 72
     0
 73
     1
 74
     1
 75
     0
 76
     0
 77
     0
 78
     4
170
     0
171
     2
172
     0
173
     0
174
     0
175
     0
176
     0
177
     0
178
     0
  0
ENDTAB
  0
ENDSEC
  0
SECTION
  2
BLOCKS
  0
BLOCK
  8
0
  2
$MODEL_SPACE
 70
     0
 10
0.0
 20
0.0
 30
0.0
  3
$MODEL_SPACE
  1

  0
ENDBLK
  5
21
  8
0
  0
BLOCK
 67
     1
  8
0
  2
$PAPER_SPACE
 70
     0
 10
0.0
 20
0.0
 30
0.0
  3
$PAPER_SPACE
  1

  0
ENDBLK
  5
1D
 67
     1
  8
0
  0
BLOCK
  8
0
  2
_FILLED
 70
     0
 10
0.0
 20
0.0
 30
0.0
  3
_FILLED
  1

  0
SOLID
  5
87E2
  8
0
  6
BYBLOCK
 62
     0
 10
0.0
 20
0.0
 30
0.0
 11
-1.0
 21
0.1666666667
 31
0.0
 12
-1.0
 22
-0.1666666667
 32
0.0
 13
-1.0
 23
-0.1666666667
 33
0.0
  0
ENDBLK
  5
87E3
  8
0
  6
BYBLOCK
 62
     0
  0
ENDSEC
  0
SECTION
  2
ENTITIES
  0
ATTDEF
  5
C18D
  8
DEFPOINTS
 10
421.2103945779822993
 20
67.5116848511804335
 30
0.0
 40
0.001
  1
K-5637IN
  3

  2
MODELNUMBER
 70
     0
1001
ACDBATTR
1070
     0
1070
     1
  0
ATTDEF
  5
C18E
  8
DEFPOINTS
 10
421.2103945779822993
 20
67.5100181845137683
 30
0.0
 40
0.001
  1

  3

  2
TRADENAME
 70
     0
1001
ACDBATTR
1070
     0
1070
     1
  0
ATTDEF
  5
C18F
  8
DEFPOINTS
 10
421.2103945779822993
 20
67.5083515178471032
 30
0.0
 40
0.001
  1
TUMBLER HOLDER
  3

  2
PRODUCT
 70
     0
1001
ACDBATTR
1070
     0
1070
     1
  0
LINE
  5
C5D9
  8
0
 10
416.7001796474049797
 20
70.196883092596309
 30
0.0
 11
419.2785672751721791
 21
70.196883092596309
 31
0.0
  0
ARC
  5
C5DA
  8
0
 10
416.7001799226376875
 20
70.1575123494256445
 30
0.0
 40
0.0393707431716221
 50
90.0004005429993299
 51
180.2547764480370063
  0
LINE
  5
C5DB
  8
0
 10
416.6608095687050195
 20
70.1573372805963089
 30
0.0
 11
416.6706169640049779
 21
67.9602653330963022
 31
0.0
  0
ARC
  5
C5DC
  8
0
 10
416.9165373843096063
 20
67.9925572806184846
 30
0.0
 40
0.2480314959789796
 50
187.4807412177439971
 51
229.7747767797563085
  0
LINE
  5
C5DD
  8
0
 10
416.7098460399050168
 20
67.8031823051963016
 30
0.0
 11
419.2689011579050202
 21
67.8031823051963016
 31
0.0
  0
LINE
  5
C5DE
  8
0
 10
419.1683697832048097
 20
67.763812226496313
 30
0.0
 11
416.7098460399050168
 21
67.763812226496313
 31
0.0
  0
LINE
  5
C5DF
  8
0
 10
416.7098460399050168
 20
67.763812226496313
 30
0.0
 11
416.7098460399050168
 21
67.8031823051963016
 31
0.0
  0
LINE
  5
C5E0
  8
0
 10
416.7590586383050208
 20
67.763812226496313
 30
0.0
 11
416.7590586383050208
 21
67.7539697067963118
 31
0.0
  0
ARC
  5
C5E1
  8
0
 10
416.6728673404339247
 20
67.7310301856974775
 30
0.0
 40
0.022929745090758
 50
90.0
 51
171.3062805144369065
  0
ARC
  5
C5E2
  8
0
 10
418.1326495699726138
 20
67.5078158739919729
 30
0.0
 40
1.499679143813238
 50
171.3062805144369065
 51
188.6877178583071952
  0
ARC
  5
C5E3
  8
0
 10
416.6728332668233747
 20
67.2847528379741959
 30
0.0
 40
0.0229189205618077
 50
188.6877178583063994
 51
270.0915788826251855
  0
LINE
  5
C5E4
  8
0
 10
419.1259911547757042
 20
67.2520012027962935
 30
0.0
 11
416.7098566775050017
 21
67.2520012027962935
 31
0.0
  0
LINE
  5
C5E5
  8
0
 10
416.7098566775050017
 20
67.2520012027962935
 30
0.0
 11
416.7098460399050168
 21
67.2126311240963048
 31
0.0
  0
LINE
  5
C5E6
  8
0
 10
416.7098460399050168
 20
67.2126311240963048
 30
0.0
 11
419.2689011579050202
 21
67.2126311240963048
 31
0.0
  0
LINE
  5
C5E7
  8
0
 10
416.8206907386049238
 20
67.2126311240963048
 30
0.0
 11
416.826876501105005
 21
66.5422500012963098
 31
0.0
  0
ARC
  5
C5E8
  8
0
 10
416.9449817090335273
 20
66.543339785283635
 30
0.0
 40
0.1181102356655839
 50
180.5286663658201007
 51
270.0000002772263201
  0
LINE
  5
C5E9
  8
0
 10
416.9449817096049742
 20
66.4252295496180523
 30
0.0
 11
419.0337567703788864
 21
66.425229549618038
 31
0.0
  0
LINE
  5
C5EA
  8
0
 10
419.1518706967049752
 20
66.5422500012963098
 30
0.0
 11
416.826876501105005
 21
66.5422500012963098
 31
0.0
  0
LINE
  5
C5EB
  8
0
 10
416.7590586383050208
 20
67.2618437224963088
 30
0.0
 11
416.7590586383050208
 21
67.2520012027962935
 31
0.0
  0
ARC
  5
C5EC
  8
0
 10
419.2785672751738275
 20
70.1575123494263124
 30
0.0
 40
0.0393707431699873
 50
359.7452235509753109
 51
90.0000000023840272
  0
LINE
  5
C5ED
  8
0
 10
419.3179376291050175
 20
70.1573372805963089
 30
0.0
 11
419.3081302338048886
 21
67.9602653330963022
 31
0.0
  0
ARC
  5
C5EE
  8
0
 10
419.0622098135003171
 20
67.9925572806184846
 30
0.0
 40
0.2480314959789796
 50
310.2252232202437199
 51
352.5192587822559744
  0
LINE
  5
C5EF
  8
0
 10
419.2688970804049973
 20
67.7869821922571703
 30
0.0
 11
419.2689011579050202
 21
67.8031823051963016
 31
0.0
  0
LINE
  5
C5F0
  8
0
 10
419.2688967806940923
 20
67.2288313135525613
 30
0.0
 11
419.2689011579050202
 21
67.2126311240963048
 31
0.0
  0
LINE
  5
C5F1
  8
0
 10
419.1580564592048859
 20
67.2126311240963048
 30
0.0
 11
419.1518706967049752
 21
66.5422500012963098
 31
0.0
  0
ARC
  5
C5F2
  8
0
 10
419.0337654882231959
 20
66.5433397855173041
 30
0.0
 40
0.1181102362209955
 50
269.9957709365576193
 51
359.4713335233050202
  0
LINE
  5
C5F3
  8
0
 10
416.6728673404339247
 20
67.753959930788227
 30
0.0
 11
419.0643375225048999
 21
67.7539697069571787
 31
0.0
  0
ARC
  5
C5F4
  8
0
 10
419.0518177063020744
 20
68.441015131133085
 30
0.0
 40
0.687159487076181
 50
271.0439677182623086
 51
284.4913009754155269
  0
ARC
  5
C5F5
  8
0
 10
419.4230511080751853
 20
67.0733870158074836
 30
0.0
 40
0.7300558472654493
 50
102.1899733301605977
 51
105.841081580695203
  0
ARC
  5
C5F6
  8
0
 10
418.8939685213915141
 20
69.2888704298570559
 30
0.0
 40
1.547979231968186
 50
284.0167273740328255
 51
285.7313392114099884
  0
LINE
  5
C5F7
  8
0
 10
419.3136674422038936
 20
67.7988729404384429
 30
0.0
 11
420.9342514122050147
 21
68.2657807313571823
 31
0.0
  0
LINE
  5
C5F8
  8
0
 10
420.9342514108049045
 20
68.3063682740571778
 30
0.0
 11
421.2098419623050063
 21
68.3838909667571784
 31
0.0
  0
LINE
  5
C5F9
  8
0
 10
421.2098419623050063
 20
68.3838909667571784
 30
0.0
 11
421.2098419623050063
 21
66.631922462857176
 31
0.0
  0
LINE
  5
C5FA
  8
0
 10
421.2098419623050063
 20
66.631922462857176
 30
0.0
 11
420.9342514108049045
 21
66.7094323054571703
 31
0.0
  0
LINE
  5
C5FB
  8
0
 10
420.9342514108049045
 20
66.7094323054571703
 30
0.0
 11
420.9342514108049045
 21
68.3063682740571778
 31
0.0
  0
LINE
  5
C5FC
  8
0
 10
420.9342514122050147
 20
66.7500326982571721
 30
0.0
 11
419.2688967806940923
 21
67.2288313135525613
 31
0.0
  0
LINE
  5
C5FD
  8
0
 10
416.6728698993338753
 20
67.2618339466882134
 30
0.0
 11
419.0643375223049247
 21
67.2618437226571757
 31
0.0
  0
ARC
  5
C5FE
  8
0
 10
419.7029098835387799
 20
71.0638459941720555
 30
0.0
 40
3.855255624875745
 50
260.4657681803010973
 51
262.8606563247324743
  0
ARC
  5
C5FF
  8
0
 10
419.1013630639391181
 20
66.5556602923027754
 30
0.0
 40
0.6937051031239641
 50
76.0245766408966119
 51
79.8369192665772545
  0
ARC
  5
C600
  8
0
 10
418.3687900033929736
 20
67.4593108700131552
 30
0.0
 40
0.9165800226050942
 50
3.039170457455572
 51
20.2831354003782813
  0
ARC
  5
C601
  8
0
 10
418.3687900028270974
 20
67.5565025482413546
 30
0.0
 40
0.9165800226050942
 50
339.6611368694005932
 51
356.9608302098308741
  0
ENDSEC
  0
EOF
