  0
SECTION
  2
HEADER
  9
$ACADVER
  1
AC1009
  9
$INSBASE
 10
3511.9615813987588808
 20
150.9194269943156996
 30
0.0
  9
$EXTMIN
 10
3505.0294314137759102
 20
147.2145310232764075
 30
-0.0000000000000058
  9
$EXTMAX
 10
3511.9962916129738915
 20
152.4968757332212022
 30
0.0000000000000104
  9
$LIMMIN
 10
0.0
 20
0.0
  9
$LIMMAX
 10
11.6929133858000007
 20
8.2677165353999982
  9
$ORTHOMODE
 70
     0
  9
$REGENMODE
 70
     1
  9
$FILLMODE
 70
     1
  9
$QTEXTMODE
 70
     0
  9
$MIRRTEXT
 70
     0
  9
$DRAGMODE
 70
     2
  9
$LTSCALE
 40
0.6431102362
  9
$OSMODE
 70
  3839
  9
$ATTMODE
 70
     1
  9
$TEXTSIZE
 40
0.2
  9
$TRACEWID
 40
0.05
  9
$TEXTSTYLE
  7
STANDARD
  9
$CLAYER
  8
0
  9
$CELTYPE
  6
BYLAYER
  9
$CECOLOR
 62
   256
  9
$DIMSCALE
 40
1.0
  9
$DIMASZ
 40
0.1875
  9
$DIMEXO
 40
0.0625
  9
$DIMDLI
 40
0.4443307087
  9
$DIMRND
 40
0.0
  9
$DIMDLE
 40
0.0
  9
$DIMEXE
 40
0.125
  9
$DIMTP
 40
0.01
  9
$DIMTM
 40
0.01
  9
$DIMTXT
 40
2.0
  9
$DIMCEN
 40
0.1052362205
  9
$DIMTSZ
 40
0.0
  9
$DIMTOL
 70
     1
  9
$DIMLIM
 70
     0
  9
$DIMTIH
 70
     1
  9
$DIMTOH
 70
     1
  9
$DIMSE1
 70
     0
  9
$DIMSE2
 70
     0
  9
$DIMTAD
 70
     0
  9
$DIMZIN
 70
     0
  9
$DIMBLK
  1

  9
$DIMASO
 70
     1
  9
$DIMSHO
 70
     1
  9
$DIMPOST
  1
\X
  9
$DIMAPOST
  1

  9
$DIMALT
 70
     1
  9
$DIMALTD
 70
     2
  9
$DIMALTF
 40
25.3999999999999986
  9
$DIMLFAC
 40
1.0
  9
$DIMTOFL
 70
     0
  9
$DIMTVP
 40
0.0
  9
$DIMTIX
 70
     0
  9
$DIMSOXD
 70
     0
  9
$DIMSAH
 70
     0
  9
$DIMBLK1
  1

  9
$DIMBLK2
  1

  9
$DIMSTYLE
  2
STANDARD
  9
$DIMCLRD
 70
     0
  9
$DIMCLRE
 70
     0
  9
$DIMCLRT
 70
     0
  9
$DIMTFAC
 40
1.0
  9
$DIMGAP
 40
0.09
  9
$LUNITS
 70
     2
  9
$LUPREC
 70
     4
  9
$SKETCHINC
 40
0.1
  9
$FILLETRAD
 40
0.0
  9
$AUNITS
 70
     0
  9
$AUPREC
 70
     0
  9
$MENU
  1
.
  9
$ELEVATION
 40
0.0
  9
$PELEVATION
 40
0.0
  9
$THICKNESS
 40
0.0
  9
$LIMCHECK
 70
     0
  9
$BLIPMODE
 70
     0
  9
$CHAMFERA
 40
0.0
  9
$CHAMFERB
 40
0.0
  9
$SKPOLY
 70
     0
  9
$TDCREATE
 40
2458060.468368056230247
  9
$TDUPDATE
 40
2459207.4935995368286967
  9
$TDINDWG
 40
0.5824607639
  9
$TDUSRTIMER
 40
0.5824607639
  9
$USRTIMER
 70
     1
  9
$ANGBASE
 50
0.0
  9
$ANGDIR
 70
     0
  9
$PDMODE
 70
     0
  9
$PDSIZE
 40
0.3125
  9
$PLINEWID
 40
0.0
  9
$COORDS
 70
     1
  9
$SPLFRAME
 70
     0
  9
$SPLINETYPE
 70
     6
  9
$SPLINESEGS
 70
     8
  9
$ATTDIA
 70
     1
  9
$ATTREQ
 70
     1
  9
$HANDLING
 70
     1
  9
$HANDSEED
  5
13D09
  9
$SURFTAB1
 70
     6
  9
$SURFTAB2
 70
     6
  9
$SURFTYPE
 70
     6
  9
$SURFU
 70
     6
  9
$SURFV
 70
     6
  9
$UCSNAME
  2

  9
$UCSORG
 10
0.0
 20
0.0
 30
0.0
  9
$UCSXDIR
 10
1.0
 20
0.0
 30
0.0
  9
$UCSYDIR
 10
0.0
 20
1.0
 30
0.0
  9
$PUCSNAME
  2

  9
$PUCSORG
 10
0.0
 20
0.0
 30
0.0
  9
$PUCSXDIR
 10
1.0
 20
0.0
 30
0.0
  9
$PUCSYDIR
 10
0.0
 20
1.0
 30
0.0
  9
$USERI1
 70
     0
  9
$USERI2
 70
     0
  9
$USERI3
 70
     0
  9
$USERI4
 70
     0
  9
$USERI5
 70
     0
  9
$USERR1
 40
0.0
  9
$USERR2
 40
0.0
  9
$USERR3
 40
0.0
  9
$USERR4
 40
0.0
  9
$USERR5
 40
0.0
  9
$WORLDVIEW
 70
     1
  9
$SHADEDGE
 70
     3
  9
$SHADEDIF
 70
    70
  9
$TILEMODE
 70
     1
  9
$MAXACTVP
 70
    64
  9
$PLIMCHECK
 70
     0
  9
$PEXTMIN
 10
1.0000000000000000E+20
 20
1.0000000000000000E+20
 30
1.0000000000000000E+20
  9
$PEXTMAX
 10
-1.0000000000000000E+20
 20
-1.0000000000000000E+20
 30
-1.0000000000000000E+20
  9
$PLIMMIN
 10
0.0
 20
0.0
  9
$PLIMMAX
 10
12.0
 20
9.0
  9
$UNITMODE
 70
     0
  9
$VISRETAIN
 70
     1
  9
$PLINEGEN
 70
     0
  9
$PSLTSCALE
 70
     1
  0
ENDSEC
  0
SECTION
  2
TABLES
  0
TABLE
  2
VPORT
 70
     1
  0
VPORT
  2
*ACTIVE
 70
     0
 10
0.0
 20
0.0
 11
1.0
 21
1.0
 12
-6.986406064750553
 22
-10.8262347931379193
 13
0.0
 23
0.0
 14
1.0
 24
1.0
 15
0.0
 25
0.0
 16
0.0
 26
0.0
 36
20.9203132949307395
 17
3515.499267578125
 27
160.6819381713866903
 37
0.0
 40
5.3408208506453176
 41
3.1182994454713491
 42
50.0
 43
0.0
 44
0.0
 50
0.0
 51
0.0
 71
     0
 72
   100
 73
     1
 74
     1
 75
     0
 76
     0
 77
     0
 78
     0
  0
ENDTAB
  0
TABLE
  2
LTYPE
 70
     2
  0
LTYPE
  2
CONTINUOUS
 70
     0
  3
Solid line
 72
    65
 73
     0
 40
0.0
  0
LTYPE
  2
PHANTOM2
 70
     0
  3
___ _ _ ___ _ _ ___ _ _ ___ _ _
 72
    65
 73
     6
 40
1.25
 49
0.625
 49
-0.125
 49
0.125
 49
-0.125
 49
0.125
 49
-0.125
  0
ENDTAB
  0
TABLE
  2
LAYER
 70
     2
  0
LAYER
  2
0
 70
     0
 62
   255
  6
CONTINUOUS
  0
LAYER
  2
DEFPOINTS
 70
     0
 62
     7
  6
CONTINUOUS
  0
ENDTAB
  0
TABLE
  2
STYLE
 70
     1
  0
STYLE
  2
STANDARD
 70
     0
 40
0.0
 41
0.8
 50
0.0
 71
     0
 42
0.2
  3
txt
  4

  0
ENDTAB
  0
TABLE
  2
VIEW
 70
     0
  0
ENDTAB
  0
TABLE
  2
UCS
 70
     0
  0
ENDTAB
  0
TABLE
  2
APPID
 70
     9
  0
APPID
  2
ACAD
 70
     0
  0
APPID
  2
ACAD_MLEADERVER
 70
     0
  0
APPID
  2
ACAD_EXEMPT_FROM_CAD_STANDARDS
 70
     0
  0
APPID
  2
ACAD_NAV_VCDISPLAY
 70
     0
  0
APPID
  2
ACAECLAYERSTANDARD
 70
     0
  0
APPID
  2
ACCMTRANSPARENCY
 70
     0
  0
APPID
  2
ACAD_DSTYLE_DIMJAG
 70
     0
  0
APPID
  2
ACAD_DSTYLE_DIMTALN
 70
     0
  0
APPID
  2
ACDBATTR
 70
     0
  0
ENDTAB
  0
TABLE
  2
DIMSTYLE
 70
     1
  0
DIMSTYLE
  2
STANDARD
 70
     0
  3

  4

  5

  6

  7

 40
1.0
 41
0.1875
 42
0.0625
 43
0.38
 44
0.125
 45
0.0
 46
0.0
 47
0.01
 48
0.01
140
0.15625
141
0.09
142
0.0
143
25.3999999999999986
144
1.0
145
0.0
146
1.0
147
0.09
 71
     1
 72
     0
 73
     1
 74
     1
 75
     0
 76
     0
 77
     0
 78
     4
170
     0
171
     2
172
     0
173
     0
174
     0
175
     0
176
     0
177
     0
178
     0
  0
ENDTAB
  0
ENDSEC
  0
SECTION
  2
BLOCKS
  0
BLOCK
  8
0
  2
$MODEL_SPACE
 70
     0
 10
0.0
 20
0.0
 30
0.0
  3
$MODEL_SPACE
  1

  0
ENDBLK
  5
21
  8
0
  0
BLOCK
 67
     1
  8
0
  2
$PAPER_SPACE
 70
     0
 10
0.0
 20
0.0
 30
0.0
  3
$PAPER_SPACE
  1

  0
ENDBLK
  5
1D
 67
     1
  8
0
  0
BLOCK
  8
0
  2
_FILLED
 70
     0
 10
0.0
 20
0.0
 30
0.0
  3
_FILLED
  1

  0
SOLID
  5
13356
  8
0
  6
BYBLOCK
 62
     0
 10
0.0
 20
0.0
 30
0.0
 11
-1.0
 21
0.1666666667
 31
0.0
 12
-1.0
 22
-0.1666666667
 32
0.0
 13
-1.0
 23
-0.1666666667
 33
0.0
  0
ENDBLK
  5
13357
  8
0
  6
BYBLOCK
 62
     0
  0
ENDSEC
  0
SECTION
  2
ENTITIES
  0
ATTDEF
  5
12BEB
  8
DEFPOINTS
 10
3511.9504226277581438
 20
150.9180287927534891
 30
0.0
 40
0.001
  1
K-5682IN-4ND
  3

  2
MODELNUMBER
 70
     0
1001
ACDBATTR
1070
     0
1070
     1
  0
ATTDEF
  5
12BEC
  8
DEFPOINTS
 10
3511.9504226277581438
 20
150.9163621260869093
 30
0.0
 40
0.001
  1
CUFF
  3

  2
TRADENAME
 70
     0
1001
ACDBATTR
1070
     0
1070
     1
  0
ATTDEF
  5
12BED
  8
DEFPOINTS
 10
3511.9504226277581438
 20
150.9146954594201873
 30
0.0
 40
0.001
  1
BATHROOM SINK FAUCET
  3

  2
PRODUCT
 70
     0
1001
ACDBATTR
1070
     0
1070
     1
  0
LINE
  5
13B8A
  8
0
 10
3511.9615813987588808
 20
152.4942359009183122
 30
0.0
 11
3511.9615813987588808
 21
149.3446296017181965
 31
0.0
  0
LINE
  5
13B8B
  8
0
 10
3505.0723968997899647
 20
150.267998271838195
 30
0.0
 11
3505.242600173853134
 21
150.267998271838195
 31
0.0
  0
LINE
  5
13B8C
  8
0
 10
3505.9766979386240564
 20
150.267998271838195
 30
0.0
 11
3509.1774931763197856
 21
150.2679982718381098
 31
0.0
  0
LINE
  5
13B8D
  8
0
 10
3505.0541385216051822
 20
150.2824289579359061
 30
0.0
 11
3505.0541385216051822
 21
151.5564209231536097
 31
0.0
  0
ARC
  5
13B8E
  8
0
 10
3505.0731167646131325
 20
150.287675098002893
 30
0.0
 40
0.0196899896719788
 50
185.1446492839646965
 51
267.9048028605478748
  0
LINE
  5
13B8F
  8
0
 10
3505.0723969007808591
 20
151.5708516128362078
 30
0.0
 11
3509.1811075908749444
 21
151.5708516128362078
 31
0.0
  0
ARC
  5
13B90
  8
0
 10
3505.0731167656049365
 20
151.5511747866713961
 30
0.0
 40
0.0196899896719788
 50
92.0951971394521252
 51
174.8553507160351899
  0
LINE
  5
13B91
  8
0
 10
3511.9615813987588808
 20
152.4942359009183122
 30
0.0
 11
3511.7143189536491263
 21
152.4726032400822078
 31
0.0
  0
ARC
  5
13B92
  8
0
 10
3511.7177477777249806
 20
152.4333854174633984
 30
0.0
 40
0.0393674287388386
 50
94.9966786152427147
 51
176.4701994370545037
  0
ARC
  5
13B93
  8
0
 10
3513.7035329648952029
 20
150.9194249355718114
 30
0.0
 40
8.6731947199903239
 50
175.8112186458309054
 51
184.1887812645445877
  0
LINE
  5
13B94
  8
0
 10
3511.1859908473052201
 20
149.9548962641183039
 30
0.0
 11
3511.650590542100872
 21
149.9548962641183039
 31
0.0
  0
LINE
  5
13B95
  8
0
 10
3511.1741798237048897
 20
149.9667072878183092
 30
0.0
 11
3511.1741798237048897
 21
151.8721886566376895
 31
0.0
  0
LINE
  5
13B96
  8
0
 10
3511.0561511290047747
 20
150.050438128902897
 30
0.0
 11
3511.0561511290047747
 21
151.7884578156337056
 31
0.0
  0
LINE
  5
13B97
  8
0
 10
3510.9773294300048292
 20
149.9346480391195087
 30
0.0
 11
3510.9773294300048292
 21
150.9067580532183115
 31
0.0
  0
LINE
  5
13B98
  8
0
 10
3511.1741798237048897
 20
149.9745813035148103
 30
0.0
 11
3511.1334355396588762
 21
149.975292497625901
 31
0.0
  0
ARC
  5
13B99
  8
0
 10
3511.1348097448658336
 20
150.0540206625786084
 30
0.0
 40
0.0787401574597338
 50
182.6077537972759046
 51
269.0000000174056822
  0
ARC
  5
13B9A
  8
0
 10
3510.9774831159488713
 20
150.0468551672288129
 30
0.0
 40
0.0787495643955237
 50
2.607753797275945
 51
86.5669070025162739
  0
ARC
  5
13B9B
  8
0
 10
3511.0341176215611085
 20
150.9909116936781004
 30
0.0
 40
0.8670042050166376
 50
266.2444764550983223
 51
266.5669070025161886
  0
ARC
  5
13B9C
  8
0
 10
3510.9576379824638934
 20
149.9347538067245011
 30
0.0
 40
0.0196917315905743
 50
270.3318333073070789
 51
359.6922532443148839
  0
ARC
  5
13B9D
  8
0
 10
3511.1859908474862095
 20
149.9667072878987994
 30
0.0
 40
0.011811023780588
 50
180.0000003909177053
 51
269.9999991239752717
  0
LINE
  5
13B9E
  8
0
 10
3509.196659571337932
 20
149.9333833637130908
 30
0.0
 11
3509.196659571337932
 21
151.8297805455615901
 31
0.0
  0
LINE
  5
13B9F
  8
0
 10
3510.9577520281400211
 20
149.9150624053872889
 30
0.0
 11
3510.0989053763269112
 21
149.9150624053872889
 31
0.0
  0
LINE
  5
13BA0
  8
0
 10
3509.5045704194239988
 20
149.9150624053872889
 30
0.0
 11
3509.2161063150770133
 21
149.9150624053872889
 31
0.0
  0
ARC
  5
13BA1
  8
0
 10
3509.2163050535978073
 20
149.9347546883282973
 30
0.0
 40
0.019693285770258
 50
183.9929725315134021
 51
269.4217789800288756
  0
LINE
  5
13BA2
  8
0
 10
3511.1859908473052201
 20
151.8839996804182988
 30
0.0
 11
3511.6505917366598624
 21
151.8839996804182988
 31
0.0
  0
LINE
  5
13BA3
  8
0
 10
3510.5475312990051862
 20
151.8328271878181965
 30
0.0
 11
3510.9754850951430853
 21
150.9150773103231131
 31
0.0
  0
LINE
  5
13BA4
  8
0
 10
3511.1741798237048897
 20
151.8639590440182872
 30
0.0
 11
3511.1334355396588762
 21
151.8639590440182872
 31
0.0
  0
ARC
  5
13BA5
  8
0
 10
3511.1354571006741025
 20
151.7845842697431067
 30
0.0
 40
0.0794005132235504
 50
91.4589254755113359
 51
177.2037213518530905
  0
ARC
  5
13BA6
  8
0
 10
3510.9774831159488713
 20
151.7920407773077045
 30
0.0
 40
0.0787495643955237
 50
273.4330929974836977
 51
357.3922462027239817
  0
ARC
  5
13BA7
  8
0
 10
3511.0341176215611085
 20
150.8479842508583886
 30
0.0
 40
0.8670042050166376
 50
93.4330929974837119
 51
116.6380922592067009
  0
ARC
  5
13BA8
  8
0
 10
3510.5118745669151394
 20
151.8088799229678045
 30
0.0
 40
0.0429519968939154
 50
33.8855347817645125
 51
65.9442390619182106
  0
ARC
  5
13BA9
  8
0
 10
3511.1859908474862095
 20
151.8721886566376895
 30
0.0
 40
0.011811023780588
 50
90.0000008760247141
 51
179.9999996090822094
  0
LINE
  5
13BAA
  8
0
 10
3510.5293828971421135
 20
151.8481015038873068
 30
0.0
 11
3509.2161063150788323
 21
151.8481015038873068
 31
0.0
  0
ARC
  5
13BAB
  8
0
 10
3509.21630505373696
 20
151.8284092207989886
 30
0.0
 40
0.0196932859189822
 50
90.5782214120161058
 51
176.0070270689319898
  0
ARC
  5
13BAC
  8
0
 10
3522.8201991274831926
 20
150.881581954637312
 30
0.0
 40
13.6564970107892094
 50
176.0186332578859094
 51
183.9813667421140906
  0
LINE
  5
13BAD
  8
0
 10
3511.9615813987588808
 20
149.3446296017181965
 30
0.0
 11
3511.714318953656857
 21
149.3662622625136862
 31
0.0
  0
ARC
  5
13BAE
  8
0
 10
3536.2310376343521057
 20
150.9194327513181975
 30
0.0
 40
24.5993640139355705
 50
176.4658807136003986
 51
183.5341192863994877
  0
ARC
  5
13BAF
  8
0
 10
3511.7177502822219139
 20
149.405482526315609
 30
0.0
 40
0.0393700788469885
 50
183.5331220456037045
 51
264.9999998518604798
  0
LINE
  5
13BB0
  8
0
 10
3509.9879530426428573
 20
149.8030084110725113
 30
0.0
 11
3509.9879530241428256
 21
147.2397029643182123
 31
0.0
  0
ARC
  5
13BB1
  8
0
 10
3510.1140951517550093
 20
149.7890642192975861
 30
0.0
 40
0.1269104888313998
 50
96.8741478338415192
 51
173.6919346775491135
  0
LINE
  5
13BB2
  8
0
 10
3509.9818131740407807
 20
147.230447388271898
 30
0.0
 11
3509.6200751534170195
 21
147.230447388271898
 31
0.0
  0
ARC
  5
13BB3
  8
0
 10
3509.9786478696228187
 20
147.2392114260871949
 30
0.0
 40
0.0093181280783137
 50
273.6620133906121168
 51
3.0238013002981119
  0
LINE
  5
13BB4
  8
0
 10
3509.6139354358488163
 20
149.8025919303005935
 30
0.0
 11
3509.613935454348848
 21
147.2397029097678001
 31
0.0
  0
ARC
  5
13BB5
  8
0
 10
3509.4876518671189842
 20
149.7892031073654096
 30
0.0
 40
0.1269913395103885
 50
6.0519984294403129
 51
82.3439475756915726
  0
ARC
  5
13BB6
  8
0
 10
3509.6232406088688549
 20
147.2392113715368112
 30
0.0
 40
0.0093181280783137
 50
176.9761986997019108
 51
266.3379866093878832
  0
ARC
  5
13BB7
  8
0
 10
3509.8009437920090932
 20
150.1535134032208134
 30
0.0
 40
2.9290329269792181
 50
266.5100898002762051
 51
273.4899277293287128
  0
ARC
  5
13BB8
  8
0
 10
3509.7478512877178218
 20
149.022235983053605
 30
0.0
 40
0.9261540727941959
 50
93.0640679330979452
 51
105.4173374138024002
  0
ARC
  5
13BB9
  8
0
 10
3509.8012156774020696
 20
148.0253132499186961
 30
0.0
 40
1.9245040584844479
 50
86.9359320669020548
 51
93.0640679330979452
  0
ARC
  5
13BBA
  8
0
 10
3509.8549588639771173
 20
149.0293124479429991
 30
0.0
 40
0.9190674768261606
 50
74.5253422751584367
 51
86.9359320669020548
  0
ARC
  5
13BBB
  8
0
 10
3505.8448807989411762
 20
149.1948091326437122
 30
0.0
 40
1.2306408411233201
 50
103.1061199382347979
 51
119.3014197480182048
  0
ARC
  5
13BBC
  8
0
 10
3505.6593582009941201
 20
149.9916594285236897
 30
0.0
 40
0.4124788593660489
 50
64.6694620300626042
 51
103.1061199382347979
  0
ARC
  5
13BBD
  8
0
 10
3505.5453381168740634
 20
149.789281370086286
 30
0.0
 40
0.6443920916982622
 50
47.9787771201335218
 51
63.2046836970079724
  0
ARC
  5
13BBE
  8
0
 10
3510.9606211433329008
 20
150.907417983457492
 30
0.0
 40
0.0167213142852836
 50
357.7381538617170804
 51
27.2618456794819899
  0
ENDSEC
  0
EOF
