  0
SECTION
  2
HEADER
  9
$ACADVER
  1
AC1009
  9
$INSBASE
 10
4688.2391734892062232
 20
519.5963127270906625
 30
0.0
  9
$EXTMIN
 10
4678.764950973579289
 20
489.78185788385872
 30
-0.0000000349181948
  9
$EXTMAX
 10
4697.650186258559188
 20
519.6011484004857266
 30
0.0000000814935746
  9
$LIMMIN
 10
0.0
 20
0.0
  9
$LIMMAX
 10
11.6929133858000007
 20
8.2677165353999982
  9
$ORTHOMODE
 70
     0
  9
$REGENMODE
 70
     1
  9
$FILLMODE
 70
     1
  9
$QTEXTMODE
 70
     0
  9
$MIRRTEXT
 70
     0
  9
$DRAGMODE
 70
     2
  9
$LTSCALE
 40
0.6431102362
  9
$OSMODE
 70
     7
  9
$ATTMODE
 70
     1
  9
$TEXTSIZE
 40
0.2
  9
$TRACEWID
 40
0.05
  9
$TEXTSTYLE
  7
STANDARD
  9
$CLAYER
  8
0
  9
$CELTYPE
  6
BYLAYER
  9
$CECOLOR
 62
   256
  9
$DIMSCALE
 40
1.0
  9
$DIMASZ
 40
0.1875
  9
$DIMEXO
 40
0.0625
  9
$DIMDLI
 40
0.4443307087
  9
$DIMRND
 40
0.0
  9
$DIMDLE
 40
0.0
  9
$DIMEXE
 40
0.125
  9
$DIMTP
 40
0.01
  9
$DIMTM
 40
0.01
  9
$DIMTXT
 40
2.0
  9
$DIMCEN
 40
0.1052362205
  9
$DIMTSZ
 40
0.0
  9
$DIMTOL
 70
     1
  9
$DIMLIM
 70
     0
  9
$DIMTIH
 70
     1
  9
$DIMTOH
 70
     1
  9
$DIMSE1
 70
     0
  9
$DIMSE2
 70
     0
  9
$DIMTAD
 70
     0
  9
$DIMZIN
 70
     0
  9
$DIMBLK
  1

  9
$DIMASO
 70
     1
  9
$DIMSHO
 70
     1
  9
$DIMPOST
  1
\X
  9
$DIMAPOST
  1

  9
$DIMALT
 70
     1
  9
$DIMALTD
 70
     2
  9
$DIMALTF
 40
25.3999999999999986
  9
$DIMLFAC
 40
1.0
  9
$DIMTOFL
 70
     0
  9
$DIMTVP
 40
0.0
  9
$DIMTIX
 70
     0
  9
$DIMSOXD
 70
     0
  9
$DIMSAH
 70
     0
  9
$DIMBLK1
  1

  9
$DIMBLK2
  1

  9
$DIMSTYLE
  2
STANDARD
  9
$DIMCLRD
 70
     0
  9
$DIMCLRE
 70
     0
  9
$DIMCLRT
 70
     0
  9
$DIMTFAC
 40
1.0
  9
$DIMGAP
 40
0.09
  9
$LUNITS
 70
     2
  9
$LUPREC
 70
     4
  9
$SKETCHINC
 40
0.1
  9
$FILLETRAD
 40
0.0
  9
$AUNITS
 70
     0
  9
$AUPREC
 70
     0
  9
$MENU
  1
.
  9
$ELEVATION
 40
0.0
  9
$PELEVATION
 40
0.0
  9
$THICKNESS
 40
0.0
  9
$LIMCHECK
 70
     0
  9
$BLIPMODE
 70
     0
  9
$CHAMFERA
 40
0.0
  9
$CHAMFERB
 40
0.0
  9
$SKPOLY
 70
     0
  9
$TDCREATE
 40
2458060.468368056230247
  9
$TDUPDATE
 40
2459562.6537615740671754
  9
$TDINDWG
 40
1.4929598843
  9
$TDUSRTIMER
 40
1.4929598843
  9
$USRTIMER
 70
     1
  9
$ANGBASE
 50
0.0
  9
$ANGDIR
 70
     0
  9
$PDMODE
 70
     0
  9
$PDSIZE
 40
0.3125
  9
$PLINEWID
 40
0.0
  9
$COORDS
 70
     1
  9
$SPLFRAME
 70
     0
  9
$SPLINETYPE
 70
     6
  9
$SPLINESEGS
 70
     8
  9
$ATTDIA
 70
     1
  9
$ATTREQ
 70
     1
  9
$HANDLING
 70
     1
  9
$HANDSEED
  5
1CDCE
  9
$SURFTAB1
 70
     6
  9
$SURFTAB2
 70
     6
  9
$SURFTYPE
 70
     6
  9
$SURFU
 70
     6
  9
$SURFV
 70
     6
  9
$UCSNAME
  2

  9
$UCSORG
 10
0.0
 20
0.0
 30
0.0
  9
$UCSXDIR
 10
1.0
 20
0.0
 30
0.0
  9
$UCSYDIR
 10
0.0
 20
1.0
 30
0.0
  9
$PUCSNAME
  2

  9
$PUCSORG
 10
0.0
 20
0.0
 30
0.0
  9
$PUCSXDIR
 10
1.0
 20
0.0
 30
0.0
  9
$PUCSYDIR
 10
0.0
 20
1.0
 30
0.0
  9
$USERI1
 70
     0
  9
$USERI2
 70
     0
  9
$USERI3
 70
     0
  9
$USERI4
 70
     0
  9
$USERI5
 70
     0
  9
$USERR1
 40
0.0
  9
$USERR2
 40
0.0
  9
$USERR3
 40
0.0
  9
$USERR4
 40
0.0
  9
$USERR5
 40
0.0
  9
$WORLDVIEW
 70
     1
  9
$SHADEDGE
 70
     3
  9
$SHADEDIF
 70
    70
  9
$TILEMODE
 70
     1
  9
$MAXACTVP
 70
    64
  9
$PLIMCHECK
 70
     0
  9
$PEXTMIN
 10
1.0000000000000000E+20
 20
1.0000000000000000E+20
 30
1.0000000000000000E+20
  9
$PEXTMAX
 10
-1.0000000000000000E+20
 20
-1.0000000000000000E+20
 30
-1.0000000000000000E+20
  9
$PLIMMIN
 10
0.0
 20
0.0
  9
$PLIMMAX
 10
12.0
 20
9.0
  9
$UNITMODE
 70
     0
  9
$VISRETAIN
 70
     1
  9
$PLINEGEN
 70
     0
  9
$PSLTSCALE
 70
     1
  0
ENDSEC
  0
SECTION
  2
TABLES
  0
TABLE
  2
VPORT
 70
     1
  0
VPORT
  2
*ACTIVE
 70
     0
 10
0.0
 20
0.0
 11
1.0
 21
1.0
 12
776.8422121707562837
 22
372.1118980396332176
 13
0.0
 23
0.0
 14
1.0
 24
1.0
 15
0.0
 25
0.0
 16
0.0
 26
0.0
 36
60.4960186965801583
 17
3911.3653564453120453
 27
132.5796051025390057
 37
0.0
 40
30.0327937900157202
 41
1.8876941457586609
 42
50.0
 43
0.0
 44
0.0
 50
0.0
 51
0.0
 71
     0
 72
   100
 73
     1
 74
     1
 75
     0
 76
     0
 77
     0
 78
     0
  0
ENDTAB
  0
TABLE
  2
LTYPE
 70
     2
  0
LTYPE
  2
CONTINUOUS
 70
     0
  3
Solid line
 72
    65
 73
     0
 40
0.0
  0
LTYPE
  2
PHANTOM2
 70
     0
  3
___ _ _ ___ _ _ ___ _ _ ___ _ _
 72
    65
 73
     6
 40
1.25
 49
0.625
 49
-0.125
 49
0.125
 49
-0.125
 49
0.125
 49
-0.125
  0
ENDTAB
  0
TABLE
  2
LAYER
 70
     2
  0
LAYER
  2
0
 70
     0
 62
   255
  6
CONTINUOUS
  0
LAYER
  2
DEFPOINTS
 70
     0
 62
     7
  6
CONTINUOUS
  0
ENDTAB
  0
TABLE
  2
STYLE
 70
     1
  0
STYLE
  2
STANDARD
 70
     0
 40
0.0
 41
0.8
 50
0.0
 71
     0
 42
0.2
  3
txt
  4

  0
ENDTAB
  0
TABLE
  2
VIEW
 70
     0
  0
ENDTAB
  0
TABLE
  2
UCS
 70
     0
  0
ENDTAB
  0
TABLE
  2
APPID
 70
    11
  0
APPID
  2
ACAD
 70
     0
  0
APPID
  2
ACAD_MLEADERVER
 70
     0
  0
APPID
  2
ACAD_EXEMPT_FROM_CAD_STANDARDS
 70
     0
  0
APPID
  2
ACAD_NAV_VCDISPLAY
 70
     0
  0
APPID
  2
ACAECLAYERSTANDARD
 70
     0
  0
APPID
  2
ACCMTRANSPARENCY
 70
     0
  0
APPID
  2
ACAD_DSTYLE_DIMJAG
 70
     0
  0
APPID
  2
ACAD_DSTYLE_DIMTALN
 70
     0
  0
APPID
  2
ACDBATTR
 70
     0
  0
APPID
  2
ACADANNOTATIVE
 70
     0
  0
APPID
  2
DCO15
 70
     0
  0
ENDTAB
  0
TABLE
  2
DIMSTYLE
 70
     1
  0
DIMSTYLE
  2
STANDARD
 70
     0
  3

  4

  5

  6

  7

 40
1.0
 41
0.1875
 42
0.0625
 43
0.38
 44
0.125
 45
0.0
 46
0.0
 47
0.01
 48
0.01
140
0.15625
141
0.09
142
0.0
143
25.3999999999999986
144
1.0
145
0.0
146
1.0
147
0.09
 71
     1
 72
     0
 73
     1
 74
     1
 75
     0
 76
     0
 77
     0
 78
     4
170
     0
171
     2
172
     0
173
     0
174
     0
175
     0
176
     0
177
     0
178
     0
  0
ENDTAB
  0
ENDSEC
  0
SECTION
  2
BLOCKS
  0
BLOCK
  8
0
  2
$MODEL_SPACE
 70
     0
 10
0.0
 20
0.0
 30
0.0
  3
$MODEL_SPACE
  1

  0
ENDBLK
  5
21
  8
0
  0
BLOCK
 67
     1
  8
0
  2
$PAPER_SPACE
 70
     0
 10
0.0
 20
0.0
 30
0.0
  3
$PAPER_SPACE
  1

  0
ENDBLK
  5
1D
 67
     1
  8
0
  0
ENDSEC
  0
SECTION
  2
ENTITIES
  0
ATTDEF
  5
159BF
  8
DEFPOINTS
 10
4688.2391925702577282
 20
519.5996719100569408
 30
0.0
 40
0.001
  1
K-5706T
  3

  2
MODELNUMBER
 70
     0
1001
ACDBATTR
1070
     0
1070
     1
  0
ATTDEF
  5
159C0
  8
DEFPOINTS
 10
4688.2391925702577282
 20
519.5980050696776971
 30
0.0
 40
0.001
  1
CIMARRON
  3

  2
TRADENAME
 70
     0
1001
ACDBATTR
1070
     0
1070
     1
  0
ATTDEF
  5
159C1
  8
DEFPOINTS
 10
4688.2391925702577282
 20
519.5963385767234968
 30
0.0
 40
0.001
  1
TOILET
  3

  2
PRODUCT
 70
     0
1001
ACDBATTR
1070
     0
1070
     1
  0
LINE
  5
1CC46
  8
0
 10
4678.9966279455366021
 20
519.1554038715906927
 30
0.0
 11
4697.4817190328740253
 21
519.1554038715906927
 31
0.0
  0
ARC
  5
1CC47
  8
0
 10
4678.9967981104682622
 20
519.0038605507650118
 30
0.0
 40
0.1515434163631228
 50
90.0643362451317131
 51
139.1996035474236919
  0
ARC
  5
1CC48
  8
0
 10
4679.0233985641471008
 20
518.9913781296517072
 30
0.0
 40
0.1800109026625202
 50
141.7252136195513117
 51
176.0277729233768866
  0
ARC
  5
1CC49
  8
0
 10
4684.6003677464323118
 20
518.7438175914373915
 30
0.0
 40
5.7624176089872536
 50
177.4136365152143071
 51
179.378297383535795
  0
LINE
  5
1CC4A
  8
0
 10
4678.8382893645894001
 20
518.7057860985922844
 30
0.0
 11
4678.922179192337353
 21
514.1029559842905883
 31
0.0
  0
ARC
  5
1CC4B
  8
0
 10
4679.2382575353085485
 20
514.1087282248197425
 30
0.0
 40
0.3161310450692816
 50
181.0462224617897107
 51
221.1847222617194006
  0
LINE
  5
1CC4C
  8
0
 10
4679.7387953906263647
 20
513.2225840275021937
 30
0.0
 11
4679.7231859030380292
 21
513.1862968220907533
 31
0.0
  0
LINE
  5
1CC4D
  8
0
 10
4679.7331745085366492
 20
513.1602331138907402
 30
0.0
 11
4679.9976250832360165
 21
513.0381511956239819
 31
0.0
  0
ARC
  5
1CC4E
  8
0
 10
4679.741557217663285
 20
513.1783915483439387
 30
0.0
 40
0.0199999638516082
 50
156.7175348604370981
 51
245.2199349355275046
  0
ARC
  5
1CC4F
  8
0
 10
4653.949200298849064
 20
514.245371444661032
 30
0.0
 40
29.2395793237952404
 50
344.9853511878645804
 51
355.0803108435039235
  0
ARC
  5
1CC50
  8
0
 10
4671.9007545526255853
 20
509.4303474446546147
 30
0.0
 40
10.6534889267560295
 50
332.6981805786421091
 51
344.9853511878645804
  0
ARC
  5
1CC51
  8
0
 10
4689.1070781189146146
 20
501.0686058146799269
 30
0.0
 40
8.4840237564603527
 50
155.8190543121426117
 51
171.3745712389037124
  0
ARC
  5
1CC52
  8
0
 10
4691.8949692274536574
 20
500.7852750414450043
 30
0.0
 40
11.2837196026156406
 50
172.0752421619143036
 51
187.9247578380856964
  0
ARC
  5
1CC53
  8
0
 10
4688.2391734892062232
 20
495.2545122150428938
 30
0.0
 40
5.438108343465287
 50
232.2283988391677951
 51
307.7716011608321764
  0
ARC
  5
1CC54
  8
0
 10
4695.7146694398579712
 20
501.2861128330860083
 30
0.0
 40
15.1360242648149192
 50
187.8090119072294897
 51
206.6293020357796024
  0
ARC
  5
1CC55
  8
0
 10
4691.8785011857826248
 20
499.1298185567097789
 30
0.0
 40
10.7423072661455308
 50
205.5191255828219141
 51
229.5443014847180905
  0
LINE
  5
1CC56
  8
0
 10
4685.1097809514058099
 20
508.1555853262906908
 30
0.0
 11
4685.1097810663368364
 21
508.217562627690711
 31
0.0
  0
LINE
  5
1CC57
  8
0
 10
4685.1097810663368364
 20
508.217562627690711
 30
0.0
 11
4684.516565282036936
 21
508.2196119560907164
 31
0.0
  0
ARC
  5
1CC58
  8
0
 10
4684.5171635311553473
 20
507.2004698027021163
 30
0.0
 40
1.019142328978456
 50
90.0336333311981178
 51
141.5329458906838909
  0
ARC
  5
1CC59
  8
0
 10
4692.8288616927002295
 20
500.5968463139387268
 30
0.0
 40
11.6347991390856809
 50
141.5329458906838909
 51
157.538795336967695
  0
ARC
  5
1CC5A
  8
0
 10
4693.2695703396611862
 20
500.4459675245822723
 30
0.0
 40
12.0997539720575595
 50
157.675850130876313
 51
168.0364208286142969
  0
ARC
  5
1CC5B
  8
0
 10
4693.3082254768251005
 20
500.4685255494131866
 30
0.0
 40
12.1329307420873
 50
168.1784729747436984
 51
191.8215270252563016
  0
ARC
  5
1CC5C
  8
0
 10
4688.2391734892062232
 20
495.0977222084605955
 30
0.0
 40
4.9169797510780757
 50
234.5586233064151997
 51
305.4413766935848003
  0
ARC
  5
1CC5D
  8
0
 10
4694.3146385952186392
 20
500.7330075765643187
 30
0.0
 40
13.1722865269485503
 50
192.0507356139991089
 51
209.4844635111317928
  0
ARC
  5
1CC5E
  8
0
 10
4695.0908301941863101
 20
501.1098528310487836
 30
0.0
 40
14.0335353243978602
 50
209.2640252903134126
 51
221.3248537688610895
  0
ARC
  5
1CC5F
  8
0
 10
4688.2478367412386433
 20
495.1148728953326099
 30
0.0
 40
4.9359769758059224
 50
221.5166152569088922
 51
234.5921365232796916
  0
LINE
  5
1CC60
  8
0
 10
4685.1097809514058099
 20
508.1555853262906908
 30
0.0
 11
4685.77896357663667
 21
508.1555853262906908
 31
0.0
  0
LINE
  5
1CC61
  8
0
 10
4684.9595131057367325
 20
508.1389678389406868
 30
0.0
 11
4685.861900931818127
 21
508.1389678389406868
 31
0.0
  0
ARC
  5
1CC62
  8
0
 10
4685.0011695208859237
 20
531.7133513121357282
 30
0.0
 40
23.5744202770326616
 50
269.3950486342357067
 51
270.1010084007966157
  0
ARC
  5
1CC63
  8
0
 10
4684.7446399280006517
 20
506.6964359623523819
 30
0.0
 40
1.443829235551398
 50
89.6973656964324277
 51
103.2957471085036047
  0
ARC
  5
1CC64
  8
0
 10
4684.6290284421593242
 20
507.1856691660909746
 30
0.0
 40
0.941121424493247
 50
103.2957471085036047
 51
126.8943577774469986
  0
ARC
  5
1CC65
  8
0
 10
4684.6599355494063275
 20
507.169519823938117
 30
0.0
 40
0.9727075917104269
 50
127.779277866578596
 51
142.0110390561650036
  0
ARC
  5
1CC66
  8
0
 10
4695.7033948910002437
 20
498.6990112045330079
 30
0.0
 40
14.8905575036759199
 50
142.478547854552005
 51
147.0031488534868913
  0
ARC
  5
1CC67
  8
0
 10
4693.359329262259962
 20
500.4070418700146092
 30
0.0
 40
11.9954210144492297
 50
147.7481300889398881
 51
167.9402309281176997
  0
ARC
  5
1CC68
  8
0
 10
4693.3632470647862647
 20
500.4365000755605024
 30
0.0
 40
11.9931341848480102
 50
168.0817687552192012
 51
191.9182312447807135
  0
ARC
  5
1CC69
  8
0
 10
4688.2394377834953048
 20
495.0369010965598022
 30
0.0
 40
4.6754213752724976
 50
237.5428442229230086
 51
246.7119955736349084
  0
ARC
  5
1CC6A
  8
0
 10
4687.2508312375248352
 20
493.2842706998968083
 30
0.0
 40
2.683370099108243
 50
251.3109783260748884
 51
259.5254678475561718
  0
ARC
  5
1CC6B
  8
0
 10
4686.6926567196342148
 20
490.2576562121087136
 30
0.0
 40
0.3942859332283497
 50
70.8243183087282659
 51
79.7232187613566623
  0
ARC
  5
1CC6C
  8
0
 10
4694.0921895975016014
 20
500.675155215759105
 30
0.0
 40
12.7559189875197294
 50
192.290921899393993
 51
206.5218408255169891
  0
ARC
  5
1CC6D
  8
0
 10
4694.8965988348390965
 20
501.0222834160373964
 30
0.0
 40
13.6307684840071204
 50
206.3175453914957131
 51
212.6457374680850876
  0
ARC
  5
1CC6E
  8
0
 10
4694.8521875323431232
 20
500.9938312257190205
 30
0.0
 40
13.5780248500475302
 50
212.6457374680850876
 51
221.9761145932480133
  0
ARC
  5
1CC6F
  8
0
 10
4688.2759246081714082
 20
495.093878929285097
 30
0.0
 40
4.7430802157667618
 50
222.1232073149595863
 51
237.5403182973531102
  0
ARC
  5
1CC70
  8
0
 10
4682.5983253277663607
 20
517.0780717733151732
 30
0.0
 40
4.8002167286537416
 50
221.448901748102287
 51
231.84336035757849
  0
ARC
  5
1CC71
  8
0
 10
4683.8781131606201598
 20
518.7577926777131552
 30
0.0
 40
6.9117643480052307
 50
232.1038661854018983
 51
244.0331006194977022
  0
ARC
  5
1CC72
  8
0
 10
4685.9138452941760988
 20
523.0589730784688527
 30
0.0
 40
11.6701979870454
 50
244.2936064473396129
 51
257.3106773099759721
  0
ARC
  5
1CC73
  8
0
 10
4688.2391734892062232
 20
534.506931018198884
 30
0.0
 40
23.3506347690991909
 50
257.9147331835171144
 51
282.0852668164829993
  0
LINE
  5
1CC74
  8
0
 10
4678.9628387134371224
 20
518.8536271452907158
 30
0.0
 11
4697.5155082649744145
 21
518.8536271452907158
 31
0.0
  0
ARC
  5
1CC75
  8
0
 10
4678.96426055972006
 20
518.7186545477014761
 30
0.0
 40
0.134980086482558
 50
90.603550492935554
 51
158.9484512123617037
  0
ARC
  5
1CC76
  8
0
 10
4685.4832687539383187
 20
507.7883967293897172
 30
0.0
 40
1.770471709201068
 50
98.3117869495250432
 51
105.9467201750165941
  0
ARC
  5
1CC77
  8
0
 10
4685.0453558244671513
 20
509.3209578840856011
 30
0.0
 40
0.1765735234060947
 50
105.9467201750165941
 51
174.9368468464122941
  0
LINE
  5
1CC78
  8
0
 10
4684.869471286137923
 20
509.3365411553907052
 30
0.0
 11
4684.7798674722380383
 21
508.356852581190708
 31
0.0
  0
ARC
  5
1CC79
  8
0
 10
4684.9364670836512232
 20
508.342527091176521
 30
0.0
 40
0.1572534831379212
 50
174.7732181702290859
 51
202.1503234023005859
  0
LINE
  5
1CC7A
  8
0
 10
4684.7908192484374013
 20
508.2832365686908247
 30
0.0
 11
4684.8171410600725721
 21
508.2185735843976886
 31
0.0
  0
ARC
  5
1CC7B
  8
0
 10
4685.5035802300526484
 20
507.9559644317988045
 30
0.0
 40
0.4364922420158705
 50
131.3589596894809119
 51
152.7834140980151005
  0
LINE
  5
1CC7C
  8
0
 10
4685.2151573308374282
 20
508.2835887723907149
 30
0.0
 11
4685.7513790445373161
 21
508.2835888463907281
 31
0.0
  0
ARC
  5
1CC7D
  8
0
 10
4685.4940369100941098
 20
507.9830838596196827
 30
0.0
 40
0.3956364761167244
 50
23.204126633873571
 51
49.4243873748361509
  0
LINE
  5
1CC7E
  8
0
 10
4685.9252453925373629
 20
508.1765769661407717
 30
0.0
 11
4686.4035732212369112
 21
508.1765772139906971
 31
0.0
  0
LINE
  5
1CC7F
  8
0
 10
4686.482313489187618
 20
507.5107745700906889
 30
0.0
 11
4686.482313489187618
 21
508.0978952916245817
 31
0.0
  0
ARC
  5
1CC80
  8
0
 10
4686.4035751348674239
 20
508.0978388394556191
 30
0.0
 40
0.0787383745583614
 50
0.0410787156722803
 51
90.0013924955936488
  0
LINE
  5
1CC81
  8
0
 10
4686.482313489187618
 20
508.0968507852907123
 30
0.0
 11
4689.9960334892248284
 21
508.0968507852907123
 31
0.0
  0
LINE
  5
1CC82
  8
0
 10
4686.482313489187618
 20
507.5107745700906889
 30
0.0
 11
4689.9960334892248284
 21
507.5107732053907057
 31
0.0
  0
ARC
  5
1CC83
  8
0
 10
4688.918216909444709
 20
488.5784562609809996
 30
0.0
 40
18.8781796921253608
 50
97.4150352725407629
 51
101.1252037969728974
  0
ARC
  5
1CC84
  8
0
 10
4685.741167793619752
 20
504.4287946577110802
 30
0.0
 40
2.7133204495963761
 50
99.8799587722249811
 51
106.4487968144233037
  0
ARC
  5
1CC85
  8
0
 10
4685.430313972600743
 20
505.7259182822518255
 30
0.0
 40
1.382993460320876
 50
109.3152029854245058
 51
136.8839576599893917
  0
LINE
  5
1CC86
  8
0
 10
4685.2273297810306758
 20
509.5402715294907239
 30
0.0
 11
4685.7392077268432331
 21
509.5402715294907239
 31
0.0
  0
ARC
  5
1CC87
  8
0
 10
4685.9267155715142508
 20
508.1153111824847883
 30
0.0
 40
0.0612834208672633
 50
91.3746480061476092
 51
111.9755127351268982
  0
ARC
  5
1CC88
  8
0
 10
4685.9427560097246896
 20
508.0799143344204936
 30
0.0
 40
0.1001242229406943
 50
112.9078225602609962
 51
143.8570145890755896
  0
ARC
  5
1CC89
  8
0
 10
4690.8298835177320143
 20
500.8105367283627061
 30
0.0
 40
8.6846821111013952
 50
137.5595559898866043
 51
139.5601117667183928
  0
ARC
  5
1CC8A
  8
0
 10
4690.3554379700717618
 20
501.2148914179396115
 30
0.0
 40
8.0613031792488226
 50
139.5601117667183928
 51
156.8268779056739106
  0
ARC
  5
1CC8B
  8
0
 10
4691.851226864659111
 20
500.386478511131088
 30
0.0
 40
9.7639333990219015
 50
155.8118325288430981
 51
204.1881674711569019
  0
ARC
  5
1CC8C
  8
0
 10
4688.2391734892062232
 20
496.0800349082109051
 30
0.0
 40
4.226610770932373
 50
242.5159492471919975
 51
297.4840507528080025
  0
ARC
  5
1CC8D
  8
0
 10
4693.1966758247353937
 20
500.7833324874403047
 30
0.0
 40
11.1554688242089295
 50
203.2160339519043077
 51
216.8033792550710928
  0
ARC
  5
1CC8E
  8
0
 10
4692.0156478820063057
 20
499.8997020613343807
 30
0.0
 40
9.6804672203300655
 50
216.8033792550710928
 51
224.0260548463066073
  0
ARC
  5
1CC8F
  8
0
 10
4688.2806941088447275
 20
496.5751536508145136
 30
0.0
 40
4.6889307517619194
 50
226.5356018803688016
 51
244.8586098292059887
  0
LINE
  5
1CC90
  8
0
 10
4684.853929824401348
 20
508.3060622123907137
 30
0.0
 11
4686.1126076834725609
 21
508.3060622123907137
 31
0.0
  0
LINE
  5
1CC91
  8
0
 10
4684.814948853637361
 20
508.3489172148907187
 30
0.0
 11
4684.9033299149368759
 21
509.3141021808906999
 31
0.0
  0
ARC
  5
1CC92
  8
0
 10
4684.8540265878727951
 20
508.3453063028453016
 30
0.0
 40
0.0392442097483674
 50
174.720671806555913
 51
269.8587270799089879
  0
ARC
  5
1CC93
  8
0
 10
4685.0456598065647995
 20
509.3012626126443934
 30
0.0
 40
0.1429078464031963
 50
105.9175121811024951
 51
174.845304732580189
  0
ARC
  5
1CC94
  8
0
 10
4685.4832243041737456
 20
507.7632917322039816
 30
0.0
 40
1.7419128606521199
 50
98.446457011388091
 51
105.8844165859462976
  0
LINE
  5
1CC95
  8
0
 10
4685.2273632421365619
 20
509.476377826790781
 30
0.0
 11
4685.2273632421365619
 21
509.5354349152906934
 31
0.0
  0
LINE
  5
1CC96
  8
0
 10
4685.2273632421365619
 20
509.5354349152906934
 30
0.0
 11
4685.739174265737347
 21
509.5354349152906934
 31
0.0
  0
LINE
  5
1CC97
  8
0
 10
4685.2273631877369553
 20
509.4763226987906819
 30
0.0
 11
4685.2337568978373383
 21
509.4768173770908106
 31
0.0
  0
ARC
  5
1CC98
  8
0
 10
4685.4832598229768337
 20
507.9094200535895993
 30
0.0
 40
1.595593989175643
 50
84.5231935364686962
 51
95.4768064635313181
  0
ARC
  5
1CC99
  8
0
 10
4685.3994454402736665
 20
508.6877670320837979
 30
0.0
 40
0.8128521855835285
 50
94.8322465610024636
 51
99.7347428390168744
  0
ARC
  5
1CC9A
  8
0
 10
4685.2792587657850163
 20
509.3883299461543857
 30
0.0
 40
0.1020545819749256
 50
99.7347428390168744
 51
115.2836130962930952
  0
ARC
  5
1CC9B
  8
0
 10
4685.2373853588997008
 20
509.4773637491398972
 30
0.0
 40
0.0036693667158961
 50
117.8474467387567017
 51
188.563238161191606
  0
ARC
  5
1CC9C
  8
0
 10
4685.4832687539374092
 20
507.7883967293897172
 30
0.0
 40
1.770471709201068
 50
74.0532798249833633
 51
81.6882130504749711
  0
ARC
  5
1CC9D
  8
0
 10
4685.9211816834067577
 20
509.3209578840856011
 30
0.0
 40
0.1765735234060947
 50
5.0631531535876908
 51
74.0532798249833633
  0
LINE
  5
1CC9E
  8
0
 10
4686.0970662217368954
 20
509.3365411553907052
 30
0.0
 11
4686.1866700356367801
 21
508.356852581190708
 31
0.0
  0
ARC
  5
1CC9F
  8
0
 10
4686.0300704242254142
 20
508.342527091176521
 30
0.0
 40
0.1572534831379212
 50
337.8496765976993856
 51
5.226781829770867
  0
LINE
  5
1CCA0
  8
0
 10
4686.1757182594374171
 20
508.2832365686908247
 30
0.0
 11
4686.1323012412140088
 21
508.1765769661407717
 31
0.0
  0
LINE
  5
1CCA1
  8
0
 10
4686.1515886542365479
 20
508.3489172148907187
 30
0.0
 11
4686.0632075929379425
 21
509.3141021808906999
 31
0.0
  0
ARC
  5
1CCA2
  8
0
 10
4686.1125109200020233
 20
508.3453063028453016
 30
0.0
 40
0.039244209748374
 50
270.1412729200910121
 51
5.279328193444039
  0
ARC
  5
1CCA3
  8
0
 10
4685.9208777013100189
 20
509.3012626126443934
 30
0.0
 40
0.1429078464031963
 50
5.1546952674197444
 51
74.0824878188974338
  0
ARC
  5
1CCA4
  8
0
 10
4685.4833132037001633
 20
507.7632917322039816
 30
0.0
 40
1.7419128606521199
 50
74.1155834140537024
 51
81.5535429886119232
  0
LINE
  5
1CCA5
  8
0
 10
4685.739174265737347
 20
509.476377826790781
 30
0.0
 11
4685.739174265737347
 21
509.5354349152906934
 31
0.0
  0
LINE
  5
1CCA6
  8
0
 10
4685.7391743201378631
 20
509.4763226987906819
 30
0.0
 11
4685.7327806100365706
 21
509.4768173770908106
 31
0.0
  0
ARC
  5
1CCA7
  8
0
 10
4685.5670920676020614
 20
508.6877670320837979
 30
0.0
 40
0.8128521855835285
 50
80.2652571609831256
 51
85.1677534389975506
  0
ARC
  5
1CCA8
  8
0
 10
4685.6872787420898021
 20
509.3883299461543857
 30
0.0
 40
0.1020545819749256
 50
64.7163869037069048
 51
80.2652571609831256
  0
ARC
  5
1CCA9
  8
0
 10
4685.7291521489751176
 20
509.4773637491398972
 30
0.0
 40
0.0036693667158961
 50
351.4367618388084225
 51
62.1525532612432627
  0
ARC
  5
1CCAA
  8
0
 10
4685.7781291000792407
 20
508.0881144953426087
 30
0.0
 40
0.0674759911372249
 50
73.8455546226560529
 51
89.2914042024234931
  0
ARC
  5
1CCAB
  8
0
 10
4685.7875035717552237
 20
508.12047866969192
 30
0.0
 40
0.0337814737735952
 50
33.1831305394604499
 51
73.8450779105787234
  0
ARC
  5
1CCAC
  8
0
 10
4722.5291466795633823
 20
514.245371444661032
 30
0.0
 40
29.2395793237952404
 50
184.9196891564961049
 51
195.0146488121353059
  0
ARC
  5
1CCAD
  8
0
 10
4704.577592425786861
 20
509.4303474446546147
 30
0.0
 40
10.6534889267560295
 50
195.0146488121353059
 51
207.3018194213578056
  0
ARC
  5
1CCAE
  8
0
 10
4687.3712688594960127
 20
501.0686058146799269
 30
0.0
 40
8.4840237564603527
 50
8.6254287610962663
 51
24.1809456878573386
  0
ARC
  5
1CCAF
  8
0
 10
4680.7636775385526562
 20
501.2861128330860083
 30
0.0
 40
15.1360242648149192
 50
333.370697964220426
 51
352.1909880927703966
  0
ARC
  5
1CCB0
  8
0
 10
4684.5998457926280025
 20
499.1298185567097789
 30
0.0
 40
10.7423072661455308
 50
310.4556985152818243
 51
334.4808744171780859
  0
LINE
  5
1CCB1
  8
0
 10
4691.3685660270066364
 20
508.1555853262906908
 30
0.0
 11
4691.368565912073791
 21
508.217562627690711
 31
0.0
  0
LINE
  5
1CCB2
  8
0
 10
4691.368565912073791
 20
508.217562627690711
 30
0.0
 11
4691.9617816963736914
 21
508.2196119560907164
 31
0.0
  0
ARC
  5
1CCB3
  8
0
 10
4691.961183447257099
 20
507.2004698027021163
 30
0.0
 40
1.019142328978456
 50
38.4670541093160594
 51
89.9663666688018964
  0
ARC
  5
1CCB4
  8
0
 10
4683.6494852857122169
 20
500.5968463139387268
 30
0.0
 40
11.6347991390856809
 50
22.4612046630322517
 51
38.4670541093160594
  0
ARC
  5
1CCB5
  8
0
 10
4683.2087766387521697
 20
500.4459675245822723
 30
0.0
 40
12.0997539720575595
 50
11.9635791713856303
 51
22.3241498691236799
  0
ARC
  5
1CCB6
  8
0
 10
4682.1637083831928976
 20
500.7330075765643187
 30
0.0
 40
13.1722865269485503
 50
330.5155364888681788
 51
347.9492643860008911
  0
ARC
  5
1CCB7
  8
0
 10
4681.3875167842261362
 20
501.1098528310487836
 30
0.0
 40
14.0335353243978602
 50
318.6751462311387968
 51
330.7359747096866158
  0
ARC
  5
1CCB8
  8
0
 10
4688.2305102371728935
 20
495.1148728953326099
 30
0.0
 40
4.9359769758059224
 50
305.4078634767203084
 51
318.4833847430912215
  0
LINE
  5
1CCB9
  8
0
 10
4691.3685660270066364
 20
508.1555853262906908
 30
0.0
 11
4690.6993834017739573
 21
508.1555853262906908
 31
0.0
  0
LINE
  5
1CCBA
  8
0
 10
4691.5188338726757138
 20
508.1389678389406868
 30
0.0
 11
4690.6164460465943193
 21
508.1389678389406868
 31
0.0
  0
ARC
  5
1CCBB
  8
0
 10
4691.4771774575256131
 20
531.7133513121357282
 30
0.0
 40
23.5744202770326616
 50
269.8989915992033843
 51
270.6049513657642933
  0
ARC
  5
1CCBC
  8
0
 10
4691.7337070504108851
 20
506.6964359623523819
 30
0.0
 40
1.443829235551398
 50
76.7042528914963953
 51
90.3026343035675438
  0
ARC
  5
1CCBD
  8
0
 10
4691.8493185362522127
 20
507.1856691660909746
 30
0.0
 40
0.941121424493247
 50
53.1056422225530085
 51
76.7042528914963953
  0
ARC
  5
1CCBE
  8
0
 10
4691.8184114290061189
 20
507.169519823938117
 30
0.0
 40
0.9727075917104269
 50
37.9889609438350107
 51
52.2207221334213969
  0
ARC
  5
1CCBF
  8
0
 10
4680.7749520874122027
 20
498.6990112045330079
 30
0.0
 40
14.8905575036759199
 50
32.9968511465130376
 51
37.5214521454480519
  0
ARC
  5
1CCC0
  8
0
 10
4683.1190177161515749
 20
500.4070418700146092
 30
0.0
 40
11.9954210144492297
 50
12.0597690718822808
 51
32.2518699110600906
  0
ARC
  5
1CCC1
  8
0
 10
4688.2389091949162321
 20
495.0369010965598022
 30
0.0
 40
4.6754213752724976
 50
293.2880044263650916
 51
302.4571557770769914
  0
ARC
  5
1CCC2
  8
0
 10
4689.2275157408876112
 20
493.2842706998968083
 30
0.0
 40
2.683370099108243
 50
280.4745321524438282
 51
288.6890216739250832
  0
ARC
  5
1CCC3
  8
0
 10
4689.785690258777322
 20
490.2576562121087136
 30
0.0
 40
0.3942859332283497
 50
100.2767812386432951
 51
109.1756816912717056
  0
ARC
  5
1CCC4
  8
0
 10
4682.3861573809099355
 20
500.675155215759105
 30
0.0
 40
12.7559189875197294
 50
333.4781591744829825
 51
347.7090781006058933
  0
ARC
  5
1CCC5
  8
0
 10
4681.5817481435742593
 20
501.0222834160373964
 30
0.0
 40
13.6307684840071204
 50
327.3542625319149124
 51
333.6824546085042016
  0
ARC
  5
1CCC6
  8
0
 10
4681.6261594460684137
 20
500.9938312257190205
 30
0.0
 40
13.5780248500475302
 50
318.0238854067519014
 51
327.3542625319149124
  0
ARC
  5
1CCC7
  8
0
 10
4688.2024223702410382
 20
495.093878929285097
 30
0.0
 40
4.7430802157667618
 50
302.4596817026467761
 51
317.8767926850404137
  0
ARC
  5
1CCC8
  8
0
 10
4690.9950782244741276
 20
507.7883967293897172
 30
0.0
 40
1.770471709201068
 50
74.0532798249833633
 51
81.6882130504749711
  0
ARC
  5
1CCC9
  8
0
 10
4691.4329911539443856
 20
509.3209578840856011
 30
0.0
 40
0.1765735234060947
 50
5.0631531535876908
 51
74.0532798249833633
  0
LINE
  5
1CCCA
  8
0
 10
4691.6088756922736138
 20
509.3365411553907052
 30
0.0
 11
4691.698479506174408
 21
508.356852581190708
 31
0.0
  0
ARC
  5
1CCCB
  8
0
 10
4691.5418798947612231
 20
508.342527091176521
 30
0.0
 40
0.1572534831379212
 50
337.8496765976993856
 51
5.226781829770867
  0
LINE
  5
1CCCC
  8
0
 10
4691.6875277299741356
 20
508.2832365686908247
 30
0.0
 11
4691.6612059183389647
 21
508.2185735843976886
 31
0.0
  0
ARC
  5
1CCCD
  8
0
 10
4690.9747667483588884
 20
507.9559644317988045
 30
0.0
 40
0.4364922420158705
 50
27.2165859019848817
 51
48.6410403105191165
  0
LINE
  5
1CCCE
  8
0
 10
4691.2631896475750182
 20
508.2835887723907149
 30
0.0
 11
4690.7269679338751303
 21
508.2835888463907281
 31
0.0
  0
ARC
  5
1CCCF
  8
0
 10
4690.9843100683174271
 20
507.9830838596196827
 30
0.0
 40
0.3956364761167244
 50
130.5756126251638136
 51
156.7958733661263864
  0
LINE
  5
1CCD0
  8
0
 10
4690.5531015858741739
 20
508.1765769661407717
 30
0.0
 11
4690.0747737571737161
 21
508.1765772139906971
 31
0.0
  0
LINE
  5
1CCD1
  8
0
 10
4689.9960334892248284
 20
507.5107732053907057
 30
0.0
 11
4689.9960334892248284
 21
508.0978952916245817
 31
0.0
  0
ARC
  5
1CCD2
  8
0
 10
4690.0747718435459319
 20
508.0978388394556191
 30
0.0
 40
0.0787383745583614
 50
89.9986075044063369
 51
179.9589212843276869
  0
ARC
  5
1CCD3
  8
0
 10
4687.5601300689659183
 20
488.5784562609809996
 30
0.0
 40
18.8781796921253608
 50
78.8747962030271168
 51
82.5849647274592229
  0
ARC
  5
1CCD4
  8
0
 10
4690.7371791847917848
 20
504.4287946577110802
 30
0.0
 40
2.7133204495963761
 50
73.5512031855766537
 51
80.1200412277750189
  0
ARC
  5
1CCD5
  8
0
 10
4691.0480330058098843
 20
505.7259182822518255
 30
0.0
 40
1.382993460320876
 50
43.1160423400106225
 51
70.6847970145754942
  0
LINE
  5
1CCD6
  8
0
 10
4691.2510171973799515
 20
509.5402715294907239
 30
0.0
 11
4690.7391392515683037
 21
509.5402715294907239
 31
0.0
  0
ARC
  5
1CCD7
  8
0
 10
4690.5516314068981956
 20
508.1153111824847883
 30
0.0
 40
0.0612834208672633
 50
68.0244872648731302
 51
88.625351993852405
  0
ARC
  5
1CCD8
  8
0
 10
4690.5355909686859377
 20
508.0799143344204936
 30
0.0
 40
0.1001242229406943
 50
36.1429854109243465
 51
67.0921774397389328
  0
ARC
  5
1CCD9
  8
0
 10
4685.648463460678613
 20
500.8105367283627061
 30
0.0
 40
8.6846821111013952
 50
40.4398882332815717
 51
42.4404440101133531
  0
ARC
  5
1CCDA
  8
0
 10
4686.1229090083388655
 20
501.2148914179396115
 30
0.0
 40
8.0613031792488226
 50
23.1731220943261
 51
40.4398882332815717
  0
ARC
  5
1CCDB
  8
0
 10
4683.2816711536779621
 20
500.7833324874403047
 30
0.0
 40
11.1554688242089295
 50
323.1966207449289072
 51
336.7839660480956923
  0
ARC
  5
1CCDC
  8
0
 10
4684.4626990964061406
 20
499.8997020613343807
 30
0.0
 40
9.6804672203300655
 50
315.9739451536934212
 51
323.1966207449289072
  0
ARC
  5
1CCDD
  8
0
 10
4688.1976528695658999
 20
496.5751536508145136
 30
0.0
 40
4.6889307517619194
 50
295.1413901707938976
 51
313.4643981196311984
  0
LINE
  5
1CCDE
  8
0
 10
4691.6244171540101888
 20
508.3060622123907137
 30
0.0
 11
4690.3657392949380665
 21
508.3060622123907137
 31
0.0
  0
LINE
  5
1CCDF
  8
0
 10
4691.6633981247741758
 20
508.3489172148907187
 30
0.0
 11
4691.5750170634737515
 21
509.3141021808906999
 31
0.0
  0
ARC
  5
1CCE0
  8
0
 10
4691.6243203905387418
 20
508.3453063028453016
 30
0.0
 40
0.0392442097483669
 50
270.1412729200910121
 51
5.2793281934570109
  0
ARC
  5
1CCE1
  8
0
 10
4691.4326871718458278
 20
509.3012626126443934
 30
0.0
 40
0.1429078464031963
 50
5.1546952674197444
 51
74.0824878188974338
  0
ARC
  5
1CCE2
  8
0
 10
4690.9951226742368817
 20
507.7632917322039816
 30
0.0
 40
1.7419128606521199
 50
74.1155834140537024
 51
81.5535429886119232
  0
LINE
  5
1CCE3
  8
0
 10
4691.2509837362740654
 20
509.476377826790781
 30
0.0
 11
4691.2509837362740654
 21
509.5354349152906934
 31
0.0
  0
LINE
  5
1CCE4
  8
0
 10
4691.2509837362740654
 20
509.5354349152906934
 30
0.0
 11
4690.7391727126741898
 21
509.5354349152906934
 31
0.0
  0
LINE
  5
1CCE5
  8
0
 10
4691.250983790673672
 20
509.4763226987906819
 30
0.0
 11
4691.2445900805741985
 21
509.4768173770908106
 31
0.0
  0
ARC
  5
1CCE6
  8
0
 10
4690.9950871554337937
 20
507.9094200535895993
 30
0.0
 40
1.595593989175643
 50
84.5231935364686962
 51
95.4768064635313181
  0
ARC
  5
1CCE7
  8
0
 10
4691.0789015381387799
 20
508.6877670320837979
 30
0.0
 40
0.8128521855835285
 50
80.2652571609831256
 51
85.1677534389975506
  0
ARC
  5
1CCE8
  8
0
 10
4691.19908821262743
 20
509.3883299461543857
 30
0.0
 40
0.1020545819749256
 50
64.7163869037069048
 51
80.2652571609831256
  0
ARC
  5
1CCE9
  8
0
 10
4691.240961619511836
 20
509.4773637491398972
 30
0.0
 40
0.0036693667158961
 50
351.4367618388084225
 51
62.1525532612432627
  0
ARC
  5
1CCEA
  8
0
 10
4690.9950782244741276
 20
507.7883967293897172
 30
0.0
 40
1.770471709201068
 50
98.3117869495250432
 51
105.9467201750165941
  0
ARC
  5
1CCEB
  8
0
 10
4690.5571652950047792
 20
509.3209578840856011
 30
0.0
 40
0.1765735234060947
 50
105.9467201750165941
 51
174.9368468464122941
  0
LINE
  5
1CCEC
  8
0
 10
4690.381280756673732
 20
509.3365411553907052
 30
0.0
 11
4690.2916769427738473
 21
508.356852581190708
 31
0.0
  0
ARC
  5
1CCED
  8
0
 10
4690.4482765541879417
 20
508.342527091176521
 30
0.0
 40
0.1572534831379212
 50
174.7732181702290859
 51
202.1503234023005859
  0
LINE
  5
1CCEE
  8
0
 10
4690.3026287189750292
 20
508.2832365686908247
 30
0.0
 11
4690.3460457371984376
 21
508.1765769661407717
 31
0.0
  0
LINE
  5
1CCEF
  8
0
 10
4690.3267583241740795
 20
508.3489172148907187
 30
0.0
 11
4690.4151393854735943
 21
509.3141021808906999
 31
0.0
  0
ARC
  5
1CCF0
  8
0
 10
4690.365836058410423
 20
508.3453063028453016
 30
0.0
 40
0.0392442097483676
 50
174.7206718065461928
 51
269.8587270799089879
  0
ARC
  5
1CCF1
  8
0
 10
4690.5574692771024274
 20
509.3012626126443934
 30
0.0
 40
0.1429078464031963
 50
105.9175121811024951
 51
174.845304732580189
  0
ARC
  5
1CCF2
  8
0
 10
4690.9950337747113736
 20
507.7632917322039816
 30
0.0
 40
1.7419128606521199
 50
98.446457011388091
 51
105.8844165859462976
  0
LINE
  5
1CCF3
  8
0
 10
4690.7391727126741898
 20
509.476377826790781
 30
0.0
 11
4690.7391727126741898
 21
509.5354349152906934
 31
0.0
  0
LINE
  5
1CCF4
  8
0
 10
4690.7391726582745832
 20
509.4763226987906819
 30
0.0
 11
4690.7455663683749663
 21
509.4768173770908106
 31
0.0
  0
ARC
  5
1CCF5
  8
0
 10
4690.9112549108103849
 20
508.6877670320837979
 30
0.0
 40
0.8128521855835285
 50
94.8322465610024636
 51
99.7347428390168744
  0
ARC
  5
1CCF6
  8
0
 10
4690.7910682363208252
 20
509.3883299461543857
 30
0.0
 40
0.1020545819749256
 50
99.7347428390168744
 51
115.2836130962930952
  0
ARC
  5
1CCF7
  8
0
 10
4690.7491948294364192
 20
509.4773637491398972
 30
0.0
 40
0.0036693667158961
 50
117.8474467387567017
 51
188.563238161191606
  0
ARC
  5
1CCF8
  8
0
 10
4690.7002178783322961
 20
508.0881144953426087
 30
0.0
 40
0.0674759911372249
 50
90.7085957975765069
 51
106.1544453773439045
  0
ARC
  5
1CCF9
  8
0
 10
4690.6908434066572227
 20
508.12047866969192
 30
0.0
 40
0.0337814737735952
 50
106.1549220894212056
 51
146.8168694605394933
  0
ARC
  5
1CCFA
  8
0
 10
4688.2391734892062232
 20
495.0334747892283076
 30
0.0
 40
4.6257888897375494
 50
252.1619398965326866
 51
287.838060103467285
  0
ARC
  5
1CCFB
  8
0
 10
4688.2391734893881221
 20
492.0867823121142237
 30
0.0
 40
15.3131470885765602
 50
83.4103727293759647
 51
96.5896272706240637
  0
LINE
  5
1CCFD
  8
0
 10
4678.8382893645894001
 20
518.80634296128801
 30
0.0
 11
4678.8382893645894001
 21
518.7057860985925117
 31
0.0
  0
ARC
  5
1CCFE
  8
0
 10
4697.4815488679432747
 20
519.0038605507650118
 30
0.0
 40
0.1515434163631228
 50
40.8003964525763294
 51
89.9356637548682869
  0
ARC
  5
1CCFF
  8
0
 10
4697.454948414264436
 20
518.9913781296517072
 30
0.0
 40
0.1800109026625202
 50
3.9722270766230321
 51
38.2747863804487309
  0
ARC
  5
1CD00
  8
0
 10
4691.8779792319801345
 20
518.7438175914373915
 30
0.0
 40
5.7624176089872536
 50
0.6217026164642317
 51
2.5863634847856649
  0
LINE
  5
1CD01
  8
0
 10
4697.6400576138221368
 20
518.7057860985922844
 30
0.0
 11
4697.5561677860741838
 21
514.1029559842905883
 31
0.0
  0
ARC
  5
1CD02
  8
0
 10
4697.2400894431029883
 20
514.1087282248197425
 30
0.0
 40
0.3161310450692816
 50
318.8152777382805994
 51
358.9537775382102041
  0
ARC
  5
1CD03
  8
0
 10
4693.8800216506460856
 20
517.0780717733151732
 30
0.0
 40
4.8002167286537416
 50
308.15663964242151
 51
318.551098251897713
  0
ARC
  5
1CD04
  8
0
 10
4692.6002338177922866
 20
518.7577926777131552
 30
0.0
 40
6.9117643480052307
 50
295.9668993805021842
 51
307.8961338145981017
  0
ARC
  5
1CD05
  8
0
 10
4690.5645016842363475
 20
523.0589730784688527
 30
0.0
 40
11.6701979870454
 50
282.6893226900240279
 51
295.7063935526603018
  0
ARC
  5
1CD06
  8
0
 10
4697.5140864186923864
 20
518.7186545477014761
 30
0.0
 40
0.134980086482558
 50
21.0515487876382998
 51
89.3964495070644602
  0
LINE
  5
1CD07
  8
0
 10
4697.6400576138221368
 20
518.80634296128801
 30
0.0
 11
4697.6400576138221368
 21
518.7057860985925117
 31
0.0
  0
ARC
  5
1CD08
  8
0
 10
4684.583377750958789
 20
500.7852750414450043
 30
0.0
 40
11.2837196026156406
 50
352.0752421619142751
 51
7.9247578380857204
  0
ARC
  5
1CD09
  8
0
 10
4683.1701215015873458
 20
500.4685255494131866
 30
0.0
 40
12.1329307420873
 50
348.1784729747437268
 51
11.8215270252562998
  0
ARC
  5
1CD0A
  8
0
 10
4683.1150999136261817
 20
500.4365000755605024
 30
0.0
 40
11.9931341848480102
 50
348.0817687552192865
 51
11.9182312447807295
  0
ARC
  5
1CD0B
  8
0
 10
4684.6271201137524258
 20
500.386478511131088
 30
0.0
 40
9.7639333990219015
 50
335.8118325288431265
 51
24.1881674711568593
  0
ENDSEC
  0
EOF
