  0
SECTION
  2
HEADER
  9
$ACADVER
  1
AC1009
  9
$INSBASE
 10
4376.5945950834830001
 20
349.1777642027539059
 30
0.0
  9
$EXTMIN
 10
4258.5695390033370131
 20
327.6305413085113969
 30
0.0
  9
$EXTMAX
 10
4449.0953124250008841
 20
514.6068975810301254
 30
0.0
  9
$LIMMIN
 10
0.0
 20
0.0
  9
$LIMMAX
 10
11.6929133858000007
 20
8.2677165353999982
  9
$ORTHOMODE
 70
     0
  9
$REGENMODE
 70
     1
  9
$FILLMODE
 70
     1
  9
$QTEXTMODE
 70
     0
  9
$MIRRTEXT
 70
     0
  9
$DRAGMODE
 70
     2
  9
$LTSCALE
 40
0.6431102362
  9
$OSMODE
 70
  4095
  9
$ATTMODE
 70
     1
  9
$TEXTSIZE
 40
0.2
  9
$TRACEWID
 40
0.05
  9
$TEXTSTYLE
  7
STANDARD
  9
$CLAYER
  8
0
  9
$CELTYPE
  6
BYLAYER
  9
$CECOLOR
 62
   256
  9
$DIMSCALE
 40
1.0
  9
$DIMASZ
 40
0.1875
  9
$DIMEXO
 40
0.0625
  9
$DIMDLI
 40
0.4443307087
  9
$DIMRND
 40
0.0
  9
$DIMDLE
 40
0.0
  9
$DIMEXE
 40
0.125
  9
$DIMTP
 40
0.01
  9
$DIMTM
 40
0.01
  9
$DIMTXT
 40
2.0
  9
$DIMCEN
 40
0.1052362205
  9
$DIMTSZ
 40
0.0
  9
$DIMTOL
 70
     1
  9
$DIMLIM
 70
     0
  9
$DIMTIH
 70
     1
  9
$DIMTOH
 70
     1
  9
$DIMSE1
 70
     0
  9
$DIMSE2
 70
     0
  9
$DIMTAD
 70
     0
  9
$DIMZIN
 70
     0
  9
$DIMBLK
  1

  9
$DIMASO
 70
     1
  9
$DIMSHO
 70
     1
  9
$DIMPOST
  1
\X
  9
$DIMAPOST
  1

  9
$DIMALT
 70
     1
  9
$DIMALTD
 70
     2
  9
$DIMALTF
 40
25.3999999999999986
  9
$DIMLFAC
 40
1.0
  9
$DIMTOFL
 70
     0
  9
$DIMTVP
 40
0.0
  9
$DIMTIX
 70
     0
  9
$DIMSOXD
 70
     0
  9
$DIMSAH
 70
     0
  9
$DIMBLK1
  1

  9
$DIMBLK2
  1

  9
$DIMSTYLE
  2
STANDARD
  9
$DIMCLRD
 70
     0
  9
$DIMCLRE
 70
     0
  9
$DIMCLRT
 70
     0
  9
$DIMTFAC
 40
1.0
  9
$DIMGAP
 40
0.09
  9
$LUNITS
 70
     2
  9
$LUPREC
 70
     4
  9
$SKETCHINC
 40
0.1
  9
$FILLETRAD
 40
0.0
  9
$AUNITS
 70
     0
  9
$AUPREC
 70
     0
  9
$MENU
  1
.
  9
$ELEVATION
 40
0.0
  9
$PELEVATION
 40
0.0
  9
$THICKNESS
 40
0.0
  9
$LIMCHECK
 70
     0
  9
$BLIPMODE
 70
     0
  9
$CHAMFERA
 40
0.0
  9
$CHAMFERB
 40
0.0
  9
$SKPOLY
 70
     0
  9
$TDCREATE
 40
2458060.468368056230247
  9
$TDUPDATE
 40
2459836.6564351851120591
  9
$TDINDWG
 40
0.557946875
  9
$TDUSRTIMER
 40
0.557946875
  9
$USRTIMER
 70
     1
  9
$ANGBASE
 50
0.0
  9
$ANGDIR
 70
     0
  9
$PDMODE
 70
     0
  9
$PDSIZE
 40
0.3125
  9
$PLINEWID
 40
0.0
  9
$COORDS
 70
     1
  9
$SPLFRAME
 70
     0
  9
$SPLINETYPE
 70
     6
  9
$SPLINESEGS
 70
     8
  9
$ATTDIA
 70
     1
  9
$ATTREQ
 70
     1
  9
$HANDLING
 70
     1
  9
$HANDSEED
  5
11605
  9
$SURFTAB1
 70
     6
  9
$SURFTAB2
 70
     6
  9
$SURFTYPE
 70
     6
  9
$SURFU
 70
     6
  9
$SURFV
 70
     6
  9
$UCSNAME
  2

  9
$UCSORG
 10
0.0
 20
0.0
 30
0.0
  9
$UCSXDIR
 10
1.0
 20
0.0
 30
0.0
  9
$UCSYDIR
 10
0.0
 20
1.0
 30
0.0
  9
$PUCSNAME
  2

  9
$PUCSORG
 10
0.0
 20
0.0
 30
0.0
  9
$PUCSXDIR
 10
1.0
 20
0.0
 30
0.0
  9
$PUCSYDIR
 10
0.0
 20
1.0
 30
0.0
  9
$USERI1
 70
     0
  9
$USERI2
 70
     0
  9
$USERI3
 70
     0
  9
$USERI4
 70
     0
  9
$USERI5
 70
     0
  9
$USERR1
 40
0.0
  9
$USERR2
 40
0.0
  9
$USERR3
 40
0.0
  9
$USERR4
 40
0.0
  9
$USERR5
 40
0.0
  9
$WORLDVIEW
 70
     1
  9
$SHADEDGE
 70
     3
  9
$SHADEDIF
 70
    70
  9
$TILEMODE
 70
     1
  9
$MAXACTVP
 70
    64
  9
$PLIMCHECK
 70
     0
  9
$PEXTMIN
 10
1.0000000000000000E+20
 20
1.0000000000000000E+20
 30
1.0000000000000000E+20
  9
$PEXTMAX
 10
-1.0000000000000000E+20
 20
-1.0000000000000000E+20
 30
-1.0000000000000000E+20
  9
$PLIMMIN
 10
0.0
 20
0.0
  9
$PLIMMAX
 10
12.0
 20
9.0
  9
$UNITMODE
 70
     0
  9
$VISRETAIN
 70
     1
  9
$PLINEGEN
 70
     0
  9
$PSLTSCALE
 70
     1
  0
ENDSEC
  0
SECTION
  2
TABLES
  0
TABLE
  2
VPORT
 70
     1
  0
VPORT
  2
*ACTIVE
 70
     0
 10
0.0
 20
0.0
 11
1.0
 21
1.0
 12
573.2621300506679063
 22
222.9462751171786863
 13
0.0
 23
0.0
 14
1.0
 24
1.0
 15
0.0
 25
0.0
 16
0.0
 26
0.0
 36
17.1152628219792007
 17
3803.5440673828129547
 27
125.9952621967499056
 37
0.0
 40
0.8445966167139534
 41
2.0416666666666661
 42
50.0
 43
0.0
 44
0.0
 50
0.0
 51
0.0
 71
     0
 72
   100
 73
     1
 74
     1
 75
     0
 76
     0
 77
     0
 78
     0
  0
ENDTAB
  0
TABLE
  2
LTYPE
 70
     2
  0
LTYPE
  2
CONTINUOUS
 70
     0
  3
Solid line
 72
    65
 73
     0
 40
0.0
  0
LTYPE
  2
PHANTOM2
 70
     0
  3
___ _ _ ___ _ _ ___ _ _ ___ _ _
 72
    65
 73
     6
 40
1.25
 49
0.625
 49
-0.125
 49
0.125
 49
-0.125
 49
0.125
 49
-0.125
  0
ENDTAB
  0
TABLE
  2
LAYER
 70
     2
  0
LAYER
  2
0
 70
     0
 62
   255
  6
CONTINUOUS
  0
LAYER
  2
DEFPOINTS
 70
     0
 62
     7
  6
CONTINUOUS
  0
ENDTAB
  0
TABLE
  2
STYLE
 70
     1
  0
STYLE
  2
STANDARD
 70
     0
 40
0.0
 41
0.8
 50
0.0
 71
     0
 42
0.2
  3
txt
  4

  0
ENDTAB
  0
TABLE
  2
VIEW
 70
     0
  0
ENDTAB
  0
TABLE
  2
UCS
 70
     0
  0
ENDTAB
  0
TABLE
  2
APPID
 70
     9
  0
APPID
  2
ACAD
 70
     0
  0
APPID
  2
ACAD_MLEADERVER
 70
     0
  0
APPID
  2
ACAD_EXEMPT_FROM_CAD_STANDARDS
 70
     0
  0
APPID
  2
ACAD_NAV_VCDISPLAY
 70
     0
  0
APPID
  2
ACAECLAYERSTANDARD
 70
     0
  0
APPID
  2
ACCMTRANSPARENCY
 70
     0
  0
APPID
  2
ACAD_DSTYLE_DIMJAG
 70
     0
  0
APPID
  2
ACAD_DSTYLE_DIMTALN
 70
     0
  0
APPID
  2
ACDBATTR
 70
     0
  0
ENDTAB
  0
TABLE
  2
DIMSTYLE
 70
     1
  0
DIMSTYLE
  2
STANDARD
 70
     0
  3

  4

  5

  6

  7

 40
1.0
 41
0.1875
 42
0.0625
 43
0.38
 44
0.125
 45
0.0
 46
0.0
 47
0.01
 48
0.01
140
0.15625
141
0.09
142
0.0
143
25.3999999999999986
144
1.0
145
0.0
146
1.0
147
0.09
 71
     1
 72
     0
 73
     1
 74
     1
 75
     0
 76
     0
 77
     0
 78
     4
170
     0
171
     2
172
     0
173
     0
174
     0
175
     0
176
     0
177
     0
178
     0
  0
ENDTAB
  0
ENDSEC
  0
SECTION
  2
BLOCKS
  0
BLOCK
  8
0
  2
$MODEL_SPACE
 70
     0
 10
0.0
 20
0.0
 30
0.0
  3
$MODEL_SPACE
  1

  0
ENDBLK
  5
21
  8
0
  0
BLOCK
 67
     1
  8
0
  2
$PAPER_SPACE
 70
     0
 10
0.0
 20
0.0
 30
0.0
  3
$PAPER_SPACE
  1

  0
ENDBLK
  5
1D
 67
     1
  8
0
  0
BLOCK
  8
0
  2
_FILLED
 70
     0
 10
0.0
 20
0.0
 30
0.0
  3
_FILLED
  1

  0
SOLID
  5
11166
  8
0
  6
BYBLOCK
 62
     0
 10
0.0
 20
0.0
 30
0.0
 11
-1.0
 21
0.1666666667
 31
0.0
 12
-1.0
 22
-0.1666666667
 32
0.0
 13
-1.0
 23
-0.1666666667
 33
0.0
  0
ENDBLK
  5
11167
  8
0
  6
BYBLOCK
 62
     0
  0
ENDSEC
  0
SECTION
  2
ENTITIES
  0
ATTDEF
  5
3930
  8
DEFPOINTS
 10
4376.5945950834830001
 20
349.1777642027539059
 30
0.0
 40
0.001
  1
K-5718-VB
  3

  2
MODELNUMBER
 70
     0
1001
ACDBATTR
1070
     0
1070
     1
  0
ATTDEF
  5
3931
  8
DEFPOINTS
 10
4376.5945950834830001
 20
349.1760975360871839
 30
0.0
 40
0.001
  1
UNDERSCORE
  3

  2
TRADENAME
 70
     0
1001
ACDBATTR
1070
     0
1070
     1
  0
ATTDEF
  5
3932
  8
DEFPOINTS
 10
4376.5945950834830001
 20
349.1744308694205756
 30
0.0
 40
0.001
  1
BATH
  3

  2
PRODUCT
 70
     0
1001
ACDBATTR
1070
     0
1070
     1
  0
LINE
  5
114C7
  8
0
 10
4379.5945950834839095
 20
328.1777642027539059
 30
0.0
 11
4373.5945950834839095
 21
328.1777642027539059
 31
0.0
  0
LINE
  5
114C8
  8
0
 10
4373.5945950834839095
 20
370.1777642027539059
 30
0.0
 11
4379.5945950834839095
 21
370.1777642027539059
 31
0.0
  0
ARC
  5
114C9
  8
0
 10
4375.6714888182696086
 20
270.8541234537676132
 30
0.0
 40
99.3453526805321019
 50
91.1979011800643633
 51
101.0710438334944996
  0
ARC
  5
114CA
  8
0
 10
4373.5945950834839095
 20
408.1777642027539059
 30
0.0
 40
80.0
 50
257.0823672425746054
 51
270.0
  0
CIRCLE
  5
114CB
  8
0
 10
4376.5945950834839095
 20
348.1777642027539059
 30
0.0
 40
1.7174074033
  0
CIRCLE
  5
114CC
  8
0
 10
4376.5945950834839095
 20
348.1777642027539059
 30
0.0
 40
1.125
  0
ARC
  5
114CD
  8
0
 10
4360.0729464942169216
 20
349.1856595578174733
 30
0.0
 40
19.4780774260877401
 50
100.2869248395163027
 51
257.0581244932517961
  0
LINE
  5
114CE
  8
0
 10
4386.5017180569848279
 20
363.2095884401539934
 30
0.0
 11
4366.6874721099820817
 21
363.2095884401539934
 31
0.0
  0
ARC
  5
114CF
  8
0
 10
4366.9654440205476931
 20
347.0147518697925761
 30
0.0
 40
16.1972219816787195
 50
90.9833414159453042
 51
106.9264790243420009
  0
ARC
  5
114D0
  8
0
 10
4366.0380561569572819
 20
351.174699668584708
 30
0.0
 40
11.9518735773719307
 50
108.4795617542370962
 51
155.9058776715955048
  0
ARC
  5
114D1
  8
0
 10
4373.3297840757586528
 20
347.9569459372684719
 30
0.0
 40
19.9219618183250695
 50
156.0190241358984906
 51
204.9113031075798119
  0
ARC
  5
114D2
  8
0
 10
4366.8584092601486191
 20
344.9045658172277058
 30
0.0
 40
12.7670410565020092
 50
204.7203426531447974
 51
269.3764453725556223
  0
LINE
  5
114D3
  8
0
 10
4366.7194672569612521
 20
332.1382808267475184
 30
0.0
 11
4386.4697229100056575
 21
332.1382808267475184
 31
0.0
  0
LINE
  5
114D4
  8
0
 10
4386.4424486279622215
 20
334.904862091153916
 30
0.0
 11
4366.7467415390055976
 21
334.904862091153916
 31
0.0
  0
ARC
  5
114D5
  8
0
 10
4368.1968576701729035
 20
346.7147934152475273
 30
0.0
 40
11.8986265877065591
 50
209.89844643873721
 51
262.9998140836070206
  0
ARC
  5
114D6
  8
0
 10
4373.3557745355929001
 20
347.966742384703025
 30
0.0
 40
17.0598568525926311
 50
156.2114951953859077
 51
204.9006592672517968
  0
ARC
  5
114D7
  8
0
 10
4366.2018791442469592
 20
351.0151605528243977
 30
0.0
 40
9.2846350269904256
 50
87.4046974825802039
 51
155.6179477631783925
  0
LINE
  5
114D8
  8
0
 10
4366.622297499882734
 20
360.2902721958539018
 30
0.0
 11
4386.5668926670832661
 21
360.2902721958539018
 31
0.0
  0
LINE
  5
114D9
  8
0
 10
4372.8438909036831319
 20
364.1255442057540108
 30
0.0
 11
4372.8438909036831319
 21
364.1092692571539828
 31
0.0
  0
LINE
  5
114DA
  8
0
 10
4372.9988909036837867
 20
364.1300722558538041
 30
0.0
 11
4380.1902992632831229
 21
364.1300722558538041
 31
0.0
  0
LINE
  5
114DB
  8
0
 10
4372.9988909036601399
 20
364.1048830030538852
 30
0.0
 11
4380.1902992632840323
 21
364.1048830030538852
 31
0.0
  0
ARC
  5
114DC
  8
0
 10
4372.9861687315233212
 20
366.3961736347606006
 30
0.0
 40
2.2913259507567219
 50
266.4399797901662055
 51
270.3181260685332177
  0
ARC
  5
114DD
  8
0
 10
4373.1123386068293257
 20
357.5914640353717004
 30
0.0
 40
6.5395923299779293
 50
90.9940070162613921
 51
92.3526303427009481
  0
ARC
  5
114DE
  8
0
 10
4377.5177013486963915
 20
270.8541234537676132
 30
0.0
 40
99.3453526805321019
 50
78.9289561665054435
 51
88.8020988199356509
  0
ARC
  5
114DF
  8
0
 10
4379.5945950834839095
 20
408.1777642027539059
 30
0.0
 40
80.0
 50
270.0
 51
282.9176327574252809
  0
ARC
  5
114E0
  8
0
 10
4393.1162436727490785
 20
349.1856595578174733
 30
0.0
 40
19.4780774260877401
 50
282.9418755067482039
 51
79.7130751604836547
  0
ARC
  5
114E1
  8
0
 10
4386.2237461464192165
 20
347.0147518697925761
 30
0.0
 40
16.1972219816787195
 50
73.0735209756580133
 51
89.0166585840546958
  0
ARC
  5
114E2
  8
0
 10
4387.1511340100096277
 20
351.174699668584708
 30
0.0
 40
11.9518735773719307
 50
24.0941223284044916
 51
71.5204382457628469
  0
ARC
  5
114E3
  8
0
 10
4379.8594060912082568
 20
347.9569459372684719
 30
0.0
 40
19.9219618183250695
 50
335.0886968924168059
 51
23.9809758641014596
  0
ARC
  5
114E4
  8
0
 10
4386.3307809068201095
 20
344.9045658172277058
 30
0.0
 40
12.7670410565020092
 50
270.6235546274443777
 51
335.2796573468552879
  0
ARC
  5
114E5
  8
0
 10
4384.9923324967940061
 20
346.7147934152475273
 30
0.0
 40
11.8986265877065591
 50
277.0001859163929794
 51
330.10155356126279
  0
ARC
  5
114E6
  8
0
 10
4379.8334156313740095
 20
347.966742384703025
 30
0.0
 40
17.0598568525926311
 50
335.0993407327482032
 51
23.7885048046140497
  0
ARC
  5
114E7
  8
0
 10
4386.9908845737190859
 20
351.0209894721353976
 30
0.0
 40
9.2789746927727865
 50
24.3583791452103817
 51
92.6189756090654441
  0
LINE
  5
114E8
  8
0
 10
4380.3452992632837777
 20
364.1255442057540108
 30
0.0
 11
4380.3452992632837777
 21
364.1092692571539828
 31
0.0
  0
ARC
  5
114E9
  8
0
 10
4380.2030214354435884
 20
366.3961736347606006
 30
0.0
 40
2.2913259507567219
 50
269.6818739314667823
 51
273.5600202098336808
  0
ARC
  5
114EA
  8
0
 10
4380.0768515601366744
 20
357.5914640353717004
 30
0.0
 40
6.5395923299779293
 50
87.6473696572990661
 51
89.0059929837386221
  0
ARC
  5
114EB
  8
0
 10
4356.9803304699153159
 20
349.0523877117905727
 30
0.0
 40
14.2632303729621004
 50
141.2316492415152993
 51
183.515591620041306
  0
ARC
  5
114EC
  8
0
 10
4358.1716532989321422
 20
348.9899403611805155
 30
0.0
 40
15.2471410850749898
 50
98.4153712452467033
 51
143.8528253161456121
  0
ARC
  5
114ED
  8
0
 10
4357.2850087937058561
 20
349.3824261178417032
 30
0.0
 40
14.7519110417445205
 50
90.4552621962215966
 51
95.2302133207711705
  0
ARC
  5
114EE
  8
0
 10
4363.3910858073213603
 20
-189.3498425306711965
 30
0.0
 40
553.5186998004783163
 50
90.0183688445873145
 51
90.6441984196377035
  0
ARC
  5
114EF
  8
0
 10
4376.5973948474402277
 20
-38655.4316924911618116
 30
0.0
 40
39019.6028166379692266
 50
89.9803556663422341
 51
90.0196525138665748
  0
ARC
  5
114F0
  8
0
 10
4389.7942523731244364
 20
-189.986423797386891
 30
0.0
 40
554.1552842012143856
 50
89.3561433500760529
 51
89.981251024349433
  0
ARC
  5
114F1
  8
0
 10
4395.9033748849988115
 20
349.3638269118304152
 30
0.0
 40
14.7705161353727092
 50
84.7732306636342088
 51
89.5421831596538738
  0
ARC
  5
114F2
  8
0
 10
4395.0186090809693269
 20
348.9912541856396047
 30
0.0
 40
15.24569453042389
 50
36.1451437028711524
 51
81.5878775012059805
  0
ARC
  5
114F3
  8
0
 10
4396.2097799049042806
 20
349.0528937061683905
 30
0.0
 40
14.2623849653046406
 50
356.6542583967936935
 51
38.7685956985136428
  0
ARC
  5
114F4
  8
0
 10
4390.1144869986319463
 20
349.3500521296102193
 30
0.0
 40
20.3647168616095904
 50
323.4733432416335859
 51
356.8204668677475979
  0
ARC
  5
114F5
  8
0
 10
4392.7310694448051436
 20
347.9541261820398859
 30
0.0
 40
17.4366758802173401
 50
284.1888210051394026
 51
322.0416996031253234
  0
ARC
  5
114F6
  8
0
 10
4383.1148735862489048
 20
385.9881652563699959
 30
0.0
 40
56.6675228134377278
 50
276.8188411723551781
 51
284.1888210051394026
  0
ARC
  5
114F7
  8
0
 10
4378.0728543865698157
 20
428.1538684791273113
 30
0.0
 40
99.1336091162697954
 50
270.8792713131874734
 51
276.8188411723551781
  0
ARC
  5
114F8
  8
0
 10
4376.5948513825405826
 20
524.457119906800358
 30
0.0
 40
195.4482016161684044
 50
269.1205784029714891
 51
270.8792713131874734
  0
ARC
  5
114F9
  8
0
 10
4375.1165856331281248
 20
428.1532113181095269
 30
0.0
 40
99.1329480003220027
 50
263.1810430280805804
 51
269.1205784029714891
  0
ARC
  5
114FA
  8
0
 10
4370.0355196104901552
 20
385.6616934243294281
 30
0.0
 40
56.3387156220698699
 50
255.9269126259613927
 51
263.1810430280805804
  0
ARC
  5
114FB
  8
0
 10
4360.6629915039457046
 20
348.2737768136611862
 30
0.0
 40
17.7939287943516895
 50
218.3667510744290894
 51
255.9269126259613927
  0
ARC
  5
114FC
  8
0
 10
4361.0904680221083254
 20
348.6121868117331815
 30
0.0
 40
18.339142055723709
 50
198.243439739301607
 51
218.3667510744290894
  0
ARC
  5
114FD
  8
0
 10
4365.5776725562864158
 20
349.4411960068072744
 30
0.0
 40
22.8686584536772983
 50
183.1670500168461899
 51
196.6963927354516954
  0
ENDSEC
  0
EOF
