  0
SECTION
  2
HEADER
  9
$ACADVER
  1
AC1009
  9
$INSBASE
 10
4266.9413083234849182
 20
366.9944444021493268
 30
0.0
  9
$EXTMIN
 10
4136.5334302364071846
 20
325.4967516669153724
 30
0.0
  9
$EXTMAX
 10
4302.9410343388390174
 20
399.9852863548280766
 30
0.0
  9
$LIMMIN
 10
0.0
 20
0.0
  9
$LIMMAX
 10
11.6929133858000007
 20
8.2677165353999982
  9
$ORTHOMODE
 70
     0
  9
$REGENMODE
 70
     1
  9
$FILLMODE
 70
     1
  9
$QTEXTMODE
 70
     0
  9
$MIRRTEXT
 70
     0
  9
$DRAGMODE
 70
     2
  9
$LTSCALE
 40
0.6431102362
  9
$OSMODE
 70
  4095
  9
$ATTMODE
 70
     1
  9
$TEXTSIZE
 40
0.2
  9
$TRACEWID
 40
0.05
  9
$TEXTSTYLE
  7
STANDARD
  9
$CLAYER
  8
0
  9
$CELTYPE
  6
BYLAYER
  9
$CECOLOR
 62
   256
  9
$DIMSCALE
 40
1.0
  9
$DIMASZ
 40
0.1875
  9
$DIMEXO
 40
0.0625
  9
$DIMDLI
 40
0.4443307087
  9
$DIMRND
 40
0.0
  9
$DIMDLE
 40
0.0
  9
$DIMEXE
 40
0.125
  9
$DIMTP
 40
0.01
  9
$DIMTM
 40
0.01
  9
$DIMTXT
 40
2.0
  9
$DIMCEN
 40
0.1052362205
  9
$DIMTSZ
 40
0.0
  9
$DIMTOL
 70
     1
  9
$DIMLIM
 70
     0
  9
$DIMTIH
 70
     1
  9
$DIMTOH
 70
     1
  9
$DIMSE1
 70
     0
  9
$DIMSE2
 70
     0
  9
$DIMTAD
 70
     0
  9
$DIMZIN
 70
     0
  9
$DIMBLK
  1

  9
$DIMASO
 70
     1
  9
$DIMSHO
 70
     1
  9
$DIMPOST
  1
\X
  9
$DIMAPOST
  1

  9
$DIMALT
 70
     1
  9
$DIMALTD
 70
     2
  9
$DIMALTF
 40
25.3999999999999986
  9
$DIMLFAC
 40
1.0
  9
$DIMTOFL
 70
     0
  9
$DIMTVP
 40
0.0
  9
$DIMTIX
 70
     0
  9
$DIMSOXD
 70
     0
  9
$DIMSAH
 70
     0
  9
$DIMBLK1
  1

  9
$DIMBLK2
  1

  9
$DIMSTYLE
  2
STANDARD
  9
$DIMCLRD
 70
     0
  9
$DIMCLRE
 70
     0
  9
$DIMCLRT
 70
     0
  9
$DIMTFAC
 40
1.0
  9
$DIMGAP
 40
0.09
  9
$LUNITS
 70
     2
  9
$LUPREC
 70
     4
  9
$SKETCHINC
 40
0.1
  9
$FILLETRAD
 40
0.0
  9
$AUNITS
 70
     0
  9
$AUPREC
 70
     0
  9
$MENU
  1
.
  9
$ELEVATION
 40
0.0
  9
$PELEVATION
 40
0.0
  9
$THICKNESS
 40
0.0
  9
$LIMCHECK
 70
     0
  9
$BLIPMODE
 70
     0
  9
$CHAMFERA
 40
0.0
  9
$CHAMFERB
 40
0.0
  9
$SKPOLY
 70
     0
  9
$TDCREATE
 40
2458060.468368056230247
  9
$TDUPDATE
 40
2459836.6661689821630716
  9
$TDINDWG
 40
0.5603195602
  9
$TDUSRTIMER
 40
0.5603195602
  9
$USRTIMER
 70
     1
  9
$ANGBASE
 50
0.0
  9
$ANGDIR
 70
     0
  9
$PDMODE
 70
     0
  9
$PDSIZE
 40
0.3125
  9
$PLINEWID
 40
0.0
  9
$COORDS
 70
     1
  9
$SPLFRAME
 70
     0
  9
$SPLINETYPE
 70
     6
  9
$SPLINESEGS
 70
     8
  9
$ATTDIA
 70
     1
  9
$ATTREQ
 70
     1
  9
$HANDLING
 70
     1
  9
$HANDSEED
  5
11786
  9
$SURFTAB1
 70
     6
  9
$SURFTAB2
 70
     6
  9
$SURFTYPE
 70
     6
  9
$SURFU
 70
     6
  9
$SURFV
 70
     6
  9
$UCSNAME
  2

  9
$UCSORG
 10
0.0
 20
0.0
 30
0.0
  9
$UCSXDIR
 10
1.0
 20
0.0
 30
0.0
  9
$UCSYDIR
 10
0.0
 20
1.0
 30
0.0
  9
$PUCSNAME
  2

  9
$PUCSORG
 10
0.0
 20
0.0
 30
0.0
  9
$PUCSXDIR
 10
1.0
 20
0.0
 30
0.0
  9
$PUCSYDIR
 10
0.0
 20
1.0
 30
0.0
  9
$USERI1
 70
     0
  9
$USERI2
 70
     0
  9
$USERI3
 70
     0
  9
$USERI4
 70
     0
  9
$USERI5
 70
     0
  9
$USERR1
 40
0.0
  9
$USERR2
 40
0.0
  9
$USERR3
 40
0.0
  9
$USERR4
 40
0.0
  9
$USERR5
 40
0.0
  9
$WORLDVIEW
 70
     1
  9
$SHADEDGE
 70
     3
  9
$SHADEDIF
 70
    70
  9
$TILEMODE
 70
     1
  9
$MAXACTVP
 70
    64
  9
$PLIMCHECK
 70
     0
  9
$PEXTMIN
 10
1.0000000000000000E+20
 20
1.0000000000000000E+20
 30
1.0000000000000000E+20
  9
$PEXTMAX
 10
-1.0000000000000000E+20
 20
-1.0000000000000000E+20
 30
-1.0000000000000000E+20
  9
$PLIMMIN
 10
0.0
 20
0.0
  9
$PLIMMAX
 10
12.0
 20
9.0
  9
$UNITMODE
 70
     0
  9
$VISRETAIN
 70
     1
  9
$PLINEGEN
 70
     0
  9
$PSLTSCALE
 70
     1
  0
ENDSEC
  0
SECTION
  2
TABLES
  0
TABLE
  2
VPORT
 70
     1
  0
VPORT
  2
*ACTIVE
 70
     0
 10
0.0
 20
0.0
 11
1.0
 21
1.0
 12
464.1049384151667141
 22
240.8432562553448975
 13
0.0
 23
0.0
 14
1.0
 24
1.0
 15
0.0
 25
0.0
 16
0.0
 26
0.0
 36
17.1152628219792007
 17
3803.5440673828129547
 27
125.9952621967499056
 37
0.0
 40
1.674187344211252
 41
2.0416666666666661
 42
50.0
 43
0.0
 44
0.0
 50
0.0
 51
0.0
 71
     0
 72
   100
 73
     1
 74
     1
 75
     0
 76
     0
 77
     0
 78
     0
  0
ENDTAB
  0
TABLE
  2
LTYPE
 70
     2
  0
LTYPE
  2
CONTINUOUS
 70
     0
  3
Solid line
 72
    65
 73
     0
 40
0.0
  0
LTYPE
  2
PHANTOM2
 70
     0
  3
___ _ _ ___ _ _ ___ _ _ ___ _ _
 72
    65
 73
     6
 40
1.25
 49
0.625
 49
-0.125
 49
0.125
 49
-0.125
 49
0.125
 49
-0.125
  0
ENDTAB
  0
TABLE
  2
LAYER
 70
     2
  0
LAYER
  2
0
 70
     0
 62
   255
  6
CONTINUOUS
  0
LAYER
  2
DEFPOINTS
 70
     0
 62
     7
  6
CONTINUOUS
  0
ENDTAB
  0
TABLE
  2
STYLE
 70
     1
  0
STYLE
  2
STANDARD
 70
     0
 40
0.0
 41
0.8
 50
0.0
 71
     0
 42
0.2
  3
txt
  4

  0
ENDTAB
  0
TABLE
  2
VIEW
 70
     0
  0
ENDTAB
  0
TABLE
  2
UCS
 70
     0
  0
ENDTAB
  0
TABLE
  2
APPID
 70
     9
  0
APPID
  2
ACAD
 70
     0
  0
APPID
  2
ACAD_MLEADERVER
 70
     0
  0
APPID
  2
ACAD_EXEMPT_FROM_CAD_STANDARDS
 70
     0
  0
APPID
  2
ACAD_NAV_VCDISPLAY
 70
     0
  0
APPID
  2
ACAECLAYERSTANDARD
 70
     0
  0
APPID
  2
ACCMTRANSPARENCY
 70
     0
  0
APPID
  2
ACAD_DSTYLE_DIMJAG
 70
     0
  0
APPID
  2
ACAD_DSTYLE_DIMTALN
 70
     0
  0
APPID
  2
ACDBATTR
 70
     0
  0
ENDTAB
  0
TABLE
  2
DIMSTYLE
 70
     1
  0
DIMSTYLE
  2
STANDARD
 70
     0
  3

  4

  5

  6

  7

 40
1.0
 41
0.1875
 42
0.0625
 43
0.38
 44
0.125
 45
0.0
 46
0.0
 47
0.01
 48
0.01
140
0.15625
141
0.09
142
0.0
143
25.3999999999999986
144
1.0
145
0.0
146
1.0
147
0.09
 71
     1
 72
     0
 73
     1
 74
     1
 75
     0
 76
     0
 77
     0
 78
     4
170
     0
171
     2
172
     0
173
     0
174
     0
175
     0
176
     0
177
     0
178
     0
  0
ENDTAB
  0
ENDSEC
  0
SECTION
  2
BLOCKS
  0
BLOCK
  8
0
  2
$MODEL_SPACE
 70
     0
 10
0.0
 20
0.0
 30
0.0
  3
$MODEL_SPACE
  1

  0
ENDBLK
  5
21
  8
0
  0
BLOCK
 67
     1
  8
0
  2
$PAPER_SPACE
 70
     0
 10
0.0
 20
0.0
 30
0.0
  3
$PAPER_SPACE
  1

  0
ENDBLK
  5
1D
 67
     1
  8
0
  0
BLOCK
  8
0
  2
_FILLED
 70
     0
 10
0.0
 20
0.0
 30
0.0
  3
_FILLED
  1

  0
SOLID
  5
11166
  8
0
  6
BYBLOCK
 62
     0
 10
0.0
 20
0.0
 30
0.0
 11
-1.0
 21
0.1666666667
 31
0.0
 12
-1.0
 22
-0.1666666667
 32
0.0
 13
-1.0
 23
-0.1666666667
 33
0.0
  0
ENDBLK
  5
11167
  8
0
  6
BYBLOCK
 62
     0
  0
ENDSEC
  0
SECTION
  2
ENTITIES
  0
ATTDEF
  5
3930
  8
DEFPOINTS
 10
4266.9414095959891711
 20
366.9933724532928068
 30
0.0
 40
0.001
  1
K-5718-VBW
  3

  2
MODELNUMBER
 70
     0
1001
ACDBATTR
1070
     0
1070
     1
  0
ATTDEF
  5
3931
  8
DEFPOINTS
 10
4266.9414095959891711
 20
366.9917057866260848
 30
0.0
 40
0.001
  1
UNDERSCORE
  3

  2
TRADENAME
 70
     0
1001
ACDBATTR
1070
     0
1070
     1
  0
ATTDEF
  5
3932
  8
DEFPOINTS
 10
4266.9414095959891711
 20
366.9900391199594196
 30
0.0
 40
0.001
  1
BATH
  3

  2
PRODUCT
 70
     0
1001
ACDBATTR
1070
     0
1070
     1
  0
LINE
  5
11605
  8
0
 10
4269.9413083234858277
 20
345.9944444021493268
 30
0.0
 11
4263.9413083234867372
 21
345.9944444021493268
 31
0.0
  0
LINE
  5
11606
  8
0
 10
4263.9413083234867372
 20
387.9944444021493268
 30
0.0
 11
4269.9413083234858277
 21
387.9944444021493268
 31
0.0
  0
ARC
  5
11607
  8
0
 10
4266.0182020582724363
 20
288.6708036531629773
 30
0.0
 40
99.3453526805321019
 50
91.1979011800643633
 51
101.0710438334944996
  0
ARC
  5
11608
  8
0
 10
4263.9413083234867372
 20
425.9944444021492131
 30
0.0
 40
80.0
 50
257.0823672425742075
 51
270.0
  0
CIRCLE
  5
11609
  8
0
 10
4266.9413083234858277
 20
365.9944444021493268
 30
0.0
 40
1.7174074033
  0
CIRCLE
  5
1160A
  8
0
 10
4266.9413083234858277
 20
365.9944444021493268
 30
0.0
 40
1.125
  0
ARC
  5
1160B
  8
0
 10
4250.4196597342197492
 20
367.0023397572128943
 30
0.0
 40
19.4780774260877401
 50
100.2869248395167006
 51
257.0581244932517961
  0
LINE
  5
1160C
  8
0
 10
4276.8484312969858365
 20
381.0262686395494143
 30
0.0
 11
4257.0341853499849094
 21
381.0262686395494143
 31
0.0
  0
ARC
  5
1160D
  8
0
 10
4257.3121572605514302
 20
364.8314320691878834
 30
0.0
 40
16.1972219816787195
 50
90.9833414159453042
 51
106.926479024341603
  0
ARC
  5
1160E
  8
0
 10
4256.3847693969601096
 20
368.991379867980072
 30
0.0
 40
11.9518735773719307
 50
108.4795617542374941
 51
155.9058776715955901
  0
ARC
  5
1160F
  8
0
 10
4263.6764973157596614
 20
365.7736261366638928
 30
0.0
 40
19.9219618183250695
 50
156.0190241358968137
 51
204.9113031075798972
  0
ARC
  5
11610
  8
0
 10
4257.2051225001514467
 20
362.721246016623013
 30
0.0
 40
12.7670410565020092
 50
204.7203426531555124
 51
269.3764453725556223
  0
LINE
  5
11611
  8
0
 10
4257.0661804969640798
 20
349.9549610261428825
 30
0.0
 11
4276.8164361500093946
 21
349.9549610261428825
 31
0.0
  0
LINE
  5
11612
  8
0
 10
4276.7891618679641397
 20
352.7215422905492801
 30
0.0
 11
4257.0934547790066063
 21
352.7215422905492801
 31
0.0
  0
ARC
  5
11613
  8
0
 10
4258.5435709101748216
 20
364.5314736146428913
 30
0.0
 40
11.8986265877065591
 50
209.8984464387374089
 51
262.9998140836070206
  0
ARC
  5
11614
  8
0
 10
4263.7024877755948182
 20
365.7834225840983891
 30
0.0
 40
17.0598568525926311
 50
156.2114951953863908
 51
204.9006592672427018
  0
ARC
  5
11615
  8
0
 10
4256.5485923842497868
 20
368.8318407522198186
 30
0.0
 40
9.2846350269904256
 50
87.4046974825802039
 51
155.6179477631673933
  0
LINE
  5
11616
  8
0
 10
4256.9690107398855616
 20
378.1069523952493228
 30
0.0
 11
4276.9136059070851843
 21
378.1069523952493228
 31
0.0
  0
LINE
  5
11617
  8
0
 10
4263.1906041438678585
 20
381.4808560799431234
 30
0.0
 11
4263.1906041438678585
 21
381.4645811313432091
 31
0.0
  0
LINE
  5
11618
  8
0
 10
4263.3456041438703323
 20
381.4853841300430872
 30
0.0
 11
4270.537012503468759
 21
381.4853841300430872
 31
0.0
  0
LINE
  5
11619
  8
0
 10
4263.345604143845776
 20
381.4601948772431115
 30
0.0
 11
4270.5370125034696684
 21
381.4601948772431115
 31
0.0
  0
ARC
  5
1161A
  8
0
 10
4263.3328819717080478
 20
383.7514855089498269
 30
0.0
 40
2.2913259507567219
 50
266.4399797901662055
 51
270.3181260685332177
  0
ARC
  5
1161B
  8
0
 10
4263.4590518470140523
 20
374.9467759095609267
 30
0.0
 40
6.5395923299779293
 50
90.9940070162613921
 51
92.3526303427009481
  0
ARC
  5
1161C
  8
0
 10
4267.8644145886992192
 20
288.6708036531629773
 30
0.0
 40
99.3453526805321019
 50
78.9289561665054435
 51
88.8020988199356509
  0
ARC
  5
1161D
  8
0
 10
4269.9413083234858277
 20
425.9944444021492131
 30
0.0
 40
80.0
 50
270.0
 51
282.9176327574256788
  0
ARC
  5
1161E
  8
0
 10
4283.4629569127519062
 20
367.0023397572128943
 30
0.0
 40
19.4780774260877401
 50
282.9418755067482039
 51
79.7130751604832568
  0
ARC
  5
1161F
  8
0
 10
4276.5704593864211347
 20
364.8314320691878834
 30
0.0
 40
16.1972219816787195
 50
73.073520975658397
 51
89.0166585840546958
  0
ARC
  5
11620
  8
0
 10
4277.4978472500106363
 20
368.991379867980072
 30
0.0
 40
11.9518735773719307
 50
24.0941223284043211
 51
71.5204382457624632
  0
ARC
  5
11621
  8
0
 10
4270.2061193312110845
 20
365.7736261366638928
 30
0.0
 40
19.9219618183250695
 50
335.0886968924186249
 51
23.9809758641031188
  0
ARC
  5
11622
  8
0
 10
4276.6774941468211182
 20
362.721246016623013
 30
0.0
 40
12.7670410565020092
 50
270.6235546274443777
 51
335.2796573468554016
  0
ARC
  5
11623
  8
0
 10
4275.3390457367968338
 20
364.5314736146428913
 30
0.0
 40
11.8986265877065591
 50
277.0001859163929794
 51
330.1015535612626195
  0
ARC
  5
11624
  8
0
 10
4270.1801288713759277
 20
365.7834225840983891
 30
0.0
 40
17.0598568525926311
 50
335.0993407327463274
 51
23.7885048046135594
  0
ARC
  5
11625
  8
0
 10
4277.3375978137210041
 20
368.8376696715308753
 30
0.0
 40
9.2789746927727865
 50
24.35837914520976
 51
92.6189756090654441
  0
LINE
  5
11626
  8
0
 10
4270.6920125034694138
 20
381.4808560799431234
 30
0.0
 11
4270.6920125034694138
 21
381.4645811313432091
 31
0.0
  0
ARC
  5
11627
  8
0
 10
4270.549734675630134
 20
383.7514855089498269
 30
0.0
 40
2.2913259507567219
 50
269.6818739314667823
 51
273.5600202098336808
  0
ARC
  5
11628
  8
0
 10
4270.42356480032322
 20
374.9467759095609267
 30
0.0
 40
6.5395923299779293
 50
87.6473696572990661
 51
89.0059929837386221
  0
ARC
  5
11629
  8
0
 10
4247.3270437099181436
 20
366.8690679111859936
 30
0.0
 40
14.2632303729621004
 50
141.2316492415170046
 51
183.5155916200405954
  0
ARC
  5
1162A
  8
0
 10
4248.5183665389340604
 20
366.8066205605758796
 30
0.0
 40
15.2471410850749898
 50
98.4153712452467033
 51
143.8528253161447026
  0
ARC
  5
1162B
  8
0
 10
4247.6317220337077742
 20
367.1991063172371241
 30
0.0
 40
14.7519110417445205
 50
90.4552621962215966
 51
95.2302133207711705
  0
ARC
  5
1162C
  8
0
 10
4253.7377990473232785
 20
-171.5331623312758893
 30
0.0
 40
553.5186998004783163
 50
90.0183688445873145
 51
90.6441984196377035
  0
ARC
  5
1162D
  8
0
 10
4266.9441080874421459
 20
-38637.6150122917606495
 30
0.0
 40
39019.6028166379692266
 50
89.9803556663422341
 51
90.0196525138665748
  0
ARC
  5
1162E
  8
0
 10
4280.1409656131254451
 20
-172.1697435979916122
 30
0.0
 40
554.1552842012143856
 50
89.3561433500760529
 51
89.981251024349433
  0
ARC
  5
1162F
  8
0
 10
4286.2500881250007296
 20
367.1805071112257792
 30
0.0
 40
14.7705161353727092
 50
84.7732306636342088
 51
89.5421831596538738
  0
ARC
  5
11630
  8
0
 10
4285.3653223209730641
 20
366.8079343850350256
 30
0.0
 40
15.24569453042389
 50
36.1451437028703495
 51
81.5878775012057247
  0
ARC
  5
11631
  8
0
 10
4286.5564931449061987
 20
366.8695739055638114
 30
0.0
 40
14.2623849653046406
 50
356.6542583967914766
 51
38.7685956985154334
  0
ARC
  5
11632
  8
0
 10
4280.461200238634774
 20
367.1667323290055265
 30
0.0
 40
20.3647168616095904
 50
323.4733432416314827
 51
356.8204668677462905
  0
ARC
  5
11633
  8
0
 10
4283.0777826848079712
 20
365.7708063814351931
 30
0.0
 40
17.4366758802173401
 50
284.1888210051396868
 51
322.041699603125096
  0
ARC
  5
11634
  8
0
 10
4273.4615868262508229
 20
403.8048454557651894
 30
0.0
 40
56.6675228134377278
 50
276.8188411723551781
 51
284.1888210051396868
  0
ARC
  5
11635
  8
0
 10
4268.4195676265726433
 20
445.9705486785226753
 30
0.0
 40
99.1336091162697954
 50
270.8792713131874734
 51
276.8188411723551781
  0
ARC
  5
11636
  8
0
 10
4266.9415646225443197
 20
542.273800106195722
 30
0.0
 40
195.4482016161684044
 50
269.1205784029714891
 51
270.8792713131874734
  0
ARC
  5
11637
  8
0
 10
4265.4632988731300429
 20
445.969891517504891
 30
0.0
 40
99.1329480003220027
 50
263.1810430280805804
 51
269.1205784029714891
  0
ARC
  5
11638
  8
0
 10
4260.3822328504911638
 20
403.4783736237247922
 30
0.0
 40
56.3387156220698699
 50
255.9269126259613927
 51
263.1810430280805804
  0
ARC
  5
11639
  8
0
 10
4251.0097047439494418
 20
366.0904570130566071
 30
0.0
 40
17.7939287943516895
 50
218.3667510744280946
 51
255.9269126259613927
  0
ARC
  5
1163A
  8
0
 10
4251.4371812621120625
 20
366.4288670111286024
 30
0.0
 40
18.339142055723709
 50
198.2434397392935068
 51
218.3667510744280946
  0
ARC
  5
1163B
  8
0
 10
4255.9243857962883339
 20
367.2578762062026954
 30
0.0
 40
22.8686584536772983
 50
183.1670500168480089
 51
196.6963927354456132
  0
ARC
  5
1163D
  8
0
 10
4259.9504382612558402
 20
369.5173097483274773
 30
0.0
 40
11.9796281678502599
 50
86.1547845507204073
 51
93.9327511114491074
  0
ARC
  5
1163E
  8
0
 10
4259.9307045851401199
 20
395.350349849056613
 30
0.0
 40
13.9047632806085595
 50
266.693884002464813
 51
273.393651659726288
  0
ENDSEC
  0
EOF
