  0
SECTION
  2
HEADER
  9
$ACADVER
  1
AC1009
  9
$INSBASE
 10
2797.5615174090758046
 20
135.0076222726536912
 30
0.0
  9
$EXTMIN
 10
2789.808891582196793
 20
134.9987006907562943
 30
-0.0015258207003583
  9
$EXTMAX
 10
2805.2179404295497989
 20
152.4702700921149869
 30
0.0000000349246037
  9
$LIMMIN
 10
0.0
 20
0.0
  9
$LIMMAX
 10
11.6929133858000007
 20
8.2677165353999982
  9
$ORTHOMODE
 70
     1
  9
$REGENMODE
 70
     1
  9
$FILLMODE
 70
     1
  9
$QTEXTMODE
 70
     0
  9
$MIRRTEXT
 70
     0
  9
$DRAGMODE
 70
     2
  9
$LTSCALE
 40
0.6431102362
  9
$OSMODE
 70
  2039
  9
$ATTMODE
 70
     1
  9
$TEXTSIZE
 40
0.2
  9
$TRACEWID
 40
0.05
  9
$TEXTSTYLE
  7
STANDARD
  9
$CLAYER
  8
0
  9
$CELTYPE
  6
BYLAYER
  9
$CECOLOR
 62
   256
  9
$DIMSCALE
 40
1.0
  9
$DIMASZ
 40
0.1875
  9
$DIMEXO
 40
0.0625
  9
$DIMDLI
 40
0.4443307087
  9
$DIMRND
 40
0.0
  9
$DIMDLE
 40
0.0
  9
$DIMEXE
 40
0.125
  9
$DIMTP
 40
0.01
  9
$DIMTM
 40
0.01
  9
$DIMTXT
 40
2.0
  9
$DIMCEN
 40
0.1052362205
  9
$DIMTSZ
 40
0.0
  9
$DIMTOL
 70
     1
  9
$DIMLIM
 70
     0
  9
$DIMTIH
 70
     1
  9
$DIMTOH
 70
     1
  9
$DIMSE1
 70
     0
  9
$DIMSE2
 70
     0
  9
$DIMTAD
 70
     0
  9
$DIMZIN
 70
     0
  9
$DIMBLK
  1

  9
$DIMASO
 70
     1
  9
$DIMSHO
 70
     1
  9
$DIMPOST
  1
\X
  9
$DIMAPOST
  1

  9
$DIMALT
 70
     1
  9
$DIMALTD
 70
     2
  9
$DIMALTF
 40
25.3999999999999986
  9
$DIMLFAC
 40
1.0
  9
$DIMTOFL
 70
     0
  9
$DIMTVP
 40
0.0
  9
$DIMTIX
 70
     0
  9
$DIMSOXD
 70
     0
  9
$DIMSAH
 70
     0
  9
$DIMBLK1
  1

  9
$DIMBLK2
  1

  9
$DIMSTYLE
  2
STANDARD
  9
$DIMCLRD
 70
     0
  9
$DIMCLRE
 70
     0
  9
$DIMCLRT
 70
     0
  9
$DIMTFAC
 40
1.0
  9
$DIMGAP
 40
0.09
  9
$LUNITS
 70
     2
  9
$LUPREC
 70
     4
  9
$SKETCHINC
 40
0.1
  9
$FILLETRAD
 40
0.0
  9
$AUNITS
 70
     0
  9
$AUPREC
 70
     0
  9
$MENU
  1
.
  9
$ELEVATION
 40
0.0
  9
$PELEVATION
 40
0.0
  9
$THICKNESS
 40
0.0
  9
$LIMCHECK
 70
     0
  9
$BLIPMODE
 70
     0
  9
$CHAMFERA
 40
0.0
  9
$CHAMFERB
 40
0.0
  9
$SKPOLY
 70
     0
  9
$TDCREATE
 40
2458060.468368056230247
  9
$TDUPDATE
 40
2459333.3985069449990988
  9
$TDINDWG
 40
0.6648913194
  9
$TDUSRTIMER
 40
0.6648913194
  9
$USRTIMER
 70
     1
  9
$ANGBASE
 50
0.0
  9
$ANGDIR
 70
     0
  9
$PDMODE
 70
     0
  9
$PDSIZE
 40
0.3125
  9
$PLINEWID
 40
0.0
  9
$COORDS
 70
     1
  9
$SPLFRAME
 70
     0
  9
$SPLINETYPE
 70
     6
  9
$SPLINESEGS
 70
     8
  9
$ATTDIA
 70
     1
  9
$ATTREQ
 70
     1
  9
$HANDLING
 70
     1
  9
$HANDSEED
  5
335C8
  9
$SURFTAB1
 70
     6
  9
$SURFTAB2
 70
     6
  9
$SURFTYPE
 70
     6
  9
$SURFU
 70
     6
  9
$SURFV
 70
     6
  9
$UCSNAME
  2

  9
$UCSORG
 10
0.0
 20
0.0
 30
0.0
  9
$UCSXDIR
 10
1.0
 20
0.0
 30
0.0
  9
$UCSYDIR
 10
0.0
 20
1.0
 30
0.0
  9
$PUCSNAME
  2

  9
$PUCSORG
 10
0.0
 20
0.0
 30
0.0
  9
$PUCSXDIR
 10
1.0
 20
0.0
 30
0.0
  9
$PUCSYDIR
 10
0.0
 20
1.0
 30
0.0
  9
$USERI1
 70
     0
  9
$USERI2
 70
     0
  9
$USERI3
 70
     0
  9
$USERI4
 70
     0
  9
$USERI5
 70
     0
  9
$USERR1
 40
0.0
  9
$USERR2
 40
0.0
  9
$USERR3
 40
0.0
  9
$USERR4
 40
0.0
  9
$USERR5
 40
0.0
  9
$WORLDVIEW
 70
     1
  9
$SHADEDGE
 70
     3
  9
$SHADEDIF
 70
    70
  9
$TILEMODE
 70
     1
  9
$MAXACTVP
 70
    64
  9
$PLIMCHECK
 70
     0
  9
$PEXTMIN
 10
1.0000000000000000E+20
 20
1.0000000000000000E+20
 30
1.0000000000000000E+20
  9
$PEXTMAX
 10
-1.0000000000000000E+20
 20
-1.0000000000000000E+20
 30
-1.0000000000000000E+20
  9
$PLIMMIN
 10
0.0
 20
0.0
  9
$PLIMMAX
 10
12.0
 20
9.0
  9
$UNITMODE
 70
     0
  9
$VISRETAIN
 70
     1
  9
$PLINEGEN
 70
     0
  9
$PSLTSCALE
 70
     1
  0
ENDSEC
  0
SECTION
  2
TABLES
  0
TABLE
  2
VPORT
 70
     1
  0
VPORT
  2
*ACTIVE
 70
     0
 10
0.0
 20
0.0
 11
1.0
 21
1.0
 12
-506.1796992285017041
 22
-51.5270261844520689
 13
0.0
 23
0.0
 14
1.0
 24
1.0
 15
0.0
 25
0.0
 16
0.0
 26
0.0
 36
96.5995694866707311
 17
3303.693115234375
 27
195.2615115758877096
 37
0.0
 40
17.6169638762660412
 41
2.6486111111111108
 42
50.0
 43
0.0
 44
0.0
 50
0.0
 51
0.0
 71
     0
 72
   100
 73
     1
 74
     1
 75
     0
 76
     0
 77
     0
 78
     0
  0
ENDTAB
  0
TABLE
  2
LTYPE
 70
     2
  0
LTYPE
  2
CONTINUOUS
 70
     0
  3
Solid line
 72
    65
 73
     0
 40
0.0
  0
LTYPE
  2
PHANTOM2
 70
     0
  3
___ _ _ ___ _ _ ___ _ _ ___ _ _
 72
    65
 73
     6
 40
1.25
 49
0.625
 49
-0.125
 49
0.125
 49
-0.125
 49
0.125
 49
-0.125
  0
ENDTAB
  0
TABLE
  2
LAYER
 70
     2
  0
LAYER
  2
0
 70
     0
 62
   255
  6
CONTINUOUS
  0
LAYER
  2
DEFPOINTS
 70
     0
 62
     7
  6
CONTINUOUS
  0
ENDTAB
  0
TABLE
  2
STYLE
 70
     1
  0
STYLE
  2
STANDARD
 70
     0
 40
0.0
 41
0.8
 50
0.0
 71
     0
 42
0.2
  3
txt
  4

  0
ENDTAB
  0
TABLE
  2
VIEW
 70
     0
  0
ENDTAB
  0
TABLE
  2
UCS
 70
     0
  0
ENDTAB
  0
TABLE
  2
APPID
 70
     9
  0
APPID
  2
ACAD
 70
     0
  0
APPID
  2
ACAD_MLEADERVER
 70
     0
  0
APPID
  2
ACAD_EXEMPT_FROM_CAD_STANDARDS
 70
     0
  0
APPID
  2
ACAD_NAV_VCDISPLAY
 70
     0
  0
APPID
  2
ACAECLAYERSTANDARD
 70
     0
  0
APPID
  2
ACCMTRANSPARENCY
 70
     0
  0
APPID
  2
ACAD_DSTYLE_DIMJAG
 70
     0
  0
APPID
  2
ACAD_DSTYLE_DIMTALN
 70
     0
  0
APPID
  2
ACDBATTR
 70
     0
  0
ENDTAB
  0
TABLE
  2
DIMSTYLE
 70
     1
  0
DIMSTYLE
  2
STANDARD
 70
     0
  3

  4

  5

  6

  7

 40
1.0
 41
0.1875
 42
0.0625
 43
0.38
 44
0.125
 45
0.0
 46
0.0
 47
0.01
 48
0.01
140
0.15625
141
0.09
142
0.0
143
25.3999999999999986
144
1.0
145
0.0
146
1.0
147
0.09
 71
     1
 72
     0
 73
     1
 74
     1
 75
     0
 76
     0
 77
     0
 78
     4
170
     0
171
     2
172
     0
173
     0
174
     0
175
     0
176
     0
177
     0
178
     0
  0
ENDTAB
  0
ENDSEC
  0
SECTION
  2
BLOCKS
  0
BLOCK
  8
0
  2
$MODEL_SPACE
 70
     0
 10
0.0
 20
0.0
 30
0.0
  3
$MODEL_SPACE
  1

  0
ENDBLK
  5
21
  8
0
  0
BLOCK
 67
     1
  8
0
  2
$PAPER_SPACE
 70
     0
 10
0.0
 20
0.0
 30
0.0
  3
$PAPER_SPACE
  1

  0
ENDBLK
  5
1D
 67
     1
  8
0
  0
BLOCK
  8
0
  2
_FILLED
 70
     0
 10
0.0
 20
0.0
 30
0.0
  3
_FILLED
  1

  0
SOLID
  5
2ABDA
  8
0
  6
BYBLOCK
 62
     0
 10
0.0
 20
0.0
 30
0.0
 11
-1.0
 21
0.1666666667
 31
0.0
 12
-1.0
 22
-0.1666666667
 32
0.0
 13
-1.0
 23
-0.1666666667
 33
0.0
  0
ENDBLK
  5
2ABDB
  8
0
  6
BYBLOCK
 62
     0
  0
ENDSEC
  0
SECTION
  2
ENTITIES
  0
ATTDEF
  5
32F52
  8
DEFPOINTS
 10
2797.5625284717061731
 20
135.0118440323414859
 30
0.0
 40
0.001
  1
K-5722K-S
  3

  2
MODELNUMBER
 70
     0
1001
ACDBATTR
1070
     0
1070
     1
  0
ATTDEF
  5
32F53
  8
DEFPOINTS
 10
2797.5625284717061731
 20
135.0101773656747923
 30
0.0
 40
0.001
  1
VEIL
  3

  2
TRADENAME
 70
     0
1001
ACDBATTR
1070
     0
1070
     1
  0
ATTDEF
  5
32F54
  8
DEFPOINTS
 10
2797.5625284717061731
 20
135.0085106990082124
 30
0.0
 40
0.001
  1
TOILET
  3

  2
PRODUCT
 70
     0
1001
ACDBATTR
1070
     0
1070
     1
  0
LINE
  5
33379
  8
0
 10
2790.2175850067578722
 20
150.5076222004539943
 30
0.0
 11
2804.9054498113951013
 21
150.5076222004539943
 31
0.0
  0
ARC
  5
3337A
  8
0
 10
2790.2246941827479532
 20
150.2736438166184882
 30
0.0
 40
0.2340863611693942
 50
91.7403338614403765
 51
198.7248101665610136
  0
ARC
  5
3337B
  8
0
 10
2728.167775102790074
 20
130.1944717898477961
 30
0.0
 40
64.9904282561903699
 50
14.1676471415725995
 51
17.9266713817800216
  0
ARC
  5
3337C
  8
0
 10
2727.7545219974699648
 20
130.3169537531780975
 30
0.0
 40
65.3615029859473253
 50
8.9704769683291108
 51
13.9748790343558795
  0
ARC
  5
3337D
  8
0
 10
12816.3697898059708677
 20
1656.8576665345449328
 30
0.0
 40
10138.0943811535598797
 50
188.6019763096568909
 51
188.6068036156208905
  0
ARC
  5
3337E
  8
0
 10
2792.5600369471831073
 20
139.6794359192512047
 30
0.0
 40
0.1167029798070782
 50
187.6329322793729943
 51
270.6416327473344836
  0
LINE
  5
3337F
  8
0
 10
2792.5613438303262228
 20
139.5627402571539903
 30
0.0
 11
2802.5643047541138912
 21
139.5627402571539903
 31
0.0
  0
ARC
  5
33380
  8
0
 10
2793.0545169224651545
 20
137.4535049750386122
 30
0.0
 40
2.120938329163315
 50
74.5408359597178958
 51
83.9782463321128887
  0
ARC
  5
33381
  8
0
 10
2793.2075990777939296
 20
138.0070330626332975
 30
0.0
 40
1.546632234788305
 50
54.3042095597201495
 51
74.5408359597178958
  0
ARC
  5
33382
  8
0
 10
2793.1585968164818041
 20
137.9068919019140083
 30
0.0
 40
1.6566562361267869
 50
41.802920195541887
 51
54.9487006013506303
  0
ARC
  5
33383
  8
0
 10
2797.5609412300718759
 20
141.8434675474632058
 30
0.0
 40
4.2490413644201741
 50
221.8031382648092062
 51
236.9310535579870987
  0
ARC
  5
33384
  8
0
 10
2797.4178855570648921
 20
141.5899246490899088
 30
0.0
 40
3.9585537542297482
 50
236.6638293662076933
 51
251.97648256812559
  0
ARC
  5
33385
  8
0
 10
2797.6064926898829981
 20
139.9645761926707905
 30
0.0
 40
2.5927734660282171
 50
256.1225602641944761
 51
269.0060747480994223
  0
ARC
  5
33386
  8
0
 10
2797.4468631835688939
 20
139.4326132423499871
 30
0.0
 40
2.0382354390910771
 50
232.0385107269584921
 51
256.8922764775539918
  0
ARC
  5
33387
  8
0
 10
2797.6171014125120564
 20
139.6164429261484941
 30
0.0
 40
2.2879196514785072
 50
206.4430388328092079
 51
232.5901050621384059
  0
ARC
  5
33388
  8
0
 10
2797.1270996933872084
 20
139.3236686969042069
 30
0.0
 40
1.7193700599445709
 50
186.3891571756373935
 51
204.9785747783284933
  0
ARC
  5
33389
  8
0
 10
2808.5956462209769597
 20
140.7079190163495923
 30
0.0
 40
13.2710984033138697
 50
184.950276944465287
 51
186.8184033395010886
  0
LINE
  5
3338A
  8
0
 10
2790.4228244485611867
 20
150.6403181147539954
 30
0.0
 11
2804.7002103695917867
 21
150.6403181147539954
 31
0.0
  0
ARC
  5
3338B
  8
0
 10
2790.4229973336441617
 20
150.6997062154856053
 30
0.0
 40
0.0593883523744965
 50
174.5829675691576028
 51
269.8332063583579838
  0
LINE
  5
3338C
  8
0
 10
2790.3638742129269303
 20
150.7053127290539862
 30
0.0
 11
2790.478825735503051
 21
151.9175264627839113
 31
0.0
  0
ARC
  5
3338D
  8
0
 10
2790.741869521164972
 20
151.8732536662051871
 30
0.0
 40
0.2667435354268316
 50
108.134190024879203
 51
170.4461127850958917
  0
ARC
  5
3338E
  8
0
 10
2791.7910257031740002
 20
145.1518188026516896
 30
0.0
 40
7.06622010458989
 50
93.5046941124000739
 51
99.2199010367475296
  0
ARC
  5
3338F
  8
0
 10
2797.3673109122391907
 20
81.5544840295747946
 30
0.0
 40
70.9053559141355834
 50
92.3271692190603659
 51
94.8608514962228782
  0
ARC
  5
33390
  8
0
 10
2798.0866312810849195
 20
53.3686482218095222
 30
0.0
 40
99.0980686390648486
 50
90.3036078285270634
 51
92.0809967032948578
  0
LINE
  5
33391
  8
0
 10
2790.5052637558978859
 20
151.9964195118539863
 30
0.0
 11
2804.6177710622550876
 21
151.9964195118539863
 31
0.0
  0
ARC
  5
33392
  8
0
 10
2790.7153997445579989
 20
150.713765861047591
 30
0.0
 40
0.0830064787374885
 50
242.2322731375373053
 51
269.0086533793767103
  0
LINE
  5
33393
  8
0
 10
2790.7139636163260548
 20
150.6307718067540122
 30
0.0
 11
2804.4090712018260092
 21
150.6307718067540122
 31
0.0
  0
ARC
  5
33394
  8
0
 10
2791.1670848922171899
 20
150.5245014377271957
 30
0.0
 40
0.1155812246933942
 50
13.87917119551852
 51
66.8448142418430535
  0
ARC
  5
33395
  8
0
 10
2791.3363492824150853
 20
150.5663248438825974
 30
0.0
 40
0.0587736751272035
 50
193.8791711955184951
 51
267.1828105365079864
  0
ARC
  5
33396
  8
0
 10
2794.6650143273668618
 20
154.0008149897186058
 30
0.0
 40
3.9794082994709559
 50
237.8728932962393969
 51
241.3801563671902954
  0
ARC
  5
33397
  8
0
 10
2790.848153924323924
 20
150.6666920193258079
 30
0.0
 40
1.779820102982457
 50
356.6799387367399845
 51
357.3200608502730802
  0
ARC
  5
33398
  8
0
 10
2792.5651273361609128
 20
150.5670526369609945
 30
0.0
 40
0.0599579966362467
 50
277.6062222596324887
 51
356.7144111524930281
  0
LINE
  5
33399
  8
0
 10
2793.3493804563258891
 20
150.6307718067540122
 30
0.0
 11
2793.3474105634268199
 21
150.5076222004539943
 31
0.0
  0
ARC
  5
3339A
  8
0
 10
2793.0790484951148755
 20
150.5723880406650892
 30
0.0
 40
0.0804005433554276
 50
10.2217249868423998
 51
46.565543335359088
  0
ARC
  5
3339B
  8
0
 10
2793.0223573730818316
 20
150.5675216971548878
 30
0.0
 40
0.1371567851304583
 50
2.995125546071232
 51
8.0192030726322354
  0
LINE
  5
3339C
  8
0
 10
2793.1593267998000556
 20
150.5746882759748928
 30
0.0
 11
2793.1602546204271675
 21
150.5076222004539943
 31
0.0
  0
ARC
  5
3339D
  8
0
 10
2804.8983406354050203
 20
150.2736438166184882
 30
0.0
 40
0.2340863611693942
 50
341.2751898334390148
 51
88.2596661385596377
  0
ARC
  5
3339E
  8
0
 10
2866.9552597153628994
 20
130.1944717898477961
 30
0.0
 40
64.9904282561903699
 50
162.073328618219989
 51
165.8323528584274129
  0
ARC
  5
3339F
  8
0
 10
2867.3685128206830086
 20
130.3169537531780975
 30
0.0
 40
65.3615029859473253
 50
166.0251209656441063
 51
171.029523031670891
  0
ARC
  5
333A0
  8
0
 10
-7221.246754987820168
 20
1656.8576665345449328
 30
0.0
 40
10138.0943811535598797
 50
351.3931963843791095
 51
351.3980236903431091
  0
ARC
  5
333A1
  8
0
 10
2802.5629978709698662
 20
139.6794359192512047
 30
0.0
 40
0.1167029798070785
 50
270.641632747282415
 51
352.367067720626892
  0
ARC
  5
333A2
  8
0
 10
2802.068517895687819
 20
137.4535049750386122
 30
0.0
 40
2.120938329163315
 50
96.0217536678871255
 51
105.4591640402821042
  0
ARC
  5
333A3
  8
0
 10
2801.9154357403590438
 20
138.0070330626332975
 30
0.0
 40
1.546632234788305
 50
105.4591640402821042
 51
125.6957904402797936
  0
ARC
  5
333A4
  8
0
 10
2801.9644380016711693
 20
137.9068919019140083
 30
0.0
 40
1.6566562361267869
 50
125.0512993986493058
 51
138.1970798044580988
  0
ARC
  5
333A5
  8
0
 10
2797.5620935880801881
 20
141.8434675474632058
 30
0.0
 40
4.2490413644201741
 50
303.0689464420120203
 51
318.1968617351909074
  0
ARC
  5
333A6
  8
0
 10
2797.7051492610880814
 20
141.5899246490899941
 30
0.0
 40
3.9585537542298259
 50
288.0235174318743816
 51
303.3361706337922783
  0
ARC
  5
333A7
  8
0
 10
2797.5165421282699754
 20
139.9645761926707905
 30
0.0
 40
2.5927734660282322
 50
270.9939252519005777
 51
283.8774397358055239
  0
ARC
  5
333A8
  8
0
 10
2797.6761716345840796
 20
139.4326132423499871
 30
0.0
 40
2.0382354390910771
 50
283.1077235224458946
 51
307.9614892730414795
  0
ARC
  5
333A9
  8
0
 10
2797.5059334056400075
 20
139.6164429261484941
 30
0.0
 40
2.2879196514785072
 50
307.4098949378616226
 51
333.5569611671908206
  0
ARC
  5
333AA
  8
0
 10
2797.9959351247662198
 20
139.3236686969042069
 30
0.0
 40
1.7193700599445709
 50
335.0214252216715067
 51
353.6108428243625781
  0
ARC
  5
333AB
  8
0
 10
2786.5273885971751042
 20
140.7079190163495923
 30
0.0
 40
13.2710984033138697
 50
353.181596660498883
 51
355.0497230555346846
  0
ARC
  5
333AC
  8
0
 10
2804.7000374845088118
 20
150.6997062154856053
 30
0.0
 40
0.0593883523744965
 50
270.1667936416420162
 51
5.417032430842422
  0
LINE
  5
333AD
  8
0
 10
2804.7591606052260431
 20
150.7053127290539862
 30
0.0
 11
2804.644209082649013
 21
151.9175264627839113
 31
0.0
  0
ARC
  5
333AE
  8
0
 10
2804.3811652969880015
 20
151.8732536662051871
 30
0.0
 40
0.2667435354268316
 50
9.553887214904039
 51
71.865809975120797
  0
ARC
  5
333AF
  8
0
 10
2803.3320091149789732
 20
145.1518188026516896
 30
0.0
 40
7.06622010458989
 50
80.7800989632524846
 51
86.4953058875999545
  0
ARC
  5
333B0
  8
0
 10
2797.7557239059137828
 20
81.5544840295747946
 30
0.0
 40
70.9053559141355834
 50
85.1391485037771076
 51
87.6728307809396199
  0
ARC
  5
333B1
  8
0
 10
2797.0364035370780584
 20
53.3686482222870566
 30
0.0
 40
99.0980686385871934
 50
87.919003296705128
 51
89.6963921714729366
  0
ARC
  5
333B2
  8
0
 10
2804.4076350735949745
 20
150.713765861047591
 30
0.0
 40
0.0830064787374885
 50
270.991346620623176
 51
297.7677268624627231
  0
ARC
  5
333B3
  8
0
 10
2803.955949925934874
 20
150.5245014377271957
 30
0.0
 40
0.1155812246933942
 50
113.1551857581569038
 51
166.1208288044815049
  0
ARC
  5
333B4
  8
0
 10
2803.7866855357378881
 20
150.5663248438825974
 30
0.0
 40
0.0587736751272035
 50
272.8171894634920136
 51
346.1208288044815049
  0
ARC
  5
333B5
  8
0
 10
2800.4580204907861116
 20
154.0008149897186058
 30
0.0
 40
3.9794082994709559
 50
298.6198436328097046
 51
302.1271067037606031
  0
ARC
  5
333B6
  8
0
 10
2804.2748808938290495
 20
150.6666920193258079
 30
0.0
 40
1.779820102982457
 50
182.6799391497268061
 51
183.3200612632599018
  0
ARC
  5
333B7
  8
0
 10
2802.5579074819911511
 20
150.5670526369609945
 30
0.0
 40
0.0599579966362467
 50
183.2855888475068866
 51
262.3937777403673977
  0
LINE
  5
333B8
  8
0
 10
2801.7736543618261749
 20
150.6307718067540122
 30
0.0
 11
2801.7756242547261536
 21
150.5076222004539943
 31
0.0
  0
ARC
  5
333B9
  8
0
 10
2802.0439863230380979
 20
150.5723880406650892
 30
0.0
 40
0.0804005433554276
 50
133.4344566646408907
 51
169.7782750131576108
  0
ARC
  5
333BA
  8
0
 10
2802.1006774450711418
 20
150.5675216971548878
 30
0.0
 40
0.1371567851304583
 50
171.9807969273678054
 51
177.0048744539288066
  0
LINE
  5
333BB
  8
0
 10
2801.9637080183529179
 20
150.5746882759748928
 30
0.0
 11
2801.9627801977258059
 21
150.5076222004539943
 31
0.0
  0
ENDSEC
  0
EOF
