  0
SECTION
  2
HEADER
  9
$ACADVER
  1
AC1009
  9
$INSBASE
 10
2832.1335945538307897
 20
135.0075682510664024
 30
0.0
  9
$EXTMIN
 10
2810.1917936055638165
 20
134.9987006907558964
 30
-0.0015258207003583
  9
$EXTMAX
 10
2832.2314933806651425
 20
152.4702700921145038
 30
0.0000000349246037
  9
$LIMMIN
 10
0.0
 20
0.0
  9
$LIMMAX
 10
11.6929133858000007
 20
8.2677165353999982
  9
$ORTHOMODE
 70
     1
  9
$REGENMODE
 70
     1
  9
$FILLMODE
 70
     1
  9
$QTEXTMODE
 70
     0
  9
$MIRRTEXT
 70
     0
  9
$DRAGMODE
 70
     2
  9
$LTSCALE
 40
0.6431102362
  9
$OSMODE
 70
  2039
  9
$ATTMODE
 70
     1
  9
$TEXTSIZE
 40
0.2
  9
$TRACEWID
 40
0.05
  9
$TEXTSTYLE
  7
STANDARD
  9
$CLAYER
  8
0
  9
$CELTYPE
  6
BYLAYER
  9
$CECOLOR
 62
   256
  9
$DIMSCALE
 40
1.0
  9
$DIMASZ
 40
0.1875
  9
$DIMEXO
 40
0.0625
  9
$DIMDLI
 40
0.4443307087
  9
$DIMRND
 40
0.0
  9
$DIMDLE
 40
0.0
  9
$DIMEXE
 40
0.125
  9
$DIMTP
 40
0.01
  9
$DIMTM
 40
0.01
  9
$DIMTXT
 40
2.0
  9
$DIMCEN
 40
0.1052362205
  9
$DIMTSZ
 40
0.0
  9
$DIMTOL
 70
     1
  9
$DIMLIM
 70
     0
  9
$DIMTIH
 70
     1
  9
$DIMTOH
 70
     1
  9
$DIMSE1
 70
     0
  9
$DIMSE2
 70
     0
  9
$DIMTAD
 70
     0
  9
$DIMZIN
 70
     0
  9
$DIMBLK
  1

  9
$DIMASO
 70
     1
  9
$DIMSHO
 70
     1
  9
$DIMPOST
  1
\X
  9
$DIMAPOST
  1

  9
$DIMALT
 70
     1
  9
$DIMALTD
 70
     2
  9
$DIMALTF
 40
25.3999999999999986
  9
$DIMLFAC
 40
1.0
  9
$DIMTOFL
 70
     0
  9
$DIMTVP
 40
0.0
  9
$DIMTIX
 70
     0
  9
$DIMSOXD
 70
     0
  9
$DIMSAH
 70
     0
  9
$DIMBLK1
  1

  9
$DIMBLK2
  1

  9
$DIMSTYLE
  2
STANDARD
  9
$DIMCLRD
 70
     0
  9
$DIMCLRE
 70
     0
  9
$DIMCLRT
 70
     0
  9
$DIMTFAC
 40
1.0
  9
$DIMGAP
 40
0.09
  9
$LUNITS
 70
     2
  9
$LUPREC
 70
     4
  9
$SKETCHINC
 40
0.1
  9
$FILLETRAD
 40
0.0
  9
$AUNITS
 70
     0
  9
$AUPREC
 70
     0
  9
$MENU
  1
.
  9
$ELEVATION
 40
0.0
  9
$PELEVATION
 40
0.0
  9
$THICKNESS
 40
0.0
  9
$LIMCHECK
 70
     0
  9
$BLIPMODE
 70
     0
  9
$CHAMFERA
 40
0.0
  9
$CHAMFERB
 40
0.0
  9
$SKPOLY
 70
     0
  9
$TDCREATE
 40
2458060.468368056230247
  9
$TDUPDATE
 40
2459333.3978240741416812
  9
$TDINDWG
 40
0.6636413194
  9
$TDUSRTIMER
 40
0.6636413194
  9
$USRTIMER
 70
     1
  9
$ANGBASE
 50
0.0
  9
$ANGDIR
 70
     0
  9
$PDMODE
 70
     0
  9
$PDSIZE
 40
0.3125
  9
$PLINEWID
 40
0.0
  9
$COORDS
 70
     1
  9
$SPLFRAME
 70
     0
  9
$SPLINETYPE
 70
     6
  9
$SPLINESEGS
 70
     8
  9
$ATTDIA
 70
     1
  9
$ATTREQ
 70
     1
  9
$HANDLING
 70
     1
  9
$HANDSEED
  5
336B2
  9
$SURFTAB1
 70
     6
  9
$SURFTAB2
 70
     6
  9
$SURFTYPE
 70
     6
  9
$SURFU
 70
     6
  9
$SURFV
 70
     6
  9
$UCSNAME
  2

  9
$UCSORG
 10
0.0
 20
0.0
 30
0.0
  9
$UCSXDIR
 10
1.0
 20
0.0
 30
0.0
  9
$UCSYDIR
 10
0.0
 20
1.0
 30
0.0
  9
$PUCSNAME
  2

  9
$PUCSORG
 10
0.0
 20
0.0
 30
0.0
  9
$PUCSXDIR
 10
1.0
 20
0.0
 30
0.0
  9
$PUCSYDIR
 10
0.0
 20
1.0
 30
0.0
  9
$USERI1
 70
     0
  9
$USERI2
 70
     0
  9
$USERI3
 70
     0
  9
$USERI4
 70
     0
  9
$USERI5
 70
     0
  9
$USERR1
 40
0.0
  9
$USERR2
 40
0.0
  9
$USERR3
 40
0.0
  9
$USERR4
 40
0.0
  9
$USERR5
 40
0.0
  9
$WORLDVIEW
 70
     1
  9
$SHADEDGE
 70
     3
  9
$SHADEDIF
 70
    70
  9
$TILEMODE
 70
     1
  9
$MAXACTVP
 70
    64
  9
$PLIMCHECK
 70
     0
  9
$PEXTMIN
 10
1.0000000000000000E+20
 20
1.0000000000000000E+20
 30
1.0000000000000000E+20
  9
$PEXTMAX
 10
-1.0000000000000000E+20
 20
-1.0000000000000000E+20
 30
-1.0000000000000000E+20
  9
$PLIMMIN
 10
0.0
 20
0.0
  9
$PLIMMAX
 10
12.0
 20
9.0
  9
$UNITMODE
 70
     0
  9
$VISRETAIN
 70
     1
  9
$PLINEGEN
 70
     0
  9
$PSLTSCALE
 70
     1
  0
ENDSEC
  0
SECTION
  2
TABLES
  0
TABLE
  2
VPORT
 70
     1
  0
VPORT
  2
*ACTIVE
 70
     0
 10
0.0
 20
0.0
 11
1.0
 21
1.0
 12
-482.4814717412609753
 22
-51.5270261844525521
 13
0.0
 23
0.0
 14
1.0
 24
1.0
 15
0.0
 25
0.0
 16
0.0
 26
0.0
 36
96.5995694866707311
 17
3303.693115234375
 27
195.2615115758877096
 37
0.0
 40
17.6169638762659702
 41
2.6486111111111108
 42
50.0
 43
0.0
 44
0.0
 50
0.0
 51
0.0
 71
     0
 72
   100
 73
     1
 74
     1
 75
     0
 76
     0
 77
     0
 78
     0
  0
ENDTAB
  0
TABLE
  2
LTYPE
 70
     2
  0
LTYPE
  2
CONTINUOUS
 70
     0
  3
Solid line
 72
    65
 73
     0
 40
0.0
  0
LTYPE
  2
PHANTOM2
 70
     0
  3
___ _ _ ___ _ _ ___ _ _ ___ _ _
 72
    65
 73
     6
 40
1.25
 49
0.625
 49
-0.125
 49
0.125
 49
-0.125
 49
0.125
 49
-0.125
  0
ENDTAB
  0
TABLE
  2
LAYER
 70
     2
  0
LAYER
  2
0
 70
     0
 62
   255
  6
CONTINUOUS
  0
LAYER
  2
DEFPOINTS
 70
     0
 62
     7
  6
CONTINUOUS
  0
ENDTAB
  0
TABLE
  2
STYLE
 70
     1
  0
STYLE
  2
STANDARD
 70
     0
 40
0.0
 41
0.8
 50
0.0
 71
     0
 42
0.2
  3
txt
  4

  0
ENDTAB
  0
TABLE
  2
VIEW
 70
     0
  0
ENDTAB
  0
TABLE
  2
UCS
 70
     0
  0
ENDTAB
  0
TABLE
  2
APPID
 70
     9
  0
APPID
  2
ACAD
 70
     0
  0
APPID
  2
ACAD_MLEADERVER
 70
     0
  0
APPID
  2
ACAD_EXEMPT_FROM_CAD_STANDARDS
 70
     0
  0
APPID
  2
ACAD_NAV_VCDISPLAY
 70
     0
  0
APPID
  2
ACAECLAYERSTANDARD
 70
     0
  0
APPID
  2
ACCMTRANSPARENCY
 70
     0
  0
APPID
  2
ACAD_DSTYLE_DIMJAG
 70
     0
  0
APPID
  2
ACAD_DSTYLE_DIMTALN
 70
     0
  0
APPID
  2
ACDBATTR
 70
     0
  0
ENDTAB
  0
TABLE
  2
DIMSTYLE
 70
     1
  0
DIMSTYLE
  2
STANDARD
 70
     0
  3

  4

  5

  6

  7

 40
1.0
 41
0.1875
 42
0.0625
 43
0.38
 44
0.125
 45
0.0
 46
0.0
 47
0.01
 48
0.01
140
0.15625
141
0.09
142
0.0
143
25.3999999999999986
144
1.0
145
0.0
146
1.0
147
0.09
 71
     1
 72
     0
 73
     1
 74
     1
 75
     0
 76
     0
 77
     0
 78
     4
170
     0
171
     2
172
     0
173
     0
174
     0
175
     0
176
     0
177
     0
178
     0
  0
ENDTAB
  0
ENDSEC
  0
SECTION
  2
BLOCKS
  0
BLOCK
  8
0
  2
$MODEL_SPACE
 70
     0
 10
0.0
 20
0.0
 30
0.0
  3
$MODEL_SPACE
  1

  0
ENDBLK
  5
21
  8
0
  0
BLOCK
 67
     1
  8
0
  2
$PAPER_SPACE
 70
     0
 10
0.0
 20
0.0
 30
0.0
  3
$PAPER_SPACE
  1

  0
ENDBLK
  5
1D
 67
     1
  8
0
  0
BLOCK
  8
0
  2
_FILLED
 70
     0
 10
0.0
 20
0.0
 30
0.0
  3
_FILLED
  1

  0
SOLID
  5
33433
  8
0
  6
BYBLOCK
 62
     0
 10
0.0
 20
0.0
 30
0.0
 11
-1.0
 21
0.1666666667
 31
0.0
 12
-1.0
 22
-0.1666666667
 32
0.0
 13
-1.0
 23
-0.1666666667
 33
0.0
  0
ENDBLK
  5
33434
  8
0
  6
BYBLOCK
 62
     0
  0
ENDSEC
  0
SECTION
  2
ENTITIES
  0
ATTDEF
  5
32783
  8
DEFPOINTS
 10
2832.134389911767812
 20
135.0121469984582063
 30
0.0
 40
0.001
  1
K-5722K-S
  3

  2
MODELNUMBER
 70
     0
1001
ACDBATTR
1070
     0
1070
     1
  0
ATTDEF
  5
32784
  8
DEFPOINTS
 10
2832.134389911767812
 20
135.0104803317915128
 30
0.0
 40
0.001
  1
VEIL
  3

  2
TRADENAME
 70
     0
1001
ACDBATTR
1070
     0
1070
     1
  0
ATTDEF
  5
32785
  8
DEFPOINTS
 10
2832.134389911767812
 20
135.0088136651247908
 30
0.0
 40
0.001
  1
TOILET
  3

  2
PRODUCT
 70
     0
1001
ACDBATTR
1070
     0
1070
     1
  0
LINE
  5
33491
  8
0
 10
2810.5899890153809793
 20
151.9963654902666974
 30
0.0
 11
2829.6451045271837756
 21
151.9963654902666974
 31
0.0
  0
LINE
  5
33492
  8
0
 10
2810.5723634273090283
 20
150.5075682510664024
 30
0.0
 11
2832.1335945538307897
 21
150.5075682510664024
 31
0.0
  0
LINE
  5
33493
  8
0
 10
2829.4763484393301951
 20
150.630717785166695
 30
0.0
 11
2810.6187467876538904
 21
150.630717785166695
 31
0.0
  0
LINE
  5
33494
  8
0
 10
2829.5051446101670081
 20
150.6402640931667065
 30
0.0
 11
2810.3105764827319035
 21
150.6402642056646073
 31
0.0
  0
LINE
  5
33495
  8
0
 10
2813.5894628446308161
 20
139.5626862355667015
 30
0.0
 11
2832.1335945538307897
 21
139.5626862355667015
 31
0.0
  0
ARC
  5
33496
  8
0
 10
2813.5895815846979531
 20
139.6809163634769106
 30
0.0
 40
0.1182301875363726
 50
180.6157739505854067
 51
269.9424571170411014
  0
ARC
  5
33497
  8
0
 10
2793.8596514687478702
 20
139.4688650588782082
 30
0.0
 40
19.6128394270593809
 50
0.6157739505853939
 51
3.8296622641121312
  0
ARC
  5
33498
  8
0
 10
2791.4757840354368454
 20
139.3092891332746888
 30
0.0
 40
22.0020418914047191
 50
3.8296622641121312
 51
15.3661691197334598
  0
ARC
  5
33499
  8
0
 10
2797.7046834433422191
 20
141.2367500192922876
 30
0.0
 40
15.4864578913802902
 50
14.5966682423278904
 51
35.0557041928673812
  0
ARC
  5
3349A
  8
0
 10
2810.572364036297131
 20
150.2713463400500871
 30
0.0
 40
0.2362219110170008
 50
90.0001477103707401
 51
216.2257991855053092
  0
LINE
  5
3349B
  8
0
 10
2832.1335945538307897
 20
150.5075682510664024
 30
0.0
 11
2832.1335945538307897
 21
137.5941864000666897
 31
0.0
  0
LINE
  5
3349C
  8
0
 10
2832.1335945538307897
 20
137.5941864000666897
 30
0.0
 11
2830.1595319557659423
 21
137.5941823119667049
 31
0.0
  0
ARC
  5
3349D
  8
0
 10
2830.1595315481081343
 20
137.7910322320427952
 30
0.0
 40
0.1968499200765785
 50
188.5524719392807071
 51
270.0001186542398841
  0
LINE
  5
3349E
  8
0
 10
2829.9648705826912192
 20
137.7617576769341099
 30
0.0
 11
2829.7192347649370276
 21
139.3951114630903874
 31
0.0
  0
ARC
  5
3349F
  8
0
 10
2829.5231735957099772
 20
139.3656263349809876
 30
0.0
 40
0.1982658691214096
 50
8.5524719392807231
 51
83.6772162622508091
  0
LINE
  5
334A0
  8
0
 10
2828.095604895030192
 20
139.5624781662666862
 30
0.0
 11
2827.9245098412297921
 21
139.2019285588667117
 31
0.0
  0
ARC
  5
334A1
  8
0
 10
2824.0235258885290932
 20
141.0530997862421998
 30
0.0
 40
4.3179289841656541
 50
318.6030677921742722
 51
334.6138102528101967
  0
ARC
  5
334A2
  8
0
 10
2825.5650045380421034
 20
139.6942502285162959
 30
0.0
 40
2.2630254469080562
 50
284.6386617267227166
 51
318.6030677921742722
  0
ARC
  5
334A3
  8
0
 10
2825.1059783083278489
 20
141.4393797015409859
 30
0.0
 40
4.0675133620758039
 50
270.6631908013600878
 51
284.6822247622549185
  0
ARC
  5
334A4
  8
0
 10
2825.2308687766299045
 20
141.2783729172309108
 30
0.0
 40
3.9070090043982302
 50
254.8097219613628965
 51
268.8588420749003944
  0
ARC
  5
334A5
  8
0
 10
2825.184309587658845
 20
140.7106588081238954
 30
0.0
 40
3.3485405134271451
 50
228.6125877414411889
 51
253.0329545380405136
  0
ARC
  5
334A6
  8
0
 10
2825.622077832152172
 20
141.2074293828846976
 30
0.0
 40
4.0106749709467691
 50
204.2105742154452912
 51
228.6125877414411889
  0
ARC
  5
334A7
  8
0
 10
2810.3369997166928442
 20
134.1155822621888092
 30
0.0
 40
15.4248598453635193
 50
19.7867201671504809
 51
20.679369056433071
  0
ARC
  5
334A8
  8
0
 10
2825.8687314348571817
 20
139.7032835968662141
 30
0.0
 40
1.08141460923647
 50
199.7867201671504063
 51
235.3307854000273949
  0
ARC
  5
334A9
  8
0
 10
2825.9003533940190209
 20
139.7490039738491134
 30
0.0
 40
1.1370050865932191
 50
235.3307854000273949
 51
266.3116765959210284
  0
ARC
  5
334AA
  8
0
 10
2825.9989680977350872
 20
140.1272695297689097
 30
0.0
 40
1.522633951320713
 50
263.5231028388571985
 51
299.3091254880123984
  0
ARC
  5
334AB
  8
0
 10
2826.0904335634791096
 20
140.0028948884431941
 30
0.0
 40
1.369536093931583
 50
298.5195293632114044
 51
326.4184329228540946
  0
ARC
  5
334AC
  8
0
 10
2823.9320751781101535
 20
141.8820579680478886
 30
0.0
 40
4.223459491015257
 50
321.3695196612986251
 51
326.6903240845273899
  0
LINE
  5
334AD
  8
0
 10
2832.1336044075301288
 20
149.4653594952667106
 30
0.0
 11
2827.7534949686310028
 21
149.4655188681666971
 31
0.0
  0
ARC
  5
334AE
  8
0
 10
2827.7534882006111729
 20
149.2795106625052028
 30
0.0
 40
0.186008205784603
 50
89.9979152588295506
 51
166.6427319119707136
  0
ARC
  5
334AF
  8
0
 10
2847.1277035195080316
 20
144.3590977897754897
 30
0.0
 40
20.1752500072974215
 50
165.7582605805135074
 51
173.9397446703248988
  0
ARC
  5
334B0
  8
0
 10
2870.9915515444540688
 20
143.0926239155809867
 30
0.0
 40
44.0574614778720317
 50
175.5785877928568084
 51
183.1014226921955128
  0
ARC
  5
334B1
  8
0
 10
2325.047547846004818
 20
124.8609930499590064
 30
0.0
 40
502.2011913641172782
 50
1.6907295146498811
 51
1.808383174931528
  0
ARC
  5
334B2
  8
0
 10
2826.9084598570398157
 20
139.6827103237914969
 30
0.0
 40
0.1217283426778084
 50
279.5987185658004819
 51
357.874375543396809
  0
ARC
  5
334B3
  8
0
 10
2832.0936015106881314
 20
139.6261389601687881
 30
0.0
 40
0.0130375025264983
 50
278.5067811536220006
 51
357.6304193140044276
  0
ARC
  5
334B4
  8
0
 10
2816.3846588549931766
 20
1953.3860375151880362
 30
0.0
 40
1813.840835006539919
 50
270.4612244828654184
 51
270.4962827242998742
  0
ARC
  5
334B5
  8
0
 10
3031.4535210586600442
 20
-24405.80265999292169
 30
0.0
 40
24546.2252502183800971
 50
90.4679370010435235
 51
90.4761521006419258
  0
ARC
  5
334B6
  8
0
 10
2827.4626857623470642
 20
139.6926692129478909
 30
0.0
 40
0.1177514666488534
 50
182.0709728472066899
 51
271.7984680907512143
  0
ARC
  5
334B7
  8
0
 10
3390.3263206337687734
 20
159.1449916603465056
 30
0.0
 40
563.317417783701444
 50
181.678652352245706
 51
181.9793486178787987
  0
ARC
  5
334B8
  8
0
 10
2854.7791402126881621
 20
143.7013261779158029
 30
0.0
 40
27.5488118581449299
 50
171.8320887815199001
 51
182.2010710992458087
  0
ARC
  5
334B9
  8
0
 10
2852.513782069779154
 20
143.1100777245455902
 30
0.0
 40
25.406633391420641
 50
165.9057170471764096
 51
169.7860056087660041
  0
ARC
  5
334BA
  8
0
 10
2827.9851797934420574
 20
149.2686349128165944
 30
0.0
 40
0.1167113616495241
 50
89.1623294848203045
 51
165.9057170471795075
  0
ARC
  5
334BB
  8
0
 10
2865.096715512812807
 20
-3025.813582745054191
 30
0.0
 40
3175.4157679080039998
 50
90.603407915145894
 51
90.669608379893802
  0
ARC
  5
334BC
  8
0
 10
2781.7564388194318781
 20
4593.8599635449445486
 30
0.0
 40
4444.7139802713081735
 50
270.6432518721344991
 51
270.6489176893031186
  0
ARC
  5
334BD
  8
0
 10
2832.0949121770181591
 20
149.4190832859534055
 30
0.0
 40
0.0119657125018045
 50
3.6726584033435299
 51
89.1814827512327497
  0
LINE
  5
334BE
  8
0
 10
2832.1068533155312252
 20
149.4198497627666882
 30
0.0
 11
2832.1066278651301218
 21
139.6255999220666979
 31
0.0
  0
LINE
  5
334BF
  8
0
 10
2832.1066287241510508
 20
139.6629183565889036
 30
0.0
 11
2832.1335945538307897
 21
139.6629183565889036
 31
0.0
  0
ARC
  5
334C0
  8
0
 10
2831.2906544127931738
 20
139.6327503543382988
 30
0.0
 40
0.5832428127760729
 50
353.1004738814244206
 51
357.8957847865912072
  0
ARC
  5
334C1
  8
0
 10
2829.599246680557826
 20
327.4482353269635269
 30
0.0
 40
174.993631353826089
 50
269.3673525317444728
 51
269.9451833960819158
  0
ARC
  5
334C2
  8
0
 10
2829.4317120611531209
 20
152.3366267766535884
 30
0.0
 40
0.1180573392067002
 50
15.2230171854636005
 51
89.9451833960819158
  0
LINE
  5
334C3
  8
0
 10
2829.5456268968309814
 20
152.3676258984667129
 30
0.0
 11
2829.8756909243920745
 21
151.1357941271554068
 31
0.0
  0
ARC
  5
334C4
  8
0
 10
2829.4954253103301198
 20
151.0339558359048908
 30
0.0
 40
0.3936660701692223
 50
335.1729639182627807
 51
14.9924684569748798
  0
ARC
  5
334C5
  8
0
 10
2829.495234272835205
 20
151.0340375017727013
 30
0.0
 40
0.3938737418178487
 50
294.9812383115506123
 51
335.1738504886916985
  0
ARC
  5
334C6
  8
0
 10
2829.4763484389309269
 20
151.0244185725665886
 30
0.0
 40
0.39370078739997
 50
270.0000000582070925
 51
298.0652648302922785
  0
ARC
  5
334C7
  8
0
 10
2829.4944878952737781
 20
151.036953648005607
 30
0.0
 40
0.3968326706441828
 50
271.5388304544489984
 51
294.9011058622900237
  0
LINE
  5
334C8
  8
0
 10
2828.3555498961359262
 20
150.630717785166695
 30
0.0
 11
2828.3555498961359262
 21
150.5075681788667055
 31
0.0
  0
ARC
  5
334C9
  8
0
 10
2827.8400010140708218
 20
146.8982070320082869
 30
0.0
 40
4.0493690513663276
 50
112.816547885610305
 51
116.9579914660772033
  0
LINE
  5
334CA
  8
0
 10
2823.0895361909301755
 20
150.630717785166695
 30
0.0
 11
2823.0930572168299477
 21
150.563532608266712
 31
0.0
  0
ARC
  5
334CB
  8
0
 10
2823.1529448775681885
 20
150.5666711875527142
 30
0.0
 40
0.0599698473277753
 50
182.9999999812268072
 51
260.2464029312416187
  0
LINE
  5
334CC
  8
0
 10
2823.6630824009789649
 20
150.630717785166695
 30
0.0
 11
2823.6595552081721507
 21
150.5635274304866016
 31
0.0
  0
ARC
  5
334CD
  8
0
 10
2823.6001796292898689
 20
150.5666443825514875
 30
0.0
 40
0.0594573356084484
 50
276.490898781722592
 51
356.994986450324518
  0
ARC
  5
334CE
  8
0
 10
2811.5968849152291114
 20
149.95702368051451
 30
0.0
 40
1.2921543024563751
 50
25.2182291086493997
 51
31.4243812263547007
  0
LINE
  5
334CF
  8
0
 10
2813.7371368362310022
 20
150.630717785166695
 30
0.0
 11
2813.7435908336301509
 21
150.5075681788667055
 31
0.0
  0
LINE
  5
334D0
  8
0
 10
2814.6690191674301786
 20
150.630717785166695
 30
0.0
 11
2814.6625651701310744
 21
150.5075681788667055
 31
0.0
  0
ARC
  5
334D1
  8
0
 10
2810.3104612128308872
 20
150.699319216366689
 30
0.0
 40
0.0590551231999999
 50
174.473887515600012
 51
270.1118359037092205
  0
ARC
  5
334D2
  8
0
 10
2810.6197258950069227
 20
150.7173661303974086
 30
0.0
 40
0.086653876903667
 50
242.8443842930446124
 51
269.3525977743087765
  0
LINE
  5
334D3
  8
0
 10
2810.2516805534301056
 20
150.7050061888963057
 30
0.0
 11
2810.3543697135160073
 21
151.7714734000497003
 31
0.0
  0
ARC
  5
334D4
  8
0
 10
2810.6031428508690624
 20
151.7467090825778087
 30
0.0
 40
0.2500026905619329
 50
93.0159994710518561
 51
174.3151749009259959
  0
ARC
  5
334D5
  8
0
 10
2828.123650969209848
 20
-180.8130269263697016
 30
0.0
 40
333.2709423010680894
 50
92.463473448860853
 51
93.015771018287964
  0
ARC
  5
334D6
  8
0
 10
2828.1116000749088926
 20
-180.5329184240717098
 30
0.0
 40
332.9905746903975796
 50
91.6731253569185753
 51
92.463473448860853
  0
ARC
  5
334D7
  8
0
 10
2828.1169810314809183
 20
-180.7171356204104029
 30
0.0
 40
333.1748704584459233
 50
90.352829651547836
 51
91.6731253569185753
  0
ARC
  5
334D8
  8
0
 10
2824.0853432345229521
 20
473.9696498200107726
 30
0.0
 40
321.5243285128357797
 50
270.3528296515477791
 51
270.6382739788840013
  0
ARC
  5
334D9
  8
0
 10
2829.3433127052680902
 20
151.4522655973505891
 30
0.0
 40
0.5138046600163018
 50
13.7509549795238204
 51
47.7084175383073799
  0
LINE
  5
334DA
  8
0
 10
2829.8423907516307736
 20
151.5743980348667037
 30
0.0
 11
2829.905039434174796
 21
151.3231278934912041
 31
0.0
  0
ARC
  5
334DB
  8
0
 10
2829.6758363024100618
 20
151.2659785759798012
 30
0.0
 40
0.2362204904385757
 50
1.0000004509784131
 51
14.0006021178929601
  0
LINE
  5
334DC
  8
0
 10
2829.9120208152908162
 20
151.2701011938468127
 30
0.0
 11
2829.9253308845809443
 21
150.5075681788667055
 31
0.0
  0
LINE
  5
334DD
  8
0
 10
2829.9189450212297743
 20
150.8734136994667097
 30
0.0
 11
2829.9706941446302153
 21
150.8734136994667097
 31
0.0
  0
ARC
  5
334DE
  8
0
 10
2829.9706941446302153
 20
150.8616026758668056
 30
0.0
 40
0.0118110235999183
 50
359.999999999604313
 51
90.0
  0
LINE
  5
334DF
  8
0
 10
2829.9825051682310004
 20
150.8616026758666919
 30
0.0
 11
2829.9825051682278172
 21
150.5112089750666939
 31
0.0
  0
ARC
  5
334E0
  8
0
 10
2829.9825051682291814
 20
150.5112089750666939
 30
0.0
 40
0.000000000001215
 50
179.9999999992068922
 51
0.0
  0
ARC
  5
334E1
  8
0
 10
2829.9706941446302153
 20
150.5112089750668076
 30
0.0
 40
0.0118110236005435
 50
342.0463235376292914
 51
359.9999999994219024
  0
ARC
  5
334E2
  8
0
 10
2829.3405546133990356
 20
151.4511746569874049
 30
0.0
 40
0.4869000145764373
 50
13.8235059333547792
 51
41.6226085780912314
  0
ARC
  5
334E3
  8
0
 10
2829.2509878360451694
 20
151.4291359803048067
 30
0.0
 40
0.5791383519179782
 50
3.6367116203973531
 51
13.8235059333547792
  0
LINE
  5
334E4
  8
0
 10
2829.8289599719960279
 20
151.4658707149023087
 30
0.0
 11
2829.8528493795552095
 21
151.2210559839639075
 31
0.0
  0
ENDSEC
  0
EOF
