  0
SECTION
  2
HEADER
  9
$ACADVER
  1
AC1009
  9
$INSBASE
 10
4481.7075678058936319
 20
213.9136506135658919
 30
0.0
  9
$EXTMIN
 10
4470.9936659694249101
 20
213.8118853032270863
 30
-0.0015258207003583
  9
$EXTMAX
 10
4489.0664103730759962
 20
218.516125513973094
 30
0.0000000349246037
  9
$LIMMIN
 10
0.0
 20
0.0
  9
$LIMMAX
 10
11.6929133858000007
 20
8.2677165353999982
  9
$ORTHOMODE
 70
     0
  9
$REGENMODE
 70
     1
  9
$FILLMODE
 70
     1
  9
$QTEXTMODE
 70
     0
  9
$MIRRTEXT
 70
     0
  9
$DRAGMODE
 70
     2
  9
$LTSCALE
 40
0.6431102362
  9
$OSMODE
 70
  4095
  9
$ATTMODE
 70
     1
  9
$TEXTSIZE
 40
0.2
  9
$TRACEWID
 40
0.05
  9
$TEXTSTYLE
  7
STANDARD
  9
$CLAYER
  8
0
  9
$CELTYPE
  6
BYLAYER
  9
$CECOLOR
 62
   256
  9
$DIMSCALE
 40
1.0
  9
$DIMASZ
 40
0.1875
  9
$DIMEXO
 40
0.0625
  9
$DIMDLI
 40
0.4443307087
  9
$DIMRND
 40
0.0
  9
$DIMDLE
 40
0.0
  9
$DIMEXE
 40
0.125
  9
$DIMTP
 40
0.01
  9
$DIMTM
 40
0.01
  9
$DIMTXT
 40
2.0
  9
$DIMCEN
 40
0.1052362205
  9
$DIMTSZ
 40
0.0
  9
$DIMTOL
 70
     1
  9
$DIMLIM
 70
     0
  9
$DIMTIH
 70
     1
  9
$DIMTOH
 70
     1
  9
$DIMSE1
 70
     0
  9
$DIMSE2
 70
     0
  9
$DIMTAD
 70
     0
  9
$DIMZIN
 70
     0
  9
$DIMBLK
  1

  9
$DIMASO
 70
     1
  9
$DIMSHO
 70
     1
  9
$DIMPOST
  1
\X
  9
$DIMAPOST
  1

  9
$DIMALT
 70
     1
  9
$DIMALTD
 70
     2
  9
$DIMALTF
 40
25.3999999999999986
  9
$DIMLFAC
 40
1.0
  9
$DIMTOFL
 70
     0
  9
$DIMTVP
 40
0.0
  9
$DIMTIX
 70
     0
  9
$DIMSOXD
 70
     0
  9
$DIMSAH
 70
     0
  9
$DIMBLK1
  1

  9
$DIMBLK2
  1

  9
$DIMSTYLE
  2
STANDARD
  9
$DIMCLRD
 70
     0
  9
$DIMCLRE
 70
     0
  9
$DIMCLRT
 70
     0
  9
$DIMTFAC
 40
1.0
  9
$DIMGAP
 40
0.09
  9
$LUNITS
 70
     2
  9
$LUPREC
 70
     4
  9
$SKETCHINC
 40
0.1
  9
$FILLETRAD
 40
0.0
  9
$AUNITS
 70
     0
  9
$AUPREC
 70
     0
  9
$MENU
  1
.
  9
$ELEVATION
 40
0.0
  9
$PELEVATION
 40
0.0
  9
$THICKNESS
 40
0.0
  9
$LIMCHECK
 70
     0
  9
$BLIPMODE
 70
     0
  9
$CHAMFERA
 40
0.0
  9
$CHAMFERB
 40
0.0
  9
$SKPOLY
 70
     0
  9
$TDCREATE
 40
2458060.468368056230247
  9
$TDUPDATE
 40
2459325.7835532408207655
  9
$TDINDWG
 40
0.6270325231
  9
$TDUSRTIMER
 40
0.6270325231
  9
$USRTIMER
 70
     1
  9
$ANGBASE
 50
0.0
  9
$ANGDIR
 70
     0
  9
$PDMODE
 70
     0
  9
$PDSIZE
 40
0.3125
  9
$PLINEWID
 40
0.0
  9
$COORDS
 70
     1
  9
$SPLFRAME
 70
     0
  9
$SPLINETYPE
 70
     6
  9
$SPLINESEGS
 70
     8
  9
$ATTDIA
 70
     1
  9
$ATTREQ
 70
     1
  9
$HANDLING
 70
     1
  9
$HANDSEED
  5
12238
  9
$SURFTAB1
 70
     6
  9
$SURFTAB2
 70
     6
  9
$SURFTYPE
 70
     6
  9
$SURFU
 70
     6
  9
$SURFV
 70
     6
  9
$UCSNAME
  2

  9
$UCSORG
 10
0.0
 20
0.0
 30
0.0
  9
$UCSXDIR
 10
1.0
 20
0.0
 30
0.0
  9
$UCSYDIR
 10
0.0
 20
1.0
 30
0.0
  9
$PUCSNAME
  2

  9
$PUCSORG
 10
0.0
 20
0.0
 30
0.0
  9
$PUCSXDIR
 10
1.0
 20
0.0
 30
0.0
  9
$PUCSYDIR
 10
0.0
 20
1.0
 30
0.0
  9
$USERI1
 70
     0
  9
$USERI2
 70
     0
  9
$USERI3
 70
     0
  9
$USERI4
 70
     0
  9
$USERI5
 70
     0
  9
$USERR1
 40
0.0
  9
$USERR2
 40
0.0
  9
$USERR3
 40
0.0
  9
$USERR4
 40
0.0
  9
$USERR5
 40
0.0
  9
$WORLDVIEW
 70
     1
  9
$SHADEDGE
 70
     3
  9
$SHADEDIF
 70
    70
  9
$TILEMODE
 70
     1
  9
$MAXACTVP
 70
    64
  9
$PLIMCHECK
 70
     0
  9
$PEXTMIN
 10
1.0000000000000000E+20
 20
1.0000000000000000E+20
 30
1.0000000000000000E+20
  9
$PEXTMAX
 10
-1.0000000000000000E+20
 20
-1.0000000000000000E+20
 30
-1.0000000000000000E+20
  9
$PLIMMIN
 10
0.0
 20
0.0
  9
$PLIMMAX
 10
12.0
 20
9.0
  9
$UNITMODE
 70
     0
  9
$VISRETAIN
 70
     1
  9
$PLINEGEN
 70
     0
  9
$PSLTSCALE
 70
     1
  0
ENDSEC
  0
SECTION
  2
TABLES
  0
TABLE
  2
VPORT
 70
     1
  0
VPORT
  2
*ACTIVE
 70
     0
 10
0.0
 20
0.0
 11
1.0
 21
1.0
 12
318.47364168687551
 22
-9.9468268057553928
 13
0.0
 23
0.0
 14
1.0
 24
1.0
 15
0.0
 25
0.0
 16
0.0
 26
0.0
 36
202.37134017897489
 17
4161.556396484375
 27
226.1108322143554972
 37
0.0
 40
6.2202682971626793
 41
2.9182795698924728
 42
50.0
 43
0.0
 44
0.0
 50
0.0
 51
0.0
 71
     0
 72
   100
 73
     1
 74
     1
 75
     0
 76
     0
 77
     0
 78
     0
  0
ENDTAB
  0
TABLE
  2
LTYPE
 70
     2
  0
LTYPE
  2
CONTINUOUS
 70
     0
  3
Solid line
 72
    65
 73
     0
 40
0.0
  0
LTYPE
  2
PHANTOM2
 70
     0
  3
___ _ _ ___ _ _ ___ _ _ ___ _ _
 72
    65
 73
     6
 40
1.25
 49
0.625
 49
-0.125
 49
0.125
 49
-0.125
 49
0.125
 49
-0.125
  0
ENDTAB
  0
TABLE
  2
LAYER
 70
     2
  0
LAYER
  2
0
 70
     0
 62
   255
  6
CONTINUOUS
  0
LAYER
  2
DEFPOINTS
 70
     0
 62
     7
  6
CONTINUOUS
  0
ENDTAB
  0
TABLE
  2
STYLE
 70
     1
  0
STYLE
  2
STANDARD
 70
     0
 40
0.0
 41
0.8
 50
0.0
 71
     0
 42
0.2
  3
txt
  4

  0
ENDTAB
  0
TABLE
  2
VIEW
 70
     0
  0
ENDTAB
  0
TABLE
  2
UCS
 70
     0
  0
ENDTAB
  0
TABLE
  2
APPID
 70
     9
  0
APPID
  2
ACAD
 70
     0
  0
APPID
  2
ACAD_MLEADERVER
 70
     0
  0
APPID
  2
ACAD_EXEMPT_FROM_CAD_STANDARDS
 70
     0
  0
APPID
  2
ACAD_NAV_VCDISPLAY
 70
     0
  0
APPID
  2
ACAECLAYERSTANDARD
 70
     0
  0
APPID
  2
ACCMTRANSPARENCY
 70
     0
  0
APPID
  2
ACAD_DSTYLE_DIMJAG
 70
     0
  0
APPID
  2
ACAD_DSTYLE_DIMTALN
 70
     0
  0
APPID
  2
ACDBATTR
 70
     0
  0
ENDTAB
  0
TABLE
  2
DIMSTYLE
 70
     1
  0
DIMSTYLE
  2
STANDARD
 70
     0
  3

  4

  5

  6

  7

 40
1.0
 41
0.1875
 42
0.0625
 43
0.38
 44
0.125
 45
0.0
 46
0.0
 47
0.01
 48
0.01
140
0.15625
141
0.09
142
0.0
143
25.3999999999999986
144
1.0
145
0.0
146
1.0
147
0.09
 71
     1
 72
     0
 73
     1
 74
     1
 75
     0
 76
     0
 77
     0
 78
     4
170
     0
171
     2
172
     0
173
     0
174
     0
175
     0
176
     0
177
     0
178
     0
  0
ENDTAB
  0
ENDSEC
  0
SECTION
  2
BLOCKS
  0
BLOCK
  8
0
  2
$MODEL_SPACE
 70
     0
 10
0.0
 20
0.0
 30
0.0
  3
$MODEL_SPACE
  1

  0
ENDBLK
  5
21
  8
0
  0
BLOCK
 67
     1
  8
0
  2
$PAPER_SPACE
 70
     0
 10
0.0
 20
0.0
 30
0.0
  3
$PAPER_SPACE
  1

  0
ENDBLK
  5
1D
 67
     1
  8
0
  0
ENDSEC
  0
SECTION
  2
ENTITIES
  0
ATTDEF
  5
3930
  8
DEFPOINTS
 10
4481.704421852267842
 20
213.9183957148869126
 30
0.0
 40
0.001
  1
K-5724
  3

  2
MODELNUMBER
 70
     0
1001
ACDBATTR
1070
     0
1070
     1
  0
ATTDEF
  5
3931
  8
DEFPOINTS
 10
4481.704421852267842
 20
213.9167290482201906
 30
0.0
 40
0.001
  1
PURETIDE
  3

  2
TRADENAME
 70
     0
1001
ACDBATTR
1070
     0
1070
     1
  0
ATTDEF
  5
3932
  8
DEFPOINTS
 10
4481.704421852267842
 20
213.9150623815534971
 30
0.0
 40
0.001
  1
TOILET SEAT
  3

  2
PRODUCT
 70
     0
1001
ACDBATTR
1070
     0
1070
     1
  0
ARC
  5
12112
  8
0
 10
4481.709347080288353
 20
178.3573876908137947
 30
0.0
 40
40.1553925660844016
 50
90.0026075329494546
 51
91.4136662540907849
  0
ARC
  5
12113
  8
0
 10
4481.3533453000482041
 20
192.7827123441560104
 30
0.0
 40
25.7256757074053617
 50
91.4136403833994962
 51
95.5026304727789181
  0
ARC
  5
12114
  8
0
 10
4480.6703453757327225
 20
199.8725259991992971
 30
0.0
 40
18.6030394988198609
 50
95.5026304727789181
 51
98.6162973156505132
  0
ARC
  5
12115
  8
0
 10
4483.8968663214791377
 20
182.6380064717870084
 30
0.0
 40
36.1315506379471216
 50
99.580622912396862
 51
101.5093163666393963
  0
ARC
  5
12116
  8
0
 10
4482.3504973433409759
 20
190.3838064568101913
 30
0.0
 40
28.2329744734580395
 50
101.5706513107814004
 51
102.8283370070392948
  0
ARC
  5
12117
  8
0
 10
4481.1198466034420562
 20
195.7649251048428027
 30
0.0
 40
22.7129286350347002
 50
102.815321741950001
 51
104.922121325200294
  0
ARC
  5
12118
  8
0
 10
4475.3702258883304239
 20
217.2897807232984064
 30
0.0
 40
0.4335937242686834
 50
103.2109267995602977
 51
115.1994427527082934
  0
ARC
  5
12119
  8
0
 10
4475.2924873213305546
 20
217.4738587266024012
 30
0.0
 40
0.2340733554796905
 50
117.1665395111295993
 51
156.3539451564138858
  0
ARC
  5
1211A
  8
0
 10
4475.4988774393386848
 20
217.3733832661239944
 30
0.0
 40
0.4635268322206335
 50
155.2093147079067137
 51
165.7859544257713935
  0
ARC
  5
1211B
  8
0
 10
4499.2726774077318623
 20
211.5525065336541957
 30
0.0
 40
24.9395449947645993
 50
166.2336432637630139
 51
171.3363421496426895
  0
LINE
  5
1211C
  8
0
 10
4474.5566118226552135
 20
214.4838292902832109
 30
0.0
 11
4474.6114425382666013
 21
215.2679337310335939
 31
0.0
  0
ARC
  5
1211D
  8
0
 10
4474.6164656614646447
 20
214.4796438417083948
 30
0.0
 40
0.06
 50
175.9999424205408047
 51
270.0
  0
ARC
  5
1211E
  8
0
 10
4474.8590046169138077
 20
215.2515540428890972
 30
0.0
 40
0.2481033594440988
 50
119.5472470625589949
 51
176.214601488051386
  0
LINE
  5
1211F
  8
0
 10
4479.751736513270771
 20
214.2155123755819091
 30
0.0
 11
4483.6633337254370417
 21
214.2155123755819091
 31
0.0
  0
ARC
  5
12120
  8
0
 10
4474.1690888888733753
 20
210.1445190929474904
 30
0.0
 40
5.0813556732366481
 50
50.9515644381569288
 51
57.281422677010589
  0
ARC
  5
12121
  8
0
 10
4477.2725483104550221
 20
213.9703548509179996
 30
0.0
 40
0.1550508076828463
 50
4.8981314745234261
 51
50.9515644381569288
  0
ARC
  5
12122
  8
0
 10
4477.2850949139674412
 20
213.971430062095493
 30
0.0
 40
0.1424582170543494
 50
0.5061581517707358
 51
4.8981314745234261
  0
ARC
  5
12123
  8
0
 10
4477.5372034816246014
 20
214.7350191089927023
 30
0.0
 40
0.8226664984507811
 50
273.1745778922502268
 51
279.0369482217946029
  0
ARC
  5
12124
  8
0
 10
4476.9642016248089931
 20
217.9662067759163051
 30
0.0
 40
4.1041634250154884
 50
279.8517367768131976
 51
287.3839841285039256
  0
ARC
  5
12125
  8
0
 10
4479.733795715416818
 20
205.6930316995662054
 30
0.0
 40
8.4978036823858911
 50
100.464172100535805
 51
104.6752193643908981
  0
ARC
  5
12126
  8
0
 10
4479.8940506028484378
 20
204.8253460100505947
 30
0.0
 40
9.3801642009585482
 50
97.3081869212797699
 51
100.464172100535805
  0
ARC
  5
12127
  8
0
 10
4480.1734857390965772
 20
202.6464837998167923
 30
0.0
 40
11.5768718571009899
 50
92.5763719185566742
 51
97.3081869212797699
  0
ARC
  5
12128
  8
0
 10
4481.0897878858268086
 20
178.7472027699047032
 30
0.0
 40
35.4935398031778817
 50
89.8046711278748546
 51
92.3198311173355961
  0
LINE
  5
12129
  8
0
 10
4481.2107898117510558
 20
214.2405363171174884
 30
0.0
 11
4482.2041882625262588
 21
214.2405363171174884
 31
0.0
  0
LINE
  5
1212A
  8
0
 10
4477.5663540381528946
 20
214.2156032347083965
 30
0.0
 11
4478.1598067613731473
 21
214.2156032347083965
 31
0.0
  0
ARC
  5
1212B
  8
0
 10
4477.5914091491804356
 20
214.848783318201896
 30
0.0
 40
0.6336756084317962
 50
222.6269187753304948
 51
267.7339723849831898
  0
ARC
  5
1212C
  8
0
 10
4478.1481134708810714
 20
214.8393061436075868
 30
0.0
 40
0.6238125131895041
 50
271.0740653975993268
 51
317.7213873554533734
  0
LINE
  5
1212D
  8
0
 10
4476.2729100251772252
 20
214.2756034404991965
 30
0.0
 11
4475.5943226814806621
 21
214.2756034404991965
 31
0.0
  0
ARC
  5
1212E
  8
0
 10
4476.2780039770395888
 20
214.9037822432084113
 30
0.0
 40
0.6281994560000072
 50
269.5353941513582186
 51
309.5854143756350823
  0
ARC
  5
1212F
  8
0
 10
4475.589037013340203
 20
214.9037806548084006
 30
0.0
 40
0.6281994515000083
 50
230.4144085164813873
 51
270.4820921907947877
  0
ARC
  5
12130
  8
0
 10
4471.8490862071412266
 20
214.9097158107740881
 30
0.0
 40
0.8589552194138793
 50
252.8878941176992896
 51
270.0362080504623918
  0
ARC
  5
12131
  8
0
 10
4471.8118582734668962
 20
214.7887954351448059
 30
0.0
 40
0.7324338524912385
 50
227.5837685265925927
 51
252.8878941176992896
  0
ARC
  5
12132
  8
0
 10
4471.6572885100558779
 20
214.6196162203059998
 30
0.0
 40
0.5032757880584299
 50
199.1855947099778916
 51
227.5837685265925927
  0
ARC
  5
12133
  8
0
 10
4471.5986520656697394
 20
214.5992133786712941
 30
0.0
 40
0.4411910994715513
 50
160.8144052900221084
 51
199.1855947099778916
  0
ARC
  5
12134
  8
0
 10
4471.6579850628249915
 20
214.578568168045706
 30
0.0
 40
0.5040133031353509
 50
130.0588974729124914
 51
160.8144052900221084
  0
ARC
  5
12135
  8
0
 10
4471.8294848693985841
 20
214.3746088158843861
 30
0.0
 40
0.7704933230040391
 50
102.8278068594278949
 51
130.0588974729124914
  0
ARC
  5
12136
  8
0
 10
4471.8482461804560444
 20
214.292215706128502
 30
0.0
 40
0.8549954610112861
 50
89.9056054783062137
 51
102.8278068594278949
  0
ARC
  5
12137
  8
0
 10
4471.8482724424802655
 20
214.3081562689820885
 30
0.0
 40
0.8390548765243847
 50
57.0315206331571716
 51
89.9056054783062137
  0
ARC
  5
12138
  8
0
 10
4472.0130908218270633
 20
214.5622602512752053
 30
0.0
 40
0.5361787764643076
 50
24.0800162042835311
 51
57.0315206331571716
  0
ARC
  5
12139
  8
0
 10
4472.0952678783405645
 20
214.5989854333298013
 30
0.0
 40
0.4461687347230514
 50
335.876809039080797
 51
24.0800162042835311
  0
ARC
  5
1213A
  8
0
 10
4471.9690074983973318
 20
214.6715631781410991
 30
0.0
 40
0.5912463668671628
 50
296.6209541201615139
 51
334.4582551352181099
  0
ARC
  5
1213B
  8
0
 10
4471.8543019484795877
 20
214.8780485264136928
 30
0.0
 40
0.8273009609115373
 50
269.6763689270969735
 51
297.3150890021105965
  0
ARC
  5
1213C
  8
0
 10
4471.6590855635859043
 20
231.9541866644422043
 30
0.0
 40
18.0060858901473004
 50
275.6934189680177951
 51
281.789328351542224
  0
ARC
  5
1213D
  8
0
 10
4472.4052043393512577
 20
224.4703427520522041
 30
0.0
 40
10.4851409407033103
 50
269.538675486837576
 51
275.6934189680177951
  0
ARC
  5
1213E
  8
0
 10
4472.0848753128420867
 20
184.6868408182280064
 30
0.0
 40
29.2996505857557814
 50
89.5386754868376187
 51
90.3119441871859578
  0
ARC
  5
1213F
  8
0
 10
4471.9209890399788492
 20
214.7880555911727072
 30
0.0
 40
0.8020103238580434
 50
226.9302497477748091
 51
270.3119441871858726
  0
ARC
  5
12140
  8
0
 10
4454.1579546585153366
 20
303.4750012990303958
 30
0.0
 40
90.1005140629412864
 50
282.4054002090782092
 51
283.1709352156810837
  0
ARC
  5
12141
  8
0
 10
4468.5277442863307442
 20
238.1468092030144135
 30
0.0
 40
23.2105780749193187
 50
280.3973296244964786
 51
282.4054002090782092
  0
ARC
  5
12142
  8
0
 10
4471.7217201872799706
 20
220.739633871398496
 30
0.0
 40
5.5128032124836173
 50
272.9009892633328036
 51
280.3973296244964786
  0
ARC
  5
12143
  8
0
 10
4472.0839943547516668
 20
213.5906792627853861
 30
0.0
 40
1.645324655082641
 50
92.9009892633328178
 51
97.0528573369379046
  0
ARC
  5
12144
  8
0
 10
4471.9816008225725454
 20
214.2056275046109874
 30
0.0
 40
1.022790542332219
 50
95.5899080162422337
 51
108.4047258054218048
  0
ARC
  5
12145
  8
0
 10
4471.9120902258009664
 20
214.4338088659634991
 30
0.0
 40
0.7843578974703809
 50
108.8494434000006947
 51
137.1648370896703
  0
LINE
  5
12146
  8
0
 10
4476.8649999940971611
 20
214.4196443663182947
 30
0.0
 11
4476.8650060806921829
 21
214.2155001666484964
 31
0.0
  0
LINE
  5
12147
  8
0
 10
4476.8650060806921829
 20
214.2155001666484964
 30
0.0
 11
4477.2100243659087937
 21
214.2155001666484964
 31
0.0
  0
ARC
  5
12148
  8
0
 10
4481.705715726073322
 20
178.3573891251041914
 30
0.0
 40
40.1553911307272529
 50
88.5863604689139237
 51
89.997426129880111
  0
ARC
  5
12149
  8
0
 10
4482.0617107485077213
 20
192.7827125094260907
 30
0.0
 40
25.7256757074053617
 50
84.4973962627939272
 51
88.5863863521673238
  0
ARC
  5
1214A
  8
0
 10
4482.7447073645480486
 20
199.8725264831726065
 30
0.0
 40
18.6030394988198609
 50
81.3837294199323225
 51
84.4973962627939272
  0
ARC
  5
1214B
  8
0
 10
4479.5181944608393678
 20
182.6380054501906898
 30
0.0
 40
36.1315506379471216
 50
78.490710368940924
 51
80.4194038231583193
  0
ARC
  5
1214C
  8
0
 10
4481.064559824601929
 20
190.3838061567855959
 30
0.0
 40
28.2329744734580395
 50
77.1716897285245267
 51
78.4293754247924539
  0
ARC
  5
1214D
  8
0
 10
4482.2952080535442292
 20
195.7649253790685862
 30
0.0
 40
22.7129286350347002
 50
75.0779054104085617
 51
77.184704993620457
  0
ARC
  5
1214E
  8
0
 10
4488.0448187246438465
 20
217.2897836804318956
 30
0.0
 40
0.4335937242686834
 50
64.8005839828572192
 51
76.7890999359932493
  0
ARC
  5
1214F
  8
0
 10
4488.1225572057473983
 20
217.4738617200106034
 30
0.0
 40
0.2340733554796905
 50
23.6460815791768191
 51
62.8334872244271878
  0
ARC
  5
12150
  8
0
 10
4487.9161671346228104
 20
217.373386163225689
 30
0.0
 40
0.4635268322206335
 50
14.2140723098048092
 51
24.7907120276741004
  0
ARC
  5
12151
  8
0
 10
4464.1423698823928135
 20
211.5524983373348107
 30
0.0
 40
24.9395449947645993
 50
8.6636845859330531
 51
13.7663834718120199
  0
LINE
  5
12152
  8
0
 10
4488.8584340996421815
 20
214.4838326270688071
 30
0.0
 11
4488.8036030181483511
 21
215.2679370422337115
 31
0.0
  0
ARC
  5
12153
  8
0
 10
4488.7985802627872545
 20
214.4796471505646878
 30
0.0
 40
0.06
 50
270.0000267355591177
 51
4.0000843150362204
  0
ARC
  5
12154
  8
0
 10
4488.5560409471454477
 20
215.2515572385709106
 30
0.0
 40
0.2481033594440988
 50
3.785425247523309
 51
60.4512564526202709
  0
ARC
  5
12155
  8
0
 10
4489.2459590582502642
 20
210.1445226105610118
 30
0.0
 40
5.0813556732366481
 50
122.7186040585587961
 51
129.0484622974171032
  0
ARC
  5
12156
  8
0
 10
4486.1424978514405666
 20
213.9703569203828977
 30
0.0
 40
0.1550508076828463
 50
129.0484622974171032
 51
175.1018952610521922
  0
ARC
  5
12157
  8
0
 10
4486.1299512474288349
 20
213.9714321257058884
 30
0.0
 40
0.1424582170543494
 50
175.1018952610521922
 51
179.4944270299442053
  0
ARC
  5
12158
  8
0
 10
4485.8778423234616639
 20
214.7350210549631129
 30
0.0
 40
0.8226664984507811
 50
260.9630785137874227
 51
266.8278703887536949
  0
ARC
  5
12159
  8
0
 10
4486.4508426725278696
 20
217.9662089892626113
 30
0.0
 40
4.1041634250153818
 50
252.6160426070792937
 51
260.1482899587787756
  0
ARC
  5
1215A
  8
0
 10
4483.6812543088753955
 20
205.6930326205554138
 30
0.0
 40
8.4978036823858911
 50
75.3247561242765613
 51
79.5358546350144167
  0
ARC
  5
1215B
  8
0
 10
4483.52099982632717
 20
204.8253468562610067
 30
0.0
 40
9.3801642009585482
 50
79.5358546350144167
 51
82.6918398143272242
  0
ARC
  5
1215C
  8
0
 10
4483.2415657067876964
 20
202.6464845156363879
 30
0.0
 40
11.5768718571009899
 50
82.6918398143272242
 51
87.4236548170335226
  0
ARC
  5
1215D
  8
0
 10
4482.3252747120322965
 20
178.7472030581585045
 30
0.0
 40
35.4935398031778817
 50
87.6801956182481348
 51
90.1954653158898765
  0
LINE
  5
1215E
  8
0
 10
4485.8486920093046137
 20
214.2156051670764896
 30
0.0
 11
4485.2552392860861801
 21
214.2156048901572944
 31
0.0
  0
ARC
  5
1215F
  8
0
 10
4485.8236366028213524
 20
214.8487852388786052
 30
0.0
 40
0.6336756084317962
 50
272.2660543505866144
 51
317.3731079602400769
  0
ARC
  5
12160
  8
0
 10
4485.2669322855426799
 20
214.8393078045127993
 30
0.0
 40
0.6238125131895041
 50
222.278639380120012
 51
268.9259613380193059
  0
LINE
  5
12161
  8
0
 10
4487.1421359942842173
 20
214.2756059764192003
 30
0.0
 11
4487.8207233379789614
 21
214.275606293064186
 31
0.0
  0
ARC
  5
12162
  8
0
 10
4487.1370417492971683
 20
214.9037847767513085
 30
0.0
 40
0.6281994560000072
 50
230.4146123599587099
 51
270.4646325842462034
  0
ARC
  5
12163
  8
0
 10
4487.8260087129992826
 20
214.9037835098397125
 30
0.0
 40
0.6281994515000083
 50
269.5179345447725723
 51
309.5856182190797767
  0
LINE
  5
12164
  8
0
 10
4486.5500459581517134
 20
214.419646625954897
 30
0.0
 11
4486.5500399668153477
 21
214.2155024262823986
 31
0.0
  0
LINE
  5
12165
  8
0
 10
4486.5500399668153477
 20
214.2155024262823986
 30
0.0
 11
4486.2050216815969179
 21
214.2155022652885918
 31
0.0
  0
LINE
  5
12166
  8
0
 10
4488.6783965486883972
 20
215.4673913965220038
 30
0.0
 11
4474.7366546526964157
 21
215.4673913965220038
 31
0.0
  0
LINE
  5
12167
  8
0
 10
4488.7985802907833204
 20
214.4196471505647139
 30
0.0
 11
4474.6164656614646447
 21
214.4196438417083925
 31
0.0
  0
LINE
  5
12168
  8
0
 10
4481.219518665787291
 20
213.8218153236084049
 30
0.0
 11
4481.167335100793025
 21
213.8218153236084049
 31
0.0
  0
LINE
  5
12169
  8
0
 10
4481.1638992961079566
 20
214.2155123755819091
 30
0.0
 11
4481.167335100793025
 21
213.8218153236084049
 31
0.0
  0
LINE
  5
1216A
  8
0
 10
4481.2229544009851452
 20
214.2155123755819091
 30
0.0
 11
4481.219518665787291
 21
213.8218153236084049
 31
0.0
  0
LINE
  5
1216B
  8
0
 10
4482.1955235887089657
 20
213.8218153236084049
 30
0.0
 11
4482.2477071537023221
 21
213.8218153236084049
 31
0.0
  0
LINE
  5
1216C
  8
0
 10
4482.2511429583883
 20
214.2155123755819091
 30
0.0
 11
4482.2477071537023221
 21
213.8218153236084049
 31
0.0
  0
LINE
  5
1216D
  8
0
 10
4482.192087853510202
 20
214.2155123755819091
 30
0.0
 11
4482.1955235887089657
 21
213.8218153236084049
 31
0.0
  0
LINE
  5
1216F
  8
0
 10
4485.8323193925725718
 20
213.9136150466842992
 30
0.0
 11
4485.9279008965941102
 21
213.9136150466842992
 31
0.0
  0
LINE
  5
12170
  8
0
 10
4477.582761511613171
 20
213.9136150466842992
 30
0.0
 11
4477.4871452465804396
 21
213.9136150466842992
 31
0.0
  0
ARC
  5
12171
  8
0
 10
4485.9279008965941102
 20
213.9732150466842029
 30
0.0
 40
0.0596
 50
270.0
 51
359.4944270299832283
  0
ARC
  5
12172
  8
0
 10
4477.4871452465804396
 20
213.9732150466842882
 30
0.0
 40
0.0596
 50
180.5061581517626053
 51
270.0
  0
ENDSEC
  0
EOF
