  0
SECTION
  2
HEADER
  9
$ACADVER
  1
AC1009
  9
$INSBASE
 10
5577.9596581378518749
 20
314.3635464080596762
 30
0.0
  9
$EXTMIN
 10
5570.9617556667508325
 20
314.3557241185534963
 30
-0.0000000000112498
  9
$EXTMAX
 10
5585.0227328669488998
 20
353.4257186512394924
 30
0.0000000000002956
  9
$LIMMIN
 10
0.0
 20
0.0
  9
$LIMMAX
 10
11.6929133858000007
 20
8.2677165353999982
  9
$ORTHOMODE
 70
     0
  9
$REGENMODE
 70
     1
  9
$FILLMODE
 70
     1
  9
$QTEXTMODE
 70
     0
  9
$MIRRTEXT
 70
     0
  9
$DRAGMODE
 70
     2
  9
$LTSCALE
 40
0.6431102362
  9
$OSMODE
 70
  4095
  9
$ATTMODE
 70
     1
  9
$TEXTSIZE
 40
0.2
  9
$TRACEWID
 40
0.05
  9
$TEXTSTYLE
  7
STANDARD
  9
$CLAYER
  8
0
  9
$CELTYPE
  6
BYLAYER
  9
$CECOLOR
 62
   256
  9
$DIMSCALE
 40
1.0
  9
$DIMASZ
 40
0.1875
  9
$DIMEXO
 40
0.0625
  9
$DIMDLI
 40
0.4443307087
  9
$DIMRND
 40
0.0
  9
$DIMDLE
 40
0.0
  9
$DIMEXE
 40
0.125
  9
$DIMTP
 40
0.01
  9
$DIMTM
 40
0.01
  9
$DIMTXT
 40
2.0
  9
$DIMCEN
 40
0.1052362205
  9
$DIMTSZ
 40
0.0
  9
$DIMTOL
 70
     1
  9
$DIMLIM
 70
     0
  9
$DIMTIH
 70
     1
  9
$DIMTOH
 70
     1
  9
$DIMSE1
 70
     0
  9
$DIMSE2
 70
     0
  9
$DIMTAD
 70
     0
  9
$DIMZIN
 70
     0
  9
$DIMBLK
  1

  9
$DIMASO
 70
     1
  9
$DIMSHO
 70
     1
  9
$DIMPOST
  1
\X
  9
$DIMAPOST
  1

  9
$DIMALT
 70
     1
  9
$DIMALTD
 70
     2
  9
$DIMALTF
 40
25.3999999999999986
  9
$DIMLFAC
 40
1.0
  9
$DIMTOFL
 70
     0
  9
$DIMTVP
 40
0.0
  9
$DIMTIX
 70
     0
  9
$DIMSOXD
 70
     0
  9
$DIMSAH
 70
     0
  9
$DIMBLK1
  1

  9
$DIMBLK2
  1

  9
$DIMSTYLE
  2
STANDARD
  9
$DIMCLRD
 70
     0
  9
$DIMCLRE
 70
     0
  9
$DIMCLRT
 70
     0
  9
$DIMTFAC
 40
1.0
  9
$DIMGAP
 40
0.09
  9
$LUNITS
 70
     2
  9
$LUPREC
 70
     4
  9
$SKETCHINC
 40
0.1
  9
$FILLETRAD
 40
0.0
  9
$AUNITS
 70
     0
  9
$AUPREC
 70
     0
  9
$MENU
  1
.
  9
$ELEVATION
 40
0.0
  9
$PELEVATION
 40
0.0
  9
$THICKNESS
 40
0.0
  9
$LIMCHECK
 70
     0
  9
$BLIPMODE
 70
     0
  9
$CHAMFERA
 40
0.0
  9
$CHAMFERB
 40
0.0
  9
$SKPOLY
 70
     0
  9
$TDCREATE
 40
2458060.468368056230247
  9
$TDUPDATE
 40
2460242.9900115737691522
  9
$TDINDWG
 40
0.595134375
  9
$TDUSRTIMER
 40
0.595134375
  9
$USRTIMER
 70
     1
  9
$ANGBASE
 50
0.0
  9
$ANGDIR
 70
     0
  9
$PDMODE
 70
     0
  9
$PDSIZE
 40
0.3125
  9
$PLINEWID
 40
0.0
  9
$COORDS
 70
     1
  9
$SPLFRAME
 70
     0
  9
$SPLINETYPE
 70
     6
  9
$SPLINESEGS
 70
     8
  9
$ATTDIA
 70
     1
  9
$ATTREQ
 70
     1
  9
$HANDLING
 70
     1
  9
$HANDSEED
  5
2F33F
  9
$SURFTAB1
 70
     6
  9
$SURFTAB2
 70
     6
  9
$SURFTYPE
 70
     6
  9
$SURFU
 70
     6
  9
$SURFV
 70
     6
  9
$UCSNAME
  2

  9
$UCSORG
 10
0.0
 20
0.0
 30
0.0
  9
$UCSXDIR
 10
1.0
 20
0.0
 30
0.0
  9
$UCSYDIR
 10
0.0
 20
1.0
 30
0.0
  9
$PUCSNAME
  2

  9
$PUCSORG
 10
0.0
 20
0.0
 30
0.0
  9
$PUCSXDIR
 10
1.0
 20
0.0
 30
0.0
  9
$PUCSYDIR
 10
0.0
 20
1.0
 30
0.0
  9
$USERI1
 70
     0
  9
$USERI2
 70
     0
  9
$USERI3
 70
     0
  9
$USERI4
 70
     0
  9
$USERI5
 70
     0
  9
$USERR1
 40
0.0
  9
$USERR2
 40
0.0
  9
$USERR3
 40
0.0
  9
$USERR4
 40
0.0
  9
$USERR5
 40
0.0
  9
$WORLDVIEW
 70
     1
  9
$SHADEDGE
 70
     3
  9
$SHADEDIF
 70
    70
  9
$TILEMODE
 70
     1
  9
$MAXACTVP
 70
    64
  9
$PLIMCHECK
 70
     0
  9
$PEXTMIN
 10
1.0000000000000000E+20
 20
1.0000000000000000E+20
 30
1.0000000000000000E+20
  9
$PEXTMAX
 10
-1.0000000000000000E+20
 20
-1.0000000000000000E+20
 30
-1.0000000000000000E+20
  9
$PLIMMIN
 10
0.0
 20
0.0
  9
$PLIMMAX
 10
12.0
 20
9.0
  9
$UNITMODE
 70
     0
  9
$VISRETAIN
 70
     1
  9
$PLINEGEN
 70
     0
  9
$PSLTSCALE
 70
     1
  0
ENDSEC
  0
SECTION
  2
TABLES
  0
TABLE
  2
VPORT
 70
     1
  0
VPORT
  2
*ACTIVE
 70
     0
 10
0.0
 20
0.0
 11
1.0
 21
1.0
 12
1666.6268878215380482
 22
201.3111162823574887
 13
0.0
 23
0.0
 14
1.0
 24
1.0
 15
0.0
 25
0.0
 16
0.0
 26
0.0
 36
60.4960186965801583
 17
3911.3653564453120453
 27
132.5796051025390057
 37
0.0
 40
39.4058397578953077
 41
2.7187948350071731
 42
50.0
 43
0.0
 44
0.0
 50
0.0
 51
0.0
 71
     0
 72
   100
 73
     1
 74
     1
 75
     0
 76
     0
 77
     0
 78
     0
  0
ENDTAB
  0
TABLE
  2
LTYPE
 70
     2
  0
LTYPE
  2
CONTINUOUS
 70
     0
  3
Solid line
 72
    65
 73
     0
 40
0.0
  0
LTYPE
  2
PHANTOM2
 70
     0
  3
___ _ _ ___ _ _ ___ _ _ ___ _ _
 72
    65
 73
     6
 40
1.25
 49
0.625
 49
-0.125
 49
0.125
 49
-0.125
 49
0.125
 49
-0.125
  0
ENDTAB
  0
TABLE
  2
LAYER
 70
     2
  0
LAYER
  2
0
 70
     0
 62
   255
  6
CONTINUOUS
  0
LAYER
  2
DEFPOINTS
 70
     0
 62
     7
  6
CONTINUOUS
  0
ENDTAB
  0
TABLE
  2
STYLE
 70
     1
  0
STYLE
  2
STANDARD
 70
     0
 40
0.0
 41
0.8
 50
0.0
 71
     0
 42
0.2
  3
txt
  4

  0
ENDTAB
  0
TABLE
  2
VIEW
 70
     0
  0
ENDTAB
  0
TABLE
  2
UCS
 70
     0
  0
ENDTAB
  0
TABLE
  2
APPID
 70
    11
  0
APPID
  2
ACAD
 70
     0
  0
APPID
  2
ACAD_MLEADERVER
 70
     0
  0
APPID
  2
ACAD_EXEMPT_FROM_CAD_STANDARDS
 70
     0
  0
APPID
  2
ACAD_NAV_VCDISPLAY
 70
     0
  0
APPID
  2
ACAECLAYERSTANDARD
 70
     0
  0
APPID
  2
ACCMTRANSPARENCY
 70
     0
  0
APPID
  2
ACAD_DSTYLE_DIMJAG
 70
     0
  0
APPID
  2
ACAD_DSTYLE_DIMTALN
 70
     0
  0
APPID
  2
ACDBATTR
 70
     0
  0
APPID
  2
ACADANNOTATIVE
 70
     0
  0
APPID
  2
DCO15
 70
     0
  0
ENDTAB
  0
TABLE
  2
DIMSTYLE
 70
     1
  0
DIMSTYLE
  2
STANDARD
 70
     0
  3

  4

  5

  6

  7

 40
1.0
 41
0.1875
 42
0.0625
 43
0.38
 44
0.125
 45
0.0
 46
0.0
 47
0.01
 48
0.01
140
0.15625
141
0.09
142
0.0
143
25.3999999999999986
144
1.0
145
0.0
146
1.0
147
0.09
 71
     1
 72
     0
 73
     1
 74
     1
 75
     0
 76
     0
 77
     0
 78
     4
170
     0
171
     2
172
     0
173
     0
174
     0
175
     0
176
     0
177
     0
178
     0
  0
ENDTAB
  0
ENDSEC
  0
SECTION
  2
BLOCKS
  0
BLOCK
  8
0
  2
$MODEL_SPACE
 70
     0
 10
0.0
 20
0.0
 30
0.0
  3
$MODEL_SPACE
  1

  0
ENDBLK
  5
21
  8
0
  0
BLOCK
 67
     1
  8
0
  2
$PAPER_SPACE
 70
     0
 10
0.0
 20
0.0
 30
0.0
  3
$PAPER_SPACE
  1

  0
ENDBLK
  5
1D
 67
     1
  8
0
  0
BLOCK
  8
0
  2
_FILLED
 70
     0
 10
0.0
 20
0.0
 30
0.0
  3
_FILLED
  1

  0
SOLID
  5
2853B
  8
0
  6
BYBLOCK
 62
     0
 10
0.0
 20
0.0
 30
0.0
 11
-1.0
 21
0.1666666667
 31
0.0
 12
-1.0
 22
-0.1666666667
 32
0.0
 13
-1.0
 23
-0.1666666667
 33
0.0
  0
ENDBLK
  5
2853C
  8
0
  6
BYBLOCK
 62
     0
  0
ENDSEC
  0
SECTION
  2
ENTITIES
  0
ATTDEF
  5
2842F
  8
DEFPOINTS
 10
5577.9597276938538926
 20
314.3614139462790718
 30
0.0
 40
0.001
  1
K-5777ID-ER
  3

  2
MODELNUMBER
 70
     0
1001
ACDBATTR
1070
     0
1070
     1
  0
ATTDEF
  5
28430
  8
DEFPOINTS
 10
5577.9596018841966725
 20
314.3597471058999986
 30
0.0
 40
0.001
  1
STRUKTURA
  3

  2
TRADENAME
 70
     0
1001
ACDBATTR
1070
     0
1070
     1
  0
ATTDEF
  5
28431
  8
DEFPOINTS
 10
5577.9597276938538926
 20
314.3580806129456846
 30
0.0
 40
0.001
  1
URINAL
  3

  2
PRODUCT
 70
     0
1001
ACDBATTR
1070
     0
1070
     1
  0
LINE
  5
2EEBB
  8
0
 10
5584.5022403880366255
 20
353.4004704665690042
 30
0.0
 11
5571.4170758876662148
 21
353.4004704665690042
 31
0.0
  0
LINE
  5
2EEBC
  8
0
 10
5571.318214490367609
 20
353.296233661780775
 30
0.0
 11
5572.7749288060003892
 21
325.7961036149080201
 31
0.0
  0
ARC
  5
2EEBD
  8
0
 10
5571.4170758876662148
 20
353.3014704665690147
 30
0.0
 40
0.099
 50
90.0
 51
183.0321910660412073
  0
LINE
  5
2EEBE
  8
0
 10
5572.8750266455790552
 20
325.6638281583133789
 30
0.0
 11
5576.6625594320039454
 21
324.3744578799559122
 31
0.0
  0
ARC
  5
2EEBF
  8
0
 10
5572.9227216019580737
 20
325.80393237358129
 30
0.0
 40
0.148
 50
183.0321910660412073
 51
251.2001498861230004
  0
ARC
  5
2EEC0
  8
0
 10
5578.0331486372424479
 20
330.4564334179768821
 30
0.0
 40
6.2344960674140468
 50
257.3003871038567922
 51
269.324597702407118
  0
ARC
  5
2EEC1
  8
0
 10
5685.458545771181889
 20
366.7668927645780741
 30
0.0
 40
114.4406721006110956
 50
186.7499338429697104
 51
189.2557892134329052
  0
ARC
  5
2EEC2
  8
0
 10
5622.8209789078673566
 20
356.5592202913729238
 30
0.0
 40
50.9768134102006485
 50
189.2557892134329052
 51
194.5547064608730921
  0
ARC
  5
2EEC3
  8
0
 10
5598.6472323209645765
 20
350.2828332244940839
 30
0.0
 40
26.00156448929852
 50
194.5547064608730921
 51
201.2303908921853122
  0
ARC
  5
2EEC4
  8
0
 10
5579.4713365714860629
 20
342.8332894979955086
 30
0.0
 40
5.4294795310868871
 50
201.2303908921853122
 51
219.0277586054619121
  0
ARC
  5
2EEC5
  8
0
 10
5579.0315295060026983
 20
342.4767878173831832
 30
0.0
 40
4.8633314028291013
 50
219.0277586054619121
 51
237.6479473980485011
  0
ARC
  5
2EEC6
  8
0
 10
5578.0257673441974475
 20
341.4828536267517052
 30
0.0
 40
3.499931633325593
 50
242.8571829188641971
 51
268.9176920638410024
  0
ARC
  5
2EEC7
  8
0
 10
5571.6494123005622896
 20
353.2105425253052999
 30
0.0
 40
0.1930275472849714
 50
33.1035359249020615
 51
79.7183195225659631
  0
ARC
  5
2EEC8
  8
0
 10
5694.8861095115089483
 20
368.1159560587472015
 30
0.0
 40
124.351811199158206
 50
186.8471825450511119
 51
188.9082828754092986
  0
ARC
  5
2EEC9
  8
0
 10
5628.9458549230303106
 20
357.7802212229419752
 30
0.0
 40
57.6064399005474712
 50
188.9082828754092986
 51
194.1823572815843022
  0
ARC
  5
2EECA
  8
0
 10
5595.8413256763151367
 20
349.4143330310504894
 30
0.0
 40
23.4611921801715297
 50
194.1823572815843022
 51
201.4191923860003897
  0
ARC
  5
2EECB
  8
0
 10
5579.6671357087197975
 20
343.0694865110583009
 30
0.0
 40
6.0870303739107321
 50
201.4191923860003897
 51
221.425756710635909
  0
ARC
  5
2EECC
  8
0
 10
5578.5730946528774439
 20
342.1040851507087268
 30
0.0
 40
4.6279465454638258
 50
221.425756710635909
 51
241.1996034328005862
  0
ARC
  5
2EECD
  8
0
 10
5578.1593086028869948
 20
342.4963528471109839
 30
0.0
 40
4.804116292934749
 50
247.7925133138199101
 51
267.6182041373871812
  0
ARC
  5
2EECE
  8
0
 10
5571.5705211675322062
 20
353.2524960713776068
 30
0.0
 40
0.1540728010841881
 50
106.1743117725810066
 51
165.70804671657271
  0
CIRCLE
  5
2EECF
  8
0
 10
5577.9596577534466633
 20
349.6004626993569104
 30
0.0
 40
0.7283464566000117
  0
ARC
  5
2EED0
  8
0
 10
5577.9596581378518749
 20
349.6004626993569104
 30
0.0
 40
0.6200791246049154
 50
104.953362062807301
 51
75.0466379371926706
  0
LINE
  5
2EED1
  8
0
 10
5577.7996574410572066
 20
350.3110177365476261
 30
0.0
 11
5577.7996574410572066
 21
350.1995435768653238
 31
0.0
  0
LINE
  5
2EED2
  8
0
 10
5578.1196588346456338
 20
350.3110175634292887
 30
0.0
 11
5578.1196588346456338
 21
350.1995435768653238
 31
0.0
  0
ARC
  5
2EED3
  8
0
 10
5577.88773451470297
 20
352.3126388912721723
 30
0.0
 40
13.5171101154421098
 50
260.4678348128651919
 51
270.3048683826909837
  0
LINE
  5
2EED4
  8
0
 10
5584.6011017853343219
 20
353.296233661780775
 30
0.0
 11
5583.1443874697042702
 21
325.7961036149080201
 31
0.0
  0
ARC
  5
2EED5
  8
0
 10
5584.5022403880366255
 20
353.3014704665690147
 30
0.0
 40
0.099
 50
356.9678089339586791
 51
90.0
  0
LINE
  5
2EED6
  8
0
 10
5583.0442896301228757
 20
325.6638281583133789
 30
0.0
 11
5579.256756843698895
 21
324.3744578799559122
 31
0.0
  0
ARC
  5
2EED7
  8
0
 10
5582.9965946737438571
 20
325.80393237358129
 30
0.0
 40
0.148
 50
288.799850113877028
 51
356.9678089339586791
  0
ARC
  5
2EED8
  8
0
 10
5577.886167638461302
 20
330.4564334179768821
 30
0.0
 40
6.2344960674140468
 50
270.675402297592882
 51
282.6996128961432078
  0
ARC
  5
2EED9
  8
0
 10
5470.4607705045209514
 20
366.7668927645780741
 30
0.0
 40
114.4406721006110956
 50
350.7442107865670096
 51
353.2500661570301759
  0
ARC
  5
2EEDA
  8
0
 10
5533.0983373678345743
 20
356.5592202913729238
 30
0.0
 40
50.9768134102006485
 50
345.4452935391269079
 51
350.7442107865670096
  0
ARC
  5
2EEDB
  8
0
 10
5557.2720839547373544
 20
350.2828332244940839
 30
0.0
 40
26.00156448929852
 50
338.7696091078148015
 51
345.4452935391269079
  0
ARC
  5
2EEDC
  8
0
 10
5576.447979704215868
 20
342.8332894979955086
 30
0.0
 40
5.4294795310868871
 50
320.9722413945381732
 51
338.7696091078148015
  0
ARC
  5
2EEDD
  8
0
 10
5576.887786769700142
 20
342.4767878173831832
 30
0.0
 40
4.8633314028291013
 50
302.3520526019515273
 51
320.9722413945381732
  0
ARC
  5
2EEDE
  8
0
 10
5577.8935489315063023
 20
341.4828536267517052
 30
0.0
 40
3.499931633325593
 50
271.0823079361589976
 51
297.1428170811357745
  0
ARC
  5
2EEDF
  8
0
 10
5584.2699039751405508
 20
353.2105425253052999
 30
0.0
 40
0.1930275472849714
 50
100.2816804774339943
 51
146.8964640750978958
  0
ARC
  5
2EEE0
  8
0
 10
5461.0332067641948015
 20
368.1159560587472015
 30
0.0
 40
124.351811199158206
 50
351.0917171245907866
 51
353.1528174549488881
  0
ARC
  5
2EEE1
  8
0
 10
5526.9734613526734393
 20
357.7802212229419752
 30
0.0
 40
57.6064399005474712
 50
345.8176427184155841
 51
351.0917171245907866
  0
ARC
  5
2EEE2
  8
0
 10
5560.0779905993877037
 20
349.4143330310504894
 30
0.0
 40
23.4611921801715297
 50
338.5808076139995819
 51
345.8176427184155841
  0
ARC
  5
2EEE3
  8
0
 10
5576.2521805669830428
 20
343.0694865110583009
 30
0.0
 40
6.0870303739107321
 50
318.5742432893641194
 51
338.5808076139995819
  0
ARC
  5
2EEE4
  8
0
 10
5577.3462216228272155
 20
342.1040851507087268
 30
0.0
 40
4.6279465454638258
 50
298.8003965671994138
 51
318.5742432893641194
  0
ARC
  5
2EEE5
  8
0
 10
5577.7600076728158456
 20
342.4963528471109839
 30
0.0
 40
4.804116292934749
 50
272.3817958626128188
 51
292.2074866861801183
  0
ARC
  5
2EEE6
  8
0
 10
5584.3487951081697247
 20
353.2524960713776068
 30
0.0
 40
0.1540728010841881
 50
14.2919532834272704
 51
73.8256882274190076
  0
ARC
  5
2EEE7
  8
0
 10
5578.0315817609998703
 20
352.3126388912721723
 30
0.0
 40
13.5171101154421098
 50
269.6951316173090163
 51
279.5321651871348081
  0
ENDSEC
  0
EOF
