  0
SECTION
  2
HEADER
  9
$ACADVER
  1
AC1009
  9
$INSBASE
 10
5617.3953139247196304
 20
318.1562657596637109
 30
0.0
  9
$EXTMIN
 10
5610.4147610923291722
 20
303.989505853809419
 30
-0.0000000000112498
  9
$EXTMAX
 10
5624.1462088098705863
 20
318.1662635836316895
 30
0.0000000000002956
  9
$LIMMIN
 10
0.0
 20
0.0
  9
$LIMMAX
 10
11.6929133858000007
 20
8.2677165353999982
  9
$ORTHOMODE
 70
     0
  9
$REGENMODE
 70
     1
  9
$FILLMODE
 70
     1
  9
$QTEXTMODE
 70
     0
  9
$MIRRTEXT
 70
     0
  9
$DRAGMODE
 70
     2
  9
$LTSCALE
 40
0.6431102362
  9
$OSMODE
 70
  4095
  9
$ATTMODE
 70
     1
  9
$TEXTSIZE
 40
0.2
  9
$TRACEWID
 40
0.05
  9
$TEXTSTYLE
  7
STANDARD
  9
$CLAYER
  8
0
  9
$CELTYPE
  6
BYLAYER
  9
$CECOLOR
 62
   256
  9
$DIMSCALE
 40
1.0
  9
$DIMASZ
 40
0.1875
  9
$DIMEXO
 40
0.0625
  9
$DIMDLI
 40
0.4443307087
  9
$DIMRND
 40
0.0
  9
$DIMDLE
 40
0.0
  9
$DIMEXE
 40
0.125
  9
$DIMTP
 40
0.01
  9
$DIMTM
 40
0.01
  9
$DIMTXT
 40
2.0
  9
$DIMCEN
 40
0.1052362205
  9
$DIMTSZ
 40
0.0
  9
$DIMTOL
 70
     1
  9
$DIMLIM
 70
     0
  9
$DIMTIH
 70
     1
  9
$DIMTOH
 70
     1
  9
$DIMSE1
 70
     0
  9
$DIMSE2
 70
     0
  9
$DIMTAD
 70
     0
  9
$DIMZIN
 70
     0
  9
$DIMBLK
  1

  9
$DIMASO
 70
     1
  9
$DIMSHO
 70
     1
  9
$DIMPOST
  1
\X
  9
$DIMAPOST
  1

  9
$DIMALT
 70
     1
  9
$DIMALTD
 70
     2
  9
$DIMALTF
 40
25.3999999999999986
  9
$DIMLFAC
 40
1.0
  9
$DIMTOFL
 70
     0
  9
$DIMTVP
 40
0.0
  9
$DIMTIX
 70
     0
  9
$DIMSOXD
 70
     0
  9
$DIMSAH
 70
     0
  9
$DIMBLK1
  1

  9
$DIMBLK2
  1

  9
$DIMSTYLE
  2
STANDARD
  9
$DIMCLRD
 70
     0
  9
$DIMCLRE
 70
     0
  9
$DIMCLRT
 70
     0
  9
$DIMTFAC
 40
1.0
  9
$DIMGAP
 40
0.09
  9
$LUNITS
 70
     2
  9
$LUPREC
 70
     4
  9
$SKETCHINC
 40
0.1
  9
$FILLETRAD
 40
0.0
  9
$AUNITS
 70
     0
  9
$AUPREC
 70
     0
  9
$MENU
  1
.
  9
$ELEVATION
 40
0.0
  9
$PELEVATION
 40
0.0
  9
$THICKNESS
 40
0.0
  9
$LIMCHECK
 70
     0
  9
$BLIPMODE
 70
     0
  9
$CHAMFERA
 40
0.0
  9
$CHAMFERB
 40
0.0
  9
$SKPOLY
 70
     0
  9
$TDCREATE
 40
2458060.468368056230247
  9
$TDUPDATE
 40
2460242.9901504628360271
  9
$TDINDWG
 40
0.5995440972
  9
$TDUSRTIMER
 40
0.5995440972
  9
$USRTIMER
 70
     1
  9
$ANGBASE
 50
0.0
  9
$ANGDIR
 70
     0
  9
$PDMODE
 70
     0
  9
$PDSIZE
 40
0.3125
  9
$PLINEWID
 40
0.0
  9
$COORDS
 70
     1
  9
$SPLFRAME
 70
     0
  9
$SPLINETYPE
 70
     6
  9
$SPLINESEGS
 70
     8
  9
$ATTDIA
 70
     1
  9
$ATTREQ
 70
     1
  9
$HANDLING
 70
     1
  9
$HANDSEED
  5
287FE
  9
$SURFTAB1
 70
     6
  9
$SURFTAB2
 70
     6
  9
$SURFTYPE
 70
     6
  9
$SURFU
 70
     6
  9
$SURFV
 70
     6
  9
$UCSNAME
  2

  9
$UCSORG
 10
0.0
 20
0.0
 30
0.0
  9
$UCSXDIR
 10
1.0
 20
0.0
 30
0.0
  9
$UCSYDIR
 10
0.0
 20
1.0
 30
0.0
  9
$PUCSNAME
  2

  9
$PUCSORG
 10
0.0
 20
0.0
 30
0.0
  9
$PUCSXDIR
 10
1.0
 20
0.0
 30
0.0
  9
$PUCSYDIR
 10
0.0
 20
1.0
 30
0.0
  9
$USERI1
 70
     0
  9
$USERI2
 70
     0
  9
$USERI3
 70
     0
  9
$USERI4
 70
     0
  9
$USERI5
 70
     0
  9
$USERR1
 40
0.0
  9
$USERR2
 40
0.0
  9
$USERR3
 40
0.0
  9
$USERR4
 40
0.0
  9
$USERR5
 40
0.0
  9
$WORLDVIEW
 70
     1
  9
$SHADEDGE
 70
     3
  9
$SHADEDIF
 70
    70
  9
$TILEMODE
 70
     1
  9
$MAXACTVP
 70
    64
  9
$PLIMCHECK
 70
     0
  9
$PEXTMIN
 10
1.0000000000000000E+20
 20
1.0000000000000000E+20
 30
1.0000000000000000E+20
  9
$PEXTMAX
 10
-1.0000000000000000E+20
 20
-1.0000000000000000E+20
 30
-1.0000000000000000E+20
  9
$PLIMMIN
 10
0.0
 20
0.0
  9
$PLIMMAX
 10
12.0
 20
9.0
  9
$UNITMODE
 70
     0
  9
$VISRETAIN
 70
     1
  9
$PLINEGEN
 70
     0
  9
$PSLTSCALE
 70
     1
  0
ENDSEC
  0
SECTION
  2
TABLES
  0
TABLE
  2
VPORT
 70
     1
  0
VPORT
  2
*ACTIVE
 70
     0
 10
0.0
 20
0.0
 11
1.0
 21
1.0
 12
1705.9151285057869245
 22
178.4982796161814917
 13
0.0
 23
0.0
 14
1.0
 24
1.0
 15
0.0
 25
0.0
 16
0.0
 26
0.0
 36
60.4960186965801583
 17
3911.3653564453120453
 27
132.5796051025390057
 37
0.0
 40
14.2986209767834698
 41
2.7187948350071731
 42
50.0
 43
0.0
 44
0.0
 50
0.0
 51
0.0
 71
     0
 72
   100
 73
     1
 74
     1
 75
     0
 76
     0
 77
     0
 78
     0
  0
ENDTAB
  0
TABLE
  2
LTYPE
 70
     2
  0
LTYPE
  2
CONTINUOUS
 70
     0
  3
Solid line
 72
    65
 73
     0
 40
0.0
  0
LTYPE
  2
PHANTOM2
 70
     0
  3
___ _ _ ___ _ _ ___ _ _ ___ _ _
 72
    65
 73
     6
 40
1.25
 49
0.625
 49
-0.125
 49
0.125
 49
-0.125
 49
0.125
 49
-0.125
  0
ENDTAB
  0
TABLE
  2
LAYER
 70
     2
  0
LAYER
  2
0
 70
     0
 62
   255
  6
CONTINUOUS
  0
LAYER
  2
DEFPOINTS
 70
     0
 62
     7
  6
CONTINUOUS
  0
ENDTAB
  0
TABLE
  2
STYLE
 70
     1
  0
STYLE
  2
STANDARD
 70
     0
 40
0.0
 41
0.8
 50
0.0
 71
     0
 42
0.2
  3
txt
  4

  0
ENDTAB
  0
TABLE
  2
VIEW
 70
     0
  0
ENDTAB
  0
TABLE
  2
UCS
 70
     0
  0
ENDTAB
  0
TABLE
  2
APPID
 70
    11
  0
APPID
  2
ACAD
 70
     0
  0
APPID
  2
ACAD_MLEADERVER
 70
     0
  0
APPID
  2
ACAD_EXEMPT_FROM_CAD_STANDARDS
 70
     0
  0
APPID
  2
ACAD_NAV_VCDISPLAY
 70
     0
  0
APPID
  2
ACAECLAYERSTANDARD
 70
     0
  0
APPID
  2
ACCMTRANSPARENCY
 70
     0
  0
APPID
  2
ACAD_DSTYLE_DIMJAG
 70
     0
  0
APPID
  2
ACAD_DSTYLE_DIMTALN
 70
     0
  0
APPID
  2
ACDBATTR
 70
     0
  0
APPID
  2
ACADANNOTATIVE
 70
     0
  0
APPID
  2
DCO15
 70
     0
  0
ENDTAB
  0
TABLE
  2
DIMSTYLE
 70
     1
  0
DIMSTYLE
  2
STANDARD
 70
     0
  3

  4

  5

  6

  7

 40
1.0
 41
0.1875
 42
0.0625
 43
0.38
 44
0.125
 45
0.0
 46
0.0
 47
0.01
 48
0.01
140
0.15625
141
0.09
142
0.0
143
25.3999999999999986
144
1.0
145
0.0
146
1.0
147
0.09
 71
     1
 72
     0
 73
     1
 74
     1
 75
     0
 76
     0
 77
     0
 78
     4
170
     0
171
     2
172
     0
173
     0
174
     0
175
     0
176
     0
177
     0
178
     0
  0
ENDTAB
  0
ENDSEC
  0
SECTION
  2
BLOCKS
  0
BLOCK
  8
0
  2
$MODEL_SPACE
 70
     0
 10
0.0
 20
0.0
 30
0.0
  3
$MODEL_SPACE
  1

  0
ENDBLK
  5
21
  8
0
  0
BLOCK
 67
     1
  8
0
  2
$PAPER_SPACE
 70
     0
 10
0.0
 20
0.0
 30
0.0
  3
$PAPER_SPACE
  1

  0
ENDBLK
  5
1D
 67
     1
  8
0
  0
BLOCK
  8
0
  2
_FILLED
 70
     0
 10
0.0
 20
0.0
 30
0.0
  3
_FILLED
  1

  0
SOLID
  5
257AF
  8
0
  6
BYBLOCK
 62
     0
 10
0.0
 20
0.0
 30
0.0
 11
-1.0
 21
0.1666666667
 31
0.0
 12
-1.0
 22
-0.1666666667
 32
0.0
 13
-1.0
 23
-0.1666666667
 33
0.0
  0
ENDBLK
  5
257B0
  8
0
  6
BYBLOCK
 62
     0
  0
ENDSEC
  0
SECTION
  2
ENTITIES
  0
ATTDEF
  5
256E4
  8
DEFPOINTS
 10
5617.3852614048873875
 20
318.1607224324978915
 30
0.0
 40
0.001
  1
K-5777ID-ER
  3

  2
MODELNUMBER
 70
     0
1001
ACDBATTR
1070
     0
1070
     1
  0
ATTDEF
  5
256E5
  8
DEFPOINTS
 10
5617.3851355952292579
 20
318.1590555921188184
 30
0.0
 40
0.001
  1
STRUKTURA
  3

  2
TRADENAME
 70
     0
1001
ACDBATTR
1070
     0
1070
     1
  0
ATTDEF
  5
256E6
  8
DEFPOINTS
 10
5617.3852614048873875
 20
318.1573890991646181
 30
0.0
 40
0.001
  1
URINAL
  3

  2
PRODUCT
 70
     0
1001
ACDBATTR
1070
     0
1070
     1
  0
ARC
  5
282A6
  8
0
 10
6553.7888887604112824
 20
58.1040977382701769
 30
0.0
 40
976.3514696817908316
 50
164.6818690204287066
 51
164.9872071858638947
  0
ARC
  5
282A7
  8
0
 10
5611.0037316745347198
 20
310.9483714503243164
 30
0.0
 40
0.25
 50
165.0145198663194037
 51
193.4532229613494962
  0
ARC
  5
282A8
  8
0
 10
5622.5875612266054304
 20
313.1669205406150809
 30
0.0
 40
10.8500684871090503
 50
162.601620250652303
 51
164.6727604354248911
  0
ARC
  5
282A9
  8
0
 10
5346.665441792350066
 20
422.8760538906038278
 30
0.0
 40
286.1142439438169731
 50
338.1544444582297047
 51
338.5113460377993988
  0
LINE
  5
282AA
  8
0
 10
5613.0221894241321934
 20
318.1562657596637109
 30
0.0
 11
5621.768438425307977
 21
318.1562657596637109
 31
0.0
  0
ARC
  5
282AB
  8
0
 10
5613.0221894241321934
 20
318.0162657596634972
 30
0.0
 40
0.14
 50
90.0000000000521254
 51
158.5113460378236141
  0
LINE
  5
282AC
  8
0
 10
5610.7605916284774139
 20
310.8902085927314261
 30
0.0
 11
5610.8718446890161431
 21
310.4291408331519051
 31
0.0
  0
ARC
  5
282AD
  8
0
 10
5611.039408091291989
 20
310.4970677198854787
 30
0.0
 40
0.1808080632154706
 50
202.0666595927629885
 51
235.4530543307141102
  0
ARC
  5
282AE
  8
0
 10
5606.2871418996946886
 20
304.3223737022884166
 30
0.0
 40
7.6111704637594899
 50
26.741653659401031
 51
52.3447339103087472
  0
ARC
  5
282AF
  8
0
 10
5623.582844036147435
 20
313.8344254227789065
 30
0.0
 40
12.1356977634351502
 50
210.1059110098863982
 51
226.2642591306579902
  0
ARC
  5
282B0
  8
0
 10
5618.2429673213364367
 20
308.0647302098985847
 30
0.0
 40
4.2772428189856173
 50
224.5154892115565985
 51
240.5799088941354
  0
ARC
  5
282B1
  8
0
 10
5617.4761282249319265
 20
306.8754298577172221
 30
0.0
 40
2.865858371129129
 50
242.2545916877973013
 51
268.3841029092552048
  0
ARC
  5
282B2
  8
0
 10
5667.9510058700470836
 20
271.9487802859322869
 30
0.0
 40
69.257274581740262
 50
141.826552591458011
 51
145.663984028573509
  0
ARC
  5
282B3
  8
0
 10
5631.1034920058837088
 20
301.0143964553985825
 30
0.0
 40
22.326141661461179
 50
135.7565168776442874
 51
142.0224964932943976
  0
ARC
  5
282B4
  8
0
 10
5621.9296259684706456
 20
309.9491476599362727
 30
0.0
 40
9.5202993557245552
 50
127.2610445607424055
 51
135.7565168776442874
  0
ARC
  5
282B5
  8
0
 10
5618.4118166742200629
 20
314.5734513679475981
 30
0.0
 40
3.7100354189794769
 50
117.1790954502215953
 51
127.2610445607424055
  0
ARC
  5
282B6
  8
0
 10
5618.044079276712182
 20
315.2896335636766025
 30
0.0
 40
2.90495919215053
 50
108.0065697518306962
 51
117.1790954502215953
  0
ARC
  5
282B7
  8
0
 10
5617.6023816620627258
 20
316.6291164641763771
 30
0.0
 40
1.49455450768416
 50
97.9638416933418483
 51
107.7767545033176049
  0
ARC
  5
282B8
  8
0
 10
5617.4935081026160333
 20
303.3665885689679271
 30
0.0
 40
10.0037908348916993
 50
90.5624070322235326
 51
101.7248035675737015
  0
ARC
  5
282B9
  8
0
 10
5617.1807459590136204
 20
305.2074677182308164
 30
0.0
 40
8.138047847212551
 50
102.202512105968097
 51
119.0901635046055986
  0
ARC
  5
282BA
  8
0
 10
5616.1295266620136317
 20
306.9091944544825878
 30
0.0
 40
6.140574966718205
 50
118.238619826072096
 51
137.066433247409492
  0
ARC
  5
282BB
  8
0
 10
5613.6637600841304447
 20
309.1461413597708088
 30
0.0
 40
2.8118931884305391
 50
136.2148895689192045
 51
149.2674050110638007
  0
ARC
  5
282BC
  8
0
 10
5609.9922962731261578
 20
311.5365001107850276
 30
0.0
 40
1.5756412750600219
 50
315.2581127383729154
 51
322.7652943722335976
  0
ARC
  5
282BD
  8
0
 10
5610.8692673375326194
 20
310.648741071765528
 30
0.0
 40
0.3281033141467622
 50
293.3049559541714189
 51
317.5724878503859259
  0
ARC
  5
282BE
  8
0
 10
5610.9688920128728569
 20
310.4253345878615278
 30
0.0
 40
0.0835680145618969
 50
247.4727630989924876
 51
291.1712732938756858
  0
ARC
  5
282BF
  8
0
 10
5619.410674624060448
 20
309.611614647026272
 30
0.0
 40
6.1796405948109987
 50
149.6964876442548871
 51
182.3791332715321118
  0
ARC
  5
282C0
  8
0
 10
5621.7179610545099422
 20
309.7074768393064801
 30
0.0
 40
8.4889175881676984
 50
182.3791332715321118
 51
192.4141119775420066
  0
ARC
  5
282C1
  8
0
 10
5630.4030398674212847
 20
319.2663304545556002
 30
0.0
 40
20.4391392275654589
 50
213.8457641343289879
 51
220.8539210002595894
  0
ARC
  5
282C2
  8
0
 10
5619.6536043067972059
 20
309.9008021294189916
 30
0.0
 40
6.1824064605863791
 50
220.3688627984458037
 51
236.7866254759748017
  0
ARC
  5
282C3
  8
0
 10
5617.4783128005528852
 20
306.8845167628247168
 30
0.0
 40
2.4730323536937542
 50
240.6756682240418002
 51
268.0767018747824864
  0
ARC
  5
282C4
  8
0
 10
5606.1174616278949543
 20
304.2102930807745906
 30
0.0
 40
8.1806189693913982
 50
26.6730636631509697
 51
51.1703750343384485
  0
ARC
  5
282C5
  8
0
 10
4681.001739089027069
 20
58.1040977382701769
 30
0.0
 40
976.3514696817908316
 50
15.0127928141360805
 51
15.3181309795712295
  0
ARC
  5
282C6
  8
0
 10
5623.7868961749036316
 20
310.9483714503243164
 30
0.0
 40
0.25
 50
346.5467770386504753
 51
14.98548013368063
  0
ARC
  5
282C7
  8
0
 10
5612.203066622832921
 20
313.1669205406150809
 30
0.0
 40
10.8500684871090503
 50
15.3272395645750592
 51
17.3983797493477006
  0
ARC
  5
282C8
  8
0
 10
5888.1251860570901044
 20
422.8760538906038278
 30
0.0
 40
286.1142439438169731
 50
201.4886539622006012
 51
201.845555541770409
  0
ARC
  5
282C9
  8
0
 10
5621.768438425307977
 20
318.0162657596634972
 30
0.0
 40
0.14
 50
21.4886539621763788
 51
89.9999999999478888
  0
LINE
  5
282CA
  8
0
 10
5624.0300362209609375
 20
310.8902085927314261
 30
0.0
 11
5623.9187831604231178
 21
310.4291408331519051
 31
0.0
  0
ARC
  5
282CB
  8
0
 10
5623.7512197581481814
 20
310.4970677198854787
 30
0.0
 40
0.1808080632154706
 50
304.5469456692858898
 51
337.9333404072369831
  0
ARC
  5
282CC
  8
0
 10
5628.5034859497436628
 20
304.3223737022884166
 30
0.0
 40
7.6111704637594899
 50
127.6552660896911959
 51
153.258346340598905
  0
ARC
  5
282CD
  8
0
 10
5611.2077838132909164
 20
313.8344254227789065
 30
0.0
 40
12.1356977634351502
 50
313.7357408693420098
 51
329.8940889901135733
  0
ARC
  5
282CE
  8
0
 10
5616.5476605281028242
 20
308.0647302098985847
 30
0.0
 40
4.2772428189856173
 50
299.4200911058646284
 51
315.4845107884434015
  0
ARC
  5
282CF
  8
0
 10
5617.3144996245064249
 20
306.8754298577172221
 30
0.0
 40
2.865858371129129
 50
271.6158970907449088
 51
297.7454083122028123
  0
ARC
  5
282D0
  8
0
 10
5566.8396219793921773
 20
271.9487802859322869
 30
0.0
 40
69.257274581740262
 50
34.3360159714264768
 51
38.1734474085420175
  0
ARC
  5
282D1
  8
0
 10
5603.6871358435537331
 20
301.0143964553985825
 30
0.0
 40
22.326141661461179
 50
37.9775035067055882
 51
44.2434831223557126
  0
ARC
  5
282D2
  8
0
 10
5612.8610018809677058
 20
309.9491476599362727
 30
0.0
 40
9.5202993557245552
 50
44.2434831223557126
 51
52.7389554392576301
  0
ARC
  5
282D3
  8
0
 10
5616.3788111752182886
 20
314.5734513679475981
 30
0.0
 40
3.7100354189794769
 50
52.7389554392576301
 51
62.8209045497784331
  0
ARC
  5
282D4
  8
0
 10
5616.7465485727261694
 20
315.2896335636766025
 30
0.0
 40
2.90495919215053
 50
62.8209045497784331
 51
71.9934302481692754
  0
ARC
  5
282D5
  8
0
 10
5617.1882461873747161
 20
316.6291164641763771
 30
0.0
 40
1.49455450768416
 50
72.2232454966823525
 51
82.0361583066581659
  0
ARC
  5
282D6
  8
0
 10
5617.2971197468223181
 20
303.3665885689679271
 30
0.0
 40
10.0037908348916993
 50
78.2751964324262701
 51
89.4375929677764674
  0
ARC
  5
282D7
  8
0
 10
5617.609881890422912
 20
305.2074677182308164
 30
0.0
 40
8.138047847212551
 50
60.9098364953944227
 51
77.7974878940318746
  0
ARC
  5
282D8
  8
0
 10
5618.6611011874247197
 20
306.9091944544825878
 30
0.0
 40
6.140574966718205
 50
42.9335667525905222
 51
61.7613801739278472
  0
ARC
  5
282D9
  8
0
 10
5621.1268677653079067
 20
309.1461413597708088
 30
0.0
 40
2.8118931884305391
 50
30.7325949889361816
 51
43.785110431080831
  0
ARC
  5
282DA
  8
0
 10
5624.7983315763149221
 20
311.5365001107850276
 30
0.0
 40
1.5756412750600219
 50
217.2347056277664024
 51
224.7418872616269994
  0
ARC
  5
282DB
  8
0
 10
5623.9213605119066415
 20
310.648741071765528
 30
0.0
 40
0.3281033141467622
 50
222.4275121496141026
 51
246.6950440458286948
  0
ARC
  5
282DC
  8
0
 10
5623.821735836566404
 20
310.4253345878615278
 30
0.0
 40
0.0835680145618969
 50
248.8287267061242005
 51
292.5272369009593945
  0
ARC
  5
282DD
  8
0
 10
5615.3799532253788129
 20
309.611614647026272
 30
0.0
 40
6.1796405948109987
 50
357.6208667284677745
 51
30.3035123557450916
  0
ARC
  5
282DE
  8
0
 10
5613.0726667949302282
 20
309.7074768393064801
 30
0.0
 40
8.4889175881676984
 50
347.5858880224548102
 51
357.6208667284677745
  0
ARC
  5
282DF
  8
0
 10
5604.3875879820170667
 20
319.2663304545556002
 30
0.0
 40
20.4391392275654589
 50
319.1460789997403822
 51
326.1542358656710121
  0
ARC
  5
282E0
  8
0
 10
5615.137023542642055
 20
309.9008021294189916
 30
0.0
 40
6.1824064605863791
 50
303.2133745240251983
 51
319.6311372015542247
  0
ARC
  5
282E1
  8
0
 10
5617.3123150488845567
 20
306.8845167628247168
 30
0.0
 40
2.4730323536937542
 50
271.9232981252175136
 51
299.3243317759582283
  0
ARC
  5
282E2
  8
0
 10
5628.6731662215452161
 20
304.2102930807745906
 30
0.0
 40
8.1806189693913982
 50
128.8296249656615089
 51
153.3269363368490019
  0
CIRCLE
  5
282E3
  8
0
 10
5617.3953135403144188
 20
311.6248155043637098
 30
0.0
 40
1.0853007655737521
  0
ENDSEC
  0
EOF
