  0
SECTION
  2
HEADER
  9
$ACADVER
  1
AC1009
  9
$INSBASE
 10
7939.9112645884142694
 20
29.4164634745051785
 30
0.0
  9
$EXTMIN
 10
7923.3561196695445688
 20
18.4157237975918804
 30
-0.0000000000112498
  9
$EXTMAX
 10
7956.5648179966701719
 20
40.4196007522491811
 30
0.0000000000002956
  9
$LIMMIN
 10
0.0
 20
0.0
  9
$LIMMAX
 10
11.6929133858000007
 20
8.2677165353999982
  9
$ORTHOMODE
 70
     0
  9
$REGENMODE
 70
     1
  9
$FILLMODE
 70
     1
  9
$QTEXTMODE
 70
     0
  9
$MIRRTEXT
 70
     0
  9
$DRAGMODE
 70
     2
  9
$LTSCALE
 40
0.6431102362
  9
$OSMODE
 70
  4095
  9
$ATTMODE
 70
     1
  9
$TEXTSIZE
 40
0.2
  9
$TRACEWID
 40
0.05
  9
$TEXTSTYLE
  7
STANDARD
  9
$CLAYER
  8
0
  9
$CELTYPE
  6
BYLAYER
  9
$CECOLOR
 62
   256
  9
$DIMSCALE
 40
1.0
  9
$DIMASZ
 40
0.1875
  9
$DIMEXO
 40
0.0625
  9
$DIMDLI
 40
0.4443307087
  9
$DIMRND
 40
0.0
  9
$DIMDLE
 40
0.0
  9
$DIMEXE
 40
0.125
  9
$DIMTP
 40
0.01
  9
$DIMTM
 40
0.01
  9
$DIMTXT
 40
2.0
  9
$DIMCEN
 40
0.1052362205
  9
$DIMTSZ
 40
0.0
  9
$DIMTOL
 70
     1
  9
$DIMLIM
 70
     0
  9
$DIMTIH
 70
     1
  9
$DIMTOH
 70
     1
  9
$DIMSE1
 70
     0
  9
$DIMSE2
 70
     0
  9
$DIMTAD
 70
     0
  9
$DIMZIN
 70
     0
  9
$DIMBLK
  1

  9
$DIMASO
 70
     1
  9
$DIMSHO
 70
     1
  9
$DIMPOST
  1
\X
  9
$DIMAPOST
  1

  9
$DIMALT
 70
     1
  9
$DIMALTD
 70
     2
  9
$DIMALTF
 40
25.3999999999999986
  9
$DIMLFAC
 40
1.0
  9
$DIMTOFL
 70
     0
  9
$DIMTVP
 40
0.0
  9
$DIMTIX
 70
     0
  9
$DIMSOXD
 70
     0
  9
$DIMSAH
 70
     0
  9
$DIMBLK1
  1

  9
$DIMBLK2
  1

  9
$DIMSTYLE
  2
STANDARD
  9
$DIMCLRD
 70
     0
  9
$DIMCLRE
 70
     0
  9
$DIMCLRT
 70
     0
  9
$DIMTFAC
 40
1.0
  9
$DIMGAP
 40
0.09
  9
$LUNITS
 70
     2
  9
$LUPREC
 70
     4
  9
$SKETCHINC
 40
0.1
  9
$FILLETRAD
 40
0.0
  9
$AUNITS
 70
     0
  9
$AUPREC
 70
     0
  9
$MENU
  1
.
  9
$ELEVATION
 40
0.0
  9
$PELEVATION
 40
0.0
  9
$THICKNESS
 40
0.0
  9
$LIMCHECK
 70
     0
  9
$BLIPMODE
 70
     0
  9
$CHAMFERA
 40
0.0
  9
$CHAMFERB
 40
0.0
  9
$SKPOLY
 70
     0
  9
$TDCREATE
 40
2458060.468368056230247
  9
$TDUPDATE
 40
2461001.5953819449059665
  9
$TDINDWG
 40
0.6920325231
  9
$TDUSRTIMER
 40
0.6920325231
  9
$USRTIMER
 70
     1
  9
$ANGBASE
 50
0.0
  9
$ANGDIR
 70
     0
  9
$PDMODE
 70
     0
  9
$PDSIZE
 40
0.3125
  9
$PLINEWID
 40
0.0
  9
$COORDS
 70
     1
  9
$SPLFRAME
 70
     0
  9
$SPLINETYPE
 70
     6
  9
$SPLINESEGS
 70
     8
  9
$ATTDIA
 70
     1
  9
$ATTREQ
 70
     1
  9
$HANDLING
 70
     1
  9
$HANDSEED
  5
1F820
  9
$SURFTAB1
 70
     6
  9
$SURFTAB2
 70
     6
  9
$SURFTYPE
 70
     6
  9
$SURFU
 70
     6
  9
$SURFV
 70
     6
  9
$UCSNAME
  2

  9
$UCSORG
 10
0.0
 20
0.0
 30
0.0
  9
$UCSXDIR
 10
1.0
 20
0.0
 30
0.0
  9
$UCSYDIR
 10
0.0
 20
1.0
 30
0.0
  9
$PUCSNAME
  2

  9
$PUCSORG
 10
0.0
 20
0.0
 30
0.0
  9
$PUCSXDIR
 10
1.0
 20
0.0
 30
0.0
  9
$PUCSYDIR
 10
0.0
 20
1.0
 30
0.0
  9
$USERI1
 70
     0
  9
$USERI2
 70
     0
  9
$USERI3
 70
     0
  9
$USERI4
 70
     0
  9
$USERI5
 70
     0
  9
$USERR1
 40
0.0
  9
$USERR2
 40
0.0
  9
$USERR3
 40
0.0
  9
$USERR4
 40
0.0
  9
$USERR5
 40
0.0
  9
$WORLDVIEW
 70
     1
  9
$SHADEDGE
 70
     3
  9
$SHADEDIF
 70
    70
  9
$TILEMODE
 70
     1
  9
$MAXACTVP
 70
    64
  9
$PLIMCHECK
 70
     0
  9
$PEXTMIN
 10
1.0000000000000000E+20
 20
1.0000000000000000E+20
 30
1.0000000000000000E+20
  9
$PEXTMAX
 10
-1.0000000000000000E+20
 20
-1.0000000000000000E+20
 30
-1.0000000000000000E+20
  9
$PLIMMIN
 10
0.0
 20
0.0
  9
$PLIMMAX
 10
12.0
 20
9.0
  9
$UNITMODE
 70
     0
  9
$VISRETAIN
 70
     1
  9
$PLINEGEN
 70
     0
  9
$PSLTSCALE
 70
     1
  0
ENDSEC
  0
SECTION
  2
TABLES
  0
TABLE
  2
VPORT
 70
     1
  0
VPORT
  2
*ACTIVE
 70
     0
 10
0.0
 20
0.0
 11
1.0
 21
1.0
 12
4874.9366651221698703
 22
-164.484817017735196
 13
0.0
 23
0.0
 14
1.0
 24
1.0
 15
0.0
 25
0.0
 16
0.0
 26
0.0
 36
63.7428098394932476
 17
3065.0238037109379547
 27
193.9024792926558121
 37
0.0
 40
22.1554536041727488
 41
1.6954022988505739
 42
50.0
 43
0.0
 44
0.0
 50
0.0
 51
0.0
 71
     0
 72
   100
 73
     1
 74
     1
 75
     0
 76
     0
 77
     0
 78
     0
  0
ENDTAB
  0
TABLE
  2
LTYPE
 70
     1
  0
LTYPE
  2
CONTINUOUS
 70
     0
  3
Solid line
 72
    65
 73
     0
 40
0.0
  0
ENDTAB
  0
TABLE
  2
LAYER
 70
     2
  0
LAYER
  2
0
 70
     0
 62
   255
  6
CONTINUOUS
  0
LAYER
  2
DEFPOINTS
 70
     0
 62
     7
  6
CONTINUOUS
  0
ENDTAB
  0
TABLE
  2
STYLE
 70
     1
  0
STYLE
  2
STANDARD
 70
     0
 40
0.0
 41
0.8
 50
0.0
 71
     0
 42
0.2
  3
txt
  4

  0
ENDTAB
  0
TABLE
  2
VIEW
 70
     0
  0
ENDTAB
  0
TABLE
  2
UCS
 70
     0
  0
ENDTAB
  0
TABLE
  2
APPID
 70
    12
  0
APPID
  2
ACAD
 70
     0
  0
APPID
  2
ACADANNOTATIVE
 70
     0
  0
APPID
  2
ACAD_MLEADERVER
 70
     0
  0
APPID
  2
ACAD_EXEMPT_FROM_CAD_STANDARDS
 70
     0
  0
APPID
  2
ACAD_NAV_VCDISPLAY
 70
     0
  0
APPID
  2
ACAECLAYERSTANDARD
 70
     0
  0
APPID
  2
ACCMTRANSPARENCY
 70
     0
  0
APPID
  2
ACAD_DSTYLE_DIMJAG
 70
     0
  0
APPID
  2
ACAD_DSTYLE_DIMTALN
 70
     0
  0
APPID
  2
ACDBATTR
 70
     0
  0
APPID
  2
CONTENTBLOCKICON
 70
     0
  0
APPID
  2
ACDBDYNAMICBLOCKGUID
 70
     0
  0
ENDTAB
  0
TABLE
  2
DIMSTYLE
 70
     1
  0
DIMSTYLE
  2
STANDARD
 70
     0
  3

  4

  5

  6

  7

 40
1.0
 41
0.1875
 42
0.0625
 43
0.38
 44
0.125
 45
0.0
 46
0.0
 47
0.01
 48
0.01
140
0.15625
141
0.09
142
0.0
143
25.3999999999999986
144
1.0
145
0.0
146
1.0
147
0.09
 71
     1
 72
     0
 73
     1
 74
     1
 75
     0
 76
     0
 77
     0
 78
     4
170
     0
171
     2
172
     0
173
     0
174
     0
175
     0
176
     0
177
     0
178
     0
  0
ENDTAB
  0
ENDSEC
  0
SECTION
  2
BLOCKS
  0
BLOCK
  8
0
  2
$MODEL_SPACE
 70
     0
 10
0.0
 20
0.0
 30
0.0
  3
$MODEL_SPACE
  1

  0
ENDBLK
  5
19FA5
  8
0
  0
BLOCK
 67
     1
  8
0
  2
$PAPER_SPACE
 70
     0
 10
0.0
 20
0.0
 30
0.0
  3
$PAPER_SPACE
  1

  0
ENDBLK
  5
19FA1
 67
     1
  8
0
  0
ENDSEC
  0
SECTION
  2
ENTITIES
  0
ATTDEF
  5
C5C4
  8
DEFPOINTS
 10
7939.9066498950887762
 20
29.4150954613139106
 30
0.0
 40
0.001
  1
K-5818-4
  3

  2
MODELNUMBER
 70
     0
1001
ACDBATTR
1070
     0
1070
     1
  0
ATTDEF
  5
C5C5
  8
DEFPOINTS
 10
7939.9066498950887762
 20
29.4134287946472988
 30
0.0
 40
0.001
  1
KOHLER
  3

  2
BRANDNAME
 70
     0
1001
ACDBATTR
1070
     0
1070
     1
  0
ATTDEF
  5
C5C6
  8
DEFPOINTS
 10
7939.9066498950887762
 20
29.4117621279806407
 30
0.0
 40
0.001
  1
KITCHEN SINK
  3

  2
PRODUCT
 70
     0
1001
ACDBATTR
1070
     0
1070
     1
  0
LINE
  5
1F6B4
  8
DEFPOINTS
 10
7939.9066498950887762
 20
29.4150954613139106
 30
0.0
 11
7939.9066498950887762
 21
29.4150954613139106
 31
0.0
  0
LINE
  5
1F730
  8
0
 10
7924.9112645884142694
 20
40.4164649977675907
 30
0.0
 11
7954.9112645884151789
 21
40.4164649977675907
 31
0.0
  0
ARC
  5
1F731
  8
0
 10
7954.9112645884151789
 20
38.9173166102822918
 30
0.0
 40
1.4991483874853051
 50
359.9674523176598768
 51
90.0
  0
LINE
  5
1F732
  8
0
 10
7956.4104127340142441
 20
38.9164649977675907
 30
0.0
 11
7956.3996195143899968
 21
19.9164680442924116
 31
0.0
  0
ARC
  5
1F733
  8
0
 10
7954.8995708599322825
 20
19.9173201683540206
 30
0.0
 40
1.500048896488412
 50
270.4466574900777118
 51
359.9674523176594789
  0
LINE
  5
1F734
  8
0
 10
7954.9112645884151789
 20
18.4173168521675912
 30
0.0
 11
7924.9112645884142694
 21
18.4173168521675912
 31
0.0
  0
ARC
  5
1F735
  8
0
 10
7924.9112645884142694
 20
19.9173170941903486
 30
0.0
 40
1.5000002420227529
 50
180.0325476823400948
 51
270.0
  0
LINE
  5
1F736
  8
0
 10
7923.4112645884142694
 20
19.9164649977675907
 30
0.0
 11
7923.4004713687900221
 21
38.9164619512427734
 31
0.0
  0
ARC
  5
1F737
  8
0
 10
7924.8996673900855967
 20
38.9173135909539383
 30
0.0
 40
1.499196263189188
 50
89.55677774696548
 51
180.0325476823400948
  0
ARC
  5
1F738
  8
0
 10
7937.3403343479740215
 20
34.4381026094755214
 30
0.0
 40
2.1785304160413732
 50
359.9999568700981172
 51
65.2852904825329574
  0
ARC
  5
1F739
  8
0
 10
8648711.0047648753970861
 20
27.9336842780014614
 30
0.0
 40
8640771.4859025608748198
 50
179.9999568700984867
 51
180.000041281458806
  0
ARC
  5
1F73A
  8
0
 10
7937.3391667329642587
 20
21.7080295331519686
 30
0.0
 40
2.1796978257062949
 50
294.734503341776076
 51
0.0000412814587686
  0
ARC
  5
1F73B
  8
0
 10
7929.5939604444720317
 20
735.5420277048536946
 30
0.0
 40
715.8660719639136687
 50
269.7687637950957082
 51
270.6929150960141897
  0
ARC
  5
1F73C
  8
0
 10
7926.6716721872880953
 20
21.6765164425514882
 30
0.0
 40
1.995006652098813
 50
180.2883669900573125
 51
270.9529627283229161
  0
ARC
  5
1F73D
  8
0
 10
164552.6628535978961736
 20
27.3914712927288697
 30
0.0
 40
156627.9862674241012428
 50
179.9979057504818059
 51
180.002094249517711
  0
ARC
  5
1F73E
  8
0
 10
7929.9112759340614502
 20
33.1165695905774271
 30
0.0
 40
5.2345851325549848
 50
58.9175659519079105
 51
180.0011242652327041
  0
ARC
  5
1F73F
  8
0
 10
7939.9084152938439729
 20
49.7003617509644187
 30
0.0
 40
14.1294267916309195
 50
238.9172549510348915
 51
246.667237489488997
  0
ARC
  5
1F740
  8
0
 10
7935.5930494871327028
 20
39.7166146357523928
 30
0.0
 40
3.2529706866030388
 50
246.811430006968493
 51
270.0445020864307821
  0
ARC
  5
1F741
  8
0
 10
7936.2623292577027314
 20
-1.2913819594219469
 30
0.0
 40
37.7609138558468516
 50
86.9809965164789958
 51
91.0117373673796664
  0
CIRCLE
  5
1F742
  8
0
 10
7929.9112645884151789
 20
33.1164649977676007
 30
0.0
 40
2.8094999999999981
  0
CIRCLE
  5
1F743
  8
0
 10
7929.9112645884151789
 20
33.1164649977676007
 30
0.0
 40
1.937497732801668
  0
CIRCLE
  5
1F744
  8
0
 10
7929.9112645884151789
 20
33.1164649977676007
 30
0.0
 40
0.31
  0
CIRCLE
  5
1F745
  8
0
 10
7929.9112645884151789
 20
33.1164649977676007
 30
0.0
 40
0.2760925586
  0
ARC
  5
1F746
  8
0
 10
7942.4821948288554267
 20
34.4381026094755214
 30
0.0
 40
2.1785304160413732
 50
114.714709517467
 51
180.0000431299015133
  0
ARC
  5
1F747
  8
0
 10
-8632831.1822357010096312
 20
27.9336842780014614
 30
0.0
 40
8640771.4859025608748198
 50
359.9999587185412224
 51
0.0000431299014784
  0
ARC
  5
1F748
  8
0
 10
7942.4833624438651896
 20
21.7080295331519686
 30
0.0
 40
2.1796978257062949
 50
179.999958718541194
 51
245.2654966582238956
  0
ARC
  5
1F749
  8
0
 10
7950.2285687323546881
 20
735.5420277048536946
 30
0.0
 40
715.8660719639136687
 50
269.3070849039858103
 51
270.2312362049044054
  0
ARC
  5
1F74A
  8
0
 10
7953.1508569895386245
 20
21.6765164425514882
 30
0.0
 40
1.995006652098813
 50
269.0470372716770839
 51
359.7116330099427159
  0
ARC
  5
1F74B
  8
0
 10
-148672.8403244210057892
 20
27.3914712927288697
 30
0.0
 40
156627.9862674241012428
 50
359.9979057504821753
 51
0.002094249518171
  0
ARC
  5
1F74C
  8
0
 10
7949.9112532427670885
 20
33.1165695905774271
 30
0.0
 40
5.2345851325549848
 50
359.9988757347671822
 51
121.0824340480920966
  0
ARC
  5
1F74D
  8
0
 10
7939.9141138829827469
 20
49.7003617509644187
 30
0.0
 40
14.1294267916309195
 50
293.3327625105110883
 51
301.0827450489650801
  0
ARC
  5
1F74E
  8
0
 10
7944.2294796896949265
 20
39.7166146357523928
 30
0.0
 40
3.2529706866030388
 50
269.9554979135692179
 51
293.1885699930314786
  0
ARC
  5
1F74F
  8
0
 10
7943.5601999191248979
 20
-1.2913819594219469
 30
0.0
 40
37.7609138558468516
 50
88.9882626326203194
 51
93.0190034835210042
  0
CIRCLE
  5
1F750
  8
0
 10
7949.9112645884142694
 20
33.1164649977676007
 30
0.0
 40
2.8094999999999981
  0
CIRCLE
  5
1F751
  8
0
 10
7949.9112645884142694
 20
33.1164649977676007
 30
0.0
 40
1.937497732801668
  0
CIRCLE
  5
1F752
  8
0
 10
7949.9112645884142694
 20
33.1164649977676007
 30
0.0
 40
0.31
  0
CIRCLE
  5
1F753
  8
0
 10
7949.9112645884142694
 20
33.1164649977676007
 30
0.0
 40
0.2760925586
  0
CIRCLE
  5
1F754
  8
0
 10
7935.9112645884142694
 20
38.6164649977675865
 30
0.0
 40
0.7474999999999991
  0
CIRCLE
  5
1F755
  8
0
 10
7939.9112645884142694
 20
38.6164649977675865
 30
0.0
 40
0.7474999999999991
  0
CIRCLE
  5
1F756
  8
0
 10
7943.9112645884151789
 20
38.6164649977675865
 30
0.0
 40
0.7474999999999991
  0
CIRCLE
  5
1F757
  8
0
 10
7954.6112645884140875
 20
38.6164649977675865
 30
0.0
 40
0.7474999999999991
  0
LINE
  5
1F758
  8
0
 10
7939.9112645884142694
 20
38.6164649977675865
 30
0.0
 11
7939.9112645884142694
 21
38.6164649977675865
 31
0.0
  0
ENDSEC
  0
EOF
