  0
SECTION
  2
HEADER
  9
$ACADVER
  1
AC1009
  9
$INSBASE
 10
2950.9142050310078957
 20
200.3673304445090935
 30
0.0
  9
$EXTMIN
 10
2944.1512654505618229
 20
186.2099953081701074
 30
-0.0000000000000058
  9
$EXTMAX
 10
2957.6900795305227803
 20
200.3814369758102032
 30
0.0000000000000104
  9
$LIMMIN
 10
0.0
 20
0.0
  9
$LIMMAX
 10
11.6929133858000007
 20
8.2677165353999982
  9
$ORTHOMODE
 70
     1
  9
$REGENMODE
 70
     1
  9
$FILLMODE
 70
     1
  9
$QTEXTMODE
 70
     0
  9
$MIRRTEXT
 70
     0
  9
$DRAGMODE
 70
     2
  9
$LTSCALE
 40
0.6431102362
  9
$OSMODE
 70
  2039
  9
$ATTMODE
 70
     1
  9
$TEXTSIZE
 40
0.2
  9
$TRACEWID
 40
0.05
  9
$TEXTSTYLE
  7
STANDARD
  9
$CLAYER
  8
0
  9
$CELTYPE
  6
BYLAYER
  9
$CECOLOR
 62
   256
  9
$DIMSCALE
 40
1.0
  9
$DIMASZ
 40
0.1875
  9
$DIMEXO
 40
0.0625
  9
$DIMDLI
 40
0.4443307087
  9
$DIMRND
 40
0.0
  9
$DIMDLE
 40
0.0
  9
$DIMEXE
 40
0.125
  9
$DIMTP
 40
0.01
  9
$DIMTM
 40
0.01
  9
$DIMTXT
 40
2.0
  9
$DIMCEN
 40
0.1052362205
  9
$DIMTSZ
 40
0.0
  9
$DIMTOL
 70
     1
  9
$DIMLIM
 70
     0
  9
$DIMTIH
 70
     1
  9
$DIMTOH
 70
     1
  9
$DIMSE1
 70
     0
  9
$DIMSE2
 70
     0
  9
$DIMTAD
 70
     0
  9
$DIMZIN
 70
     0
  9
$DIMBLK
  1

  9
$DIMASO
 70
     1
  9
$DIMSHO
 70
     1
  9
$DIMPOST
  1
\X
  9
$DIMAPOST
  1

  9
$DIMALT
 70
     1
  9
$DIMALTD
 70
     2
  9
$DIMALTF
 40
25.3999999999999986
  9
$DIMLFAC
 40
1.0
  9
$DIMTOFL
 70
     0
  9
$DIMTVP
 40
0.0
  9
$DIMTIX
 70
     0
  9
$DIMSOXD
 70
     0
  9
$DIMSAH
 70
     0
  9
$DIMBLK1
  1

  9
$DIMBLK2
  1

  9
$DIMSTYLE
  2
STANDARD
  9
$DIMCLRD
 70
     0
  9
$DIMCLRE
 70
     0
  9
$DIMCLRT
 70
     0
  9
$DIMTFAC
 40
1.0
  9
$DIMGAP
 40
0.09
  9
$LUNITS
 70
     2
  9
$LUPREC
 70
     4
  9
$SKETCHINC
 40
0.1
  9
$FILLETRAD
 40
0.0
  9
$AUNITS
 70
     0
  9
$AUPREC
 70
     0
  9
$MENU
  1
.
  9
$ELEVATION
 40
0.0
  9
$PELEVATION
 40
0.0
  9
$THICKNESS
 40
0.0
  9
$LIMCHECK
 70
     0
  9
$BLIPMODE
 70
     0
  9
$CHAMFERA
 40
0.0
  9
$CHAMFERB
 40
0.0
  9
$SKPOLY
 70
     0
  9
$TDCREATE
 40
2458060.468368056230247
  9
$TDUPDATE
 40
2459297.829386574216187
  9
$TDINDWG
 40
0.6466968749999999
  9
$TDUSRTIMER
 40
0.6466968749999999
  9
$USRTIMER
 70
     1
  9
$ANGBASE
 50
0.0
  9
$ANGDIR
 70
     0
  9
$PDMODE
 70
     0
  9
$PDSIZE
 40
0.3125
  9
$PLINEWID
 40
0.0
  9
$COORDS
 70
     1
  9
$SPLFRAME
 70
     0
  9
$SPLINETYPE
 70
     6
  9
$SPLINESEGS
 70
     8
  9
$ATTDIA
 70
     1
  9
$ATTREQ
 70
     1
  9
$HANDLING
 70
     1
  9
$HANDSEED
  5
2EBB0
  9
$SURFTAB1
 70
     6
  9
$SURFTAB2
 70
     6
  9
$SURFTYPE
 70
     6
  9
$SURFU
 70
     6
  9
$SURFV
 70
     6
  9
$UCSNAME
  2

  9
$UCSORG
 10
0.0
 20
0.0
 30
0.0
  9
$UCSXDIR
 10
1.0
 20
0.0
 30
0.0
  9
$UCSYDIR
 10
0.0
 20
1.0
 30
0.0
  9
$PUCSNAME
  2

  9
$PUCSORG
 10
0.0
 20
0.0
 30
0.0
  9
$PUCSXDIR
 10
1.0
 20
0.0
 30
0.0
  9
$PUCSYDIR
 10
0.0
 20
1.0
 30
0.0
  9
$USERI1
 70
     0
  9
$USERI2
 70
     0
  9
$USERI3
 70
     0
  9
$USERI4
 70
     0
  9
$USERI5
 70
     0
  9
$USERR1
 40
0.0
  9
$USERR2
 40
0.0
  9
$USERR3
 40
0.0
  9
$USERR4
 40
0.0
  9
$USERR5
 40
0.0
  9
$WORLDVIEW
 70
     1
  9
$SHADEDGE
 70
     3
  9
$SHADEDIF
 70
    70
  9
$TILEMODE
 70
     1
  9
$MAXACTVP
 70
    64
  9
$PLIMCHECK
 70
     0
  9
$PEXTMIN
 10
1.0000000000000000E+20
 20
1.0000000000000000E+20
 30
1.0000000000000000E+20
  9
$PEXTMAX
 10
-1.0000000000000000E+20
 20
-1.0000000000000000E+20
 30
-1.0000000000000000E+20
  9
$PLIMMIN
 10
0.0
 20
0.0
  9
$PLIMMAX
 10
12.0
 20
9.0
  9
$UNITMODE
 70
     0
  9
$VISRETAIN
 70
     1
  9
$PLINEGEN
 70
     0
  9
$PSLTSCALE
 70
     1
  0
ENDSEC
  0
SECTION
  2
TABLES
  0
TABLE
  2
VPORT
 70
     1
  0
VPORT
  2
*ACTIVE
 70
     0
 10
0.0
 20
0.0
 11
1.0
 21
1.0
 12
-352.7724427438325279
 22
-1.965795433897596
 13
0.0
 23
0.0
 14
1.0
 24
1.0
 15
0.0
 25
0.0
 16
0.0
 26
0.0
 36
96.5995694866707311
 17
3303.693115234375
 27
195.2615115758877096
 37
0.0
 40
14.2893732210461692
 41
2.6486111111111108
 42
50.0
 43
0.0
 44
0.0
 50
0.0
 51
0.0
 71
     0
 72
   100
 73
     1
 74
     1
 75
     0
 76
     0
 77
     0
 78
     0
  0
ENDTAB
  0
TABLE
  2
LTYPE
 70
     2
  0
LTYPE
  2
CONTINUOUS
 70
     0
  3
Solid line
 72
    65
 73
     0
 40
0.0
  0
LTYPE
  2
PHANTOM2
 70
     0
  3
___ _ _ ___ _ _ ___ _ _ ___ _ _
 72
    65
 73
     6
 40
1.25
 49
0.625
 49
-0.125
 49
0.125
 49
-0.125
 49
0.125
 49
-0.125
  0
ENDTAB
  0
TABLE
  2
LAYER
 70
     2
  0
LAYER
  2
0
 70
     0
 62
   255
  6
CONTINUOUS
  0
LAYER
  2
DEFPOINTS
 70
     0
 62
     7
  6
CONTINUOUS
  0
ENDTAB
  0
TABLE
  2
STYLE
 70
     1
  0
STYLE
  2
STANDARD
 70
     0
 40
0.0
 41
0.8
 50
0.0
 71
     0
 42
0.2
  3
txt
  4

  0
ENDTAB
  0
TABLE
  2
VIEW
 70
     0
  0
ENDTAB
  0
TABLE
  2
UCS
 70
     0
  0
ENDTAB
  0
TABLE
  2
APPID
 70
     9
  0
APPID
  2
ACAD
 70
     0
  0
APPID
  2
ACAD_MLEADERVER
 70
     0
  0
APPID
  2
ACAD_EXEMPT_FROM_CAD_STANDARDS
 70
     0
  0
APPID
  2
ACAD_NAV_VCDISPLAY
 70
     0
  0
APPID
  2
ACAECLAYERSTANDARD
 70
     0
  0
APPID
  2
ACCMTRANSPARENCY
 70
     0
  0
APPID
  2
ACAD_DSTYLE_DIMJAG
 70
     0
  0
APPID
  2
ACAD_DSTYLE_DIMTALN
 70
     0
  0
APPID
  2
ACDBATTR
 70
     0
  0
ENDTAB
  0
TABLE
  2
DIMSTYLE
 70
     1
  0
DIMSTYLE
  2
STANDARD
 70
     0
  3

  4

  5

  6

  7

 40
1.0
 41
0.1875
 42
0.0625
 43
0.38
 44
0.125
 45
0.0
 46
0.0
 47
0.01
 48
0.01
140
0.15625
141
0.09
142
0.0
143
25.3999999999999986
144
1.0
145
0.0
146
1.0
147
0.09
 71
     1
 72
     0
 73
     1
 74
     1
 75
     0
 76
     0
 77
     0
 78
     4
170
     0
171
     2
172
     0
173
     0
174
     0
175
     0
176
     0
177
     0
178
     0
  0
ENDTAB
  0
ENDSEC
  0
SECTION
  2
BLOCKS
  0
BLOCK
  8
0
  2
$MODEL_SPACE
 70
     0
 10
0.0
 20
0.0
 30
0.0
  3
$MODEL_SPACE
  1

  0
ENDBLK
  5
21
  8
0
  0
BLOCK
 67
     1
  8
0
  2
$PAPER_SPACE
 70
     0
 10
0.0
 20
0.0
 30
0.0
  3
$PAPER_SPACE
  1

  0
ENDBLK
  5
1D
 67
     1
  8
0
  0
BLOCK
  8
0
  2
_FILLED
 70
     0
 10
0.0
 20
0.0
 30
0.0
  3
_FILLED
  1

  0
SOLID
  5
2ABDA
  8
0
  6
BYBLOCK
 62
     0
 10
0.0
 20
0.0
 30
0.0
 11
-1.0
 21
0.1666666667
 31
0.0
 12
-1.0
 22
-0.1666666667
 32
0.0
 13
-1.0
 23
-0.1666666667
 33
0.0
  0
ENDBLK
  5
2ABDB
  8
0
  6
BYBLOCK
 62
     0
  0
ENDSEC
  0
SECTION
  2
ENTITIES
  0
ATTDEF
  5
2E5A5
  8
DEFPOINTS
 10
2950.9146504397008357
 20
200.3712630752712016
 30
0.0
 40
0.001
  1
K-5888T-W
  3

  2
MODELNUMBER
 70
     0
1001
ACDBATTR
1070
     0
1070
     1
  0
ATTDEF
  5
2E5A6
  8
DEFPOINTS
 10
2950.9146504397008357
 20
200.369596408604508
 30
0.0
 40
0.001
  1
STRUKTURA
  3

  2
TRADENAME
 70
     0
1001
ACDBATTR
1070
     0
1070
     1
  0
ATTDEF
  5
2E5A7
  8
DEFPOINTS
 10
2950.9146504397008357
 20
200.3679297419378997
 30
0.0
 40
0.001
  1
URINAL
  3

  2
PRODUCT
 70
     0
1001
ACDBATTR
1070
     0
1070
     1
  0
LINE
  5
2E7E9
  8
0
 10
2946.5417164780819803
 20
200.3673304445090935
 30
0.0
 11
2955.2878114570921753
 21
200.3673304445090935
 31
0.0
  0
ARC
  5
2E7EA
  8
0
 10
2946.5411435886339859
 20
200.2272643972295896
 30
0.0
 40
0.1400672188730121
 50
89.7656536675749663
 51
158.5374968689523882
  0
ARC
  5
2E7EB
  8
0
 10
3133.9579751623441553
 20
125.6306736264168933
 30
0.0
 40
201.8569966299075134
 50
158.2963736487714925
 51
158.8273459747161951
  0
ARC
  5
2E7EC
  8
0
 10
3748.2436381022348542
 20
-22.8419260207960484
 30
0.0
 40
832.4911971469603031
 50
164.5781478768537909
 51
164.956147545644086
  0
ARC
  5
2E7ED
  8
0
 10
2944.5260970105509841
 20
193.1630000190338876
 30
0.0
 40
0.2534254839578702
 50
162.7762687396156878
 51
192.4907963404064901
  0
LINE
  5
2E7EE
  8
0
 10
2944.2786699146581668
 20
193.1081884496610996
 30
0.0
 11
2944.3816779333201339
 21
192.6784058462091025
 31
0.0
  0
ARC
  5
2E7EF
  8
0
 10
2944.543057392575065
 20
192.6966457818323875
 30
0.0
 40
0.1624069737446272
 50
186.4484971307246042
 51
238.4403501845442008
  0
ARC
  5
2E7F0
  8
0
 10
2943.6700238953480948
 20
190.8484816245264994
 30
0.0
 40
1.882640363745538
 50
40.4699535825452799
 51
65.2551524386719848
  0
ARC
  5
2E7F1
  8
0
 10
2933.993823429781969
 20
182.5971226864166965
 30
0.0
 40
14.5993136120982392
 50
30.4787349199507496
 51
40.4576375076157504
  0
ARC
  5
2E7F2
  8
0
 10
2958.2978931701900365
 20
196.9939734466138077
 30
0.0
 40
13.6489422721751605
 50
210.8144901028205993
 51
225.6361387701626882
  0
ARC
  5
2E7F3
  8
0
 10
2951.5665064376189548
 20
190.0238781185476
 30
0.0
 40
3.959727745464336
 50
224.7503222000729011
 51
243.2439893799538879
  0
ARC
  5
2E7F4
  8
0
 10
2950.9477831435151529
 20
188.8972483417624062
 30
0.0
 40
2.6755630700836219
 50
244.2136362531607858
 51
262.8312281235383239
  0
ARC
  5
2E7F5
  8
0
 10
2951.1180127149491454
 20
191.6936767559836881
 30
0.0
 40
5.4743373052454203
 50
264.7162714483250738
 51
267.8664048801845752
  0
ARC
  5
2E7F6
  8
0
 10
2951.099057404767791
 20
198.8433039401269866
 30
0.0
 40
1.488538888490895
 50
97.1336220913406407
 51
114.0704083038520054
  0
ARC
  5
2E7F7
  8
0
 10
2955.0584318182009156
 20
192.0846812980867071
 30
0.0
 40
9.3139832384367587
 50
119.3591888437103989
 51
142.9453878225855874
  0
ARC
  5
2E7F8
  8
0
 10
3002.4079020666499673
 20
152.9985484776316866
 30
0.0
 40
70.7042484252321231
 50
140.7881213649137067
 51
145.2443335411180101
  0
ARC
  5
2E7F9
  8
0
 10
2944.4988069670521327
 20
193.171418782602899
 30
0.0
 40
0.2251225449097903
 50
143.4494597369508142
 51
161.4541607134611922
  0
ARC
  5
2E7FA
  8
0
 10
2951.3176139990018783
 20
182.123754869519189
 30
0.0
 40
13.5769812604091502
 50
91.7026637330266965
 51
97.728654889673308
  0
ARC
  5
2E7FB
  8
0
 10
2950.5736431081031697
 20
187.5820887682774014
 30
0.0
 40
8.0681805954006407
 50
97.7061699735717042
 51
126.0054752208952067
  0
ARC
  5
2E7FC
  8
0
 10
2948.5323285030631268
 20
190.5033242100695929
 30
0.0
 40
4.505485721992784
 50
126.8440749435243049
 51
153.2156244583582065
  0
CIRCLE
  5
2E7FD
  8
0
 10
2950.9142037069700564
 20
193.8712681748091029
 30
0.0
 40
1.202323659443544
  0
ARC
  5
2E7FE
  8
0
 10
2957.2498711073808408
 20
194.4978906088101098
 30
0.0
 40
11.8820801041892796
 50
152.1364089042392891
 51
163.4051335609086095
  0
ARC
  5
2E7FF
  8
0
 10
2939.8615795798318686
 20
201.6042708042116942
 30
0.0
 40
7.0568093223318247
 50
328.2553748715611732
 51
347.2861675935988046
  0
ARC
  5
2E800
  8
0
 10
2955.2872524715699001
 20
200.2272188718281996
 30
0.0
 40
0.1401126877335192
 50
21.4751972423754403
 51
89.7714154463270972
  0
ARC
  5
2E801
  8
0
 10
2767.1844884174411163
 20
125.3631599143989064
 30
0.0
 40
202.593259669697602
 50
21.1731364177658001
 51
21.7021773216313782
  0
ARC
  5
2E802
  8
0
 10
2153.5847719597809373
 20
-22.8419260207960484
 30
0.0
 40
832.4911971469603031
 50
15.0438524543559193
 51
15.4218521231461505
  0
ARC
  5
2E803
  8
0
 10
2957.3023130514648074
 20
193.1630000190338876
 30
0.0
 40
0.2534254839578702
 50
347.5092036595934815
 51
17.2237312603843087
  0
LINE
  5
2E804
  8
0
 10
2957.5497401473589889
 20
193.1081884496610996
 30
0.0
 11
2957.4467321286961123
 21
192.6784058462091025
 31
0.0
  0
ARC
  5
2E805
  8
0
 10
2957.2853526694420907
 20
192.6966457818323875
 30
0.0
 40
0.1624069737446272
 50
301.5596498154558276
 51
353.5515028692753958
  0
ARC
  5
2E806
  8
0
 10
2958.1583861666690609
 20
190.8484816245264994
 30
0.0
 40
1.882640363745538
 50
114.744847561328001
 51
139.530046417454713
  0
ARC
  5
2E807
  8
0
 10
2967.8345866322351867
 20
182.5971226864166965
 30
0.0
 40
14.5993136120982392
 50
139.5423624923853936
 51
149.5212650800492042
  0
ARC
  5
2E808
  8
0
 10
2943.5305168918262098
 20
196.9939734466138077
 30
0.0
 40
13.6489422721751605
 50
314.3638612298373118
 51
329.1855098971793723
  0
ARC
  5
2E809
  8
0
 10
2950.2619036243982009
 20
190.0238781185476
 30
0.0
 40
3.959727745464336
 50
296.7560106200461973
 51
315.2496777999269852
  0
ARC
  5
2E80A
  8
0
 10
2950.8806269185010933
 20
188.8972483417624062
 30
0.0
 40
2.6755630700836219
 50
277.1687718764616761
 51
295.7863637468391858
  0
ARC
  5
2E80B
  8
0
 10
2950.7103973470680103
 20
191.693676755979709
 30
0.0
 40
5.4743373052414128
 50
272.1335951198154248
 51
275.2837285516749262
  0
ARC
  5
2E80C
  8
0
 10
2950.7293526579937861
 20
198.8433039427972915
 30
0.0
 40
1.4885388857486239
 50
65.9295916804257445
 51
82.8663779243621832
  0
ARC
  5
2E80D
  8
0
 10
2946.7699782438157854
 20
192.0846812980867071
 30
0.0
 40
9.3139832384367587
 50
37.0546121774144197
 51
60.6408111562895513
  0
ARC
  5
2E80E
  8
0
 10
2899.4205079953658242
 20
152.9985484776316866
 30
0.0
 40
70.7042484252321231
 50
34.7556664588820112
 51
39.2118786350862294
  0
ARC
  5
2E80F
  8
0
 10
2957.3296030949641136
 20
193.171418782602899
 30
0.0
 40
0.2251225449097903
 50
18.5458392865387296
 51
36.5505402630492071
  0
ARC
  5
2E810
  8
0
 10
2950.5107960630139132
 20
182.123754869519189
 30
0.0
 40
13.5769812604091005
 50
82.2713451103267062
 51
88.2973362669733035
  0
ARC
  5
2E811
  8
0
 10
2951.2547669539130766
 20
187.5820887682774014
 30
0.0
 40
8.0681805954006407
 50
53.9945247791047507
 51
82.2938300264283242
  0
ARC
  5
2E812
  8
0
 10
2953.2960815589531194
 20
190.5033242100695929
 30
0.0
 40
4.505485721992784
 50
26.7843755416417508
 51
53.1559250564757022
  0
ARC
  5
2E813
  8
0
 10
2944.5785389546358601
 20
194.4978906088101098
 30
0.0
 40
11.8820801041892796
 50
16.5948664390913514
 51
27.8635910957606612
  0
ARC
  5
2E814
  8
0
 10
2961.9668304821848324
 20
201.6042708042116942
 30
0.0
 40
7.0568093223318247
 50
192.7138324063996038
 51
211.7446251284374057
  0
CIRCLE
  5
2E815
  8
0
 10
2950.9142037069700564
 20
193.8712681748091029
 30
0.0
 40
1.0852712695999991
  0
ENDSEC
  0
EOF
