  0
SECTION
  2
HEADER
  9
$ACADVER
  1
AC1009
  9
$INSBASE
 10
2950.9141769088300862
 20
135.0080558637095862
 30
0.0
  9
$EXTMIN
 10
2944.1512655420901865
 20
135.0054217690621101
 30
-0.0000000000000058
  9
$EXTMAX
 10
2957.6900796224708756
 20
174.1969427996091042
 30
0.0000000000000104
  9
$LIMMIN
 10
0.0
 20
0.0
  9
$LIMMAX
 10
11.6929133858000007
 20
8.2677165353999982
  9
$ORTHOMODE
 70
     1
  9
$REGENMODE
 70
     1
  9
$FILLMODE
 70
     1
  9
$QTEXTMODE
 70
     0
  9
$MIRRTEXT
 70
     0
  9
$DRAGMODE
 70
     2
  9
$LTSCALE
 40
0.6431102362
  9
$OSMODE
 70
  2039
  9
$ATTMODE
 70
     1
  9
$TEXTSIZE
 40
0.2
  9
$TRACEWID
 40
0.05
  9
$TEXTSTYLE
  7
STANDARD
  9
$CLAYER
  8
0
  9
$CELTYPE
  6
BYLAYER
  9
$CECOLOR
 62
   256
  9
$DIMSCALE
 40
1.0
  9
$DIMASZ
 40
0.1875
  9
$DIMEXO
 40
0.0625
  9
$DIMDLI
 40
0.4443307087
  9
$DIMRND
 40
0.0
  9
$DIMDLE
 40
0.0
  9
$DIMEXE
 40
0.125
  9
$DIMTP
 40
0.01
  9
$DIMTM
 40
0.01
  9
$DIMTXT
 40
2.0
  9
$DIMCEN
 40
0.1052362205
  9
$DIMTSZ
 40
0.0
  9
$DIMTOL
 70
     1
  9
$DIMLIM
 70
     0
  9
$DIMTIH
 70
     1
  9
$DIMTOH
 70
     1
  9
$DIMSE1
 70
     0
  9
$DIMSE2
 70
     0
  9
$DIMTAD
 70
     0
  9
$DIMZIN
 70
     0
  9
$DIMBLK
  1

  9
$DIMASO
 70
     1
  9
$DIMSHO
 70
     1
  9
$DIMPOST
  1
\X
  9
$DIMAPOST
  1

  9
$DIMALT
 70
     1
  9
$DIMALTD
 70
     2
  9
$DIMALTF
 40
25.3999999999999986
  9
$DIMLFAC
 40
1.0
  9
$DIMTOFL
 70
     0
  9
$DIMTVP
 40
0.0
  9
$DIMTIX
 70
     0
  9
$DIMSOXD
 70
     0
  9
$DIMSAH
 70
     0
  9
$DIMBLK1
  1

  9
$DIMBLK2
  1

  9
$DIMSTYLE
  2
STANDARD
  9
$DIMCLRD
 70
     0
  9
$DIMCLRE
 70
     0
  9
$DIMCLRT
 70
     0
  9
$DIMTFAC
 40
1.0
  9
$DIMGAP
 40
0.09
  9
$LUNITS
 70
     2
  9
$LUPREC
 70
     4
  9
$SKETCHINC
 40
0.1
  9
$FILLETRAD
 40
0.0
  9
$AUNITS
 70
     0
  9
$AUPREC
 70
     0
  9
$MENU
  1
.
  9
$ELEVATION
 40
0.0
  9
$PELEVATION
 40
0.0
  9
$THICKNESS
 40
0.0
  9
$LIMCHECK
 70
     0
  9
$BLIPMODE
 70
     0
  9
$CHAMFERA
 40
0.0
  9
$CHAMFERB
 40
0.0
  9
$SKPOLY
 70
     0
  9
$TDCREATE
 40
2458060.468368056230247
  9
$TDUPDATE
 40
2459297.8286226848140359
  9
$TDINDWG
 40
0.6479121528
  9
$TDUSRTIMER
 40
0.6479121528
  9
$USRTIMER
 70
     1
  9
$ANGBASE
 50
0.0
  9
$ANGDIR
 70
     0
  9
$PDMODE
 70
     0
  9
$PDSIZE
 40
0.3125
  9
$PLINEWID
 40
0.0
  9
$COORDS
 70
     1
  9
$SPLFRAME
 70
     0
  9
$SPLINETYPE
 70
     6
  9
$SPLINESEGS
 70
     8
  9
$ATTDIA
 70
     1
  9
$ATTREQ
 70
     1
  9
$HANDLING
 70
     1
  9
$HANDSEED
  5
2EB64
  9
$SURFTAB1
 70
     6
  9
$SURFTAB2
 70
     6
  9
$SURFTYPE
 70
     6
  9
$SURFU
 70
     6
  9
$SURFV
 70
     6
  9
$UCSNAME
  2

  9
$UCSORG
 10
0.0
 20
0.0
 30
0.0
  9
$UCSXDIR
 10
1.0
 20
0.0
 30
0.0
  9
$UCSYDIR
 10
0.0
 20
1.0
 30
0.0
  9
$PUCSNAME
  2

  9
$PUCSORG
 10
0.0
 20
0.0
 30
0.0
  9
$PUCSXDIR
 10
1.0
 20
0.0
 30
0.0
  9
$PUCSYDIR
 10
0.0
 20
1.0
 30
0.0
  9
$USERI1
 70
     0
  9
$USERI2
 70
     0
  9
$USERI3
 70
     0
  9
$USERI4
 70
     0
  9
$USERI5
 70
     0
  9
$USERR1
 40
0.0
  9
$USERR2
 40
0.0
  9
$USERR3
 40
0.0
  9
$USERR4
 40
0.0
  9
$USERR5
 40
0.0
  9
$WORLDVIEW
 70
     1
  9
$SHADEDGE
 70
     3
  9
$SHADEDIF
 70
    70
  9
$TILEMODE
 70
     1
  9
$MAXACTVP
 70
    64
  9
$PLIMCHECK
 70
     0
  9
$PEXTMIN
 10
1.0000000000000000E+20
 20
1.0000000000000000E+20
 30
1.0000000000000000E+20
  9
$PEXTMAX
 10
-1.0000000000000000E+20
 20
-1.0000000000000000E+20
 30
-1.0000000000000000E+20
  9
$PLIMMIN
 10
0.0
 20
0.0
  9
$PLIMMAX
 10
12.0
 20
9.0
  9
$UNITMODE
 70
     0
  9
$VISRETAIN
 70
     1
  9
$PLINEGEN
 70
     0
  9
$PSLTSCALE
 70
     1
  0
ENDSEC
  0
SECTION
  2
TABLES
  0
TABLE
  2
VPORT
 70
     1
  0
VPORT
  2
*ACTIVE
 70
     0
 10
0.0
 20
0.0
 11
1.0
 21
1.0
 12
-352.7724426520945258
 22
-40.6603292915521521
 13
0.0
 23
0.0
 14
1.0
 24
1.0
 15
0.0
 25
0.0
 16
0.0
 26
0.0
 36
96.5995694866707311
 17
3303.693115234375
 27
195.2615115758877096
 37
0.0
 40
39.5176640627013995
 41
2.6486111111111108
 42
50.0
 43
0.0
 44
0.0
 50
0.0
 51
0.0
 71
     0
 72
   100
 73
     1
 74
     1
 75
     0
 76
     0
 77
     0
 78
     0
  0
ENDTAB
  0
TABLE
  2
LTYPE
 70
     2
  0
LTYPE
  2
CONTINUOUS
 70
     0
  3
Solid line
 72
    65
 73
     0
 40
0.0
  0
LTYPE
  2
PHANTOM2
 70
     0
  3
___ _ _ ___ _ _ ___ _ _ ___ _ _
 72
    65
 73
     6
 40
1.25
 49
0.625
 49
-0.125
 49
0.125
 49
-0.125
 49
0.125
 49
-0.125
  0
ENDTAB
  0
TABLE
  2
LAYER
 70
     2
  0
LAYER
  2
0
 70
     0
 62
   255
  6
CONTINUOUS
  0
LAYER
  2
DEFPOINTS
 70
     0
 62
     7
  6
CONTINUOUS
  0
ENDTAB
  0
TABLE
  2
STYLE
 70
     1
  0
STYLE
  2
STANDARD
 70
     0
 40
0.0
 41
0.8
 50
0.0
 71
     0
 42
0.2
  3
txt
  4

  0
ENDTAB
  0
TABLE
  2
VIEW
 70
     0
  0
ENDTAB
  0
TABLE
  2
UCS
 70
     0
  0
ENDTAB
  0
TABLE
  2
APPID
 70
     9
  0
APPID
  2
ACAD
 70
     0
  0
APPID
  2
ACAD_MLEADERVER
 70
     0
  0
APPID
  2
ACAD_EXEMPT_FROM_CAD_STANDARDS
 70
     0
  0
APPID
  2
ACAD_NAV_VCDISPLAY
 70
     0
  0
APPID
  2
ACAECLAYERSTANDARD
 70
     0
  0
APPID
  2
ACCMTRANSPARENCY
 70
     0
  0
APPID
  2
ACAD_DSTYLE_DIMJAG
 70
     0
  0
APPID
  2
ACAD_DSTYLE_DIMTALN
 70
     0
  0
APPID
  2
ACDBATTR
 70
     0
  0
ENDTAB
  0
TABLE
  2
DIMSTYLE
 70
     1
  0
DIMSTYLE
  2
STANDARD
 70
     0
  3

  4

  5

  6

  7

 40
1.0
 41
0.1875
 42
0.0625
 43
0.38
 44
0.125
 45
0.0
 46
0.0
 47
0.01
 48
0.01
140
0.15625
141
0.09
142
0.0
143
25.3999999999999986
144
1.0
145
0.0
146
1.0
147
0.09
 71
     1
 72
     0
 73
     1
 74
     1
 75
     0
 76
     0
 77
     0
 78
     4
170
     0
171
     2
172
     0
173
     0
174
     0
175
     0
176
     0
177
     0
178
     0
  0
ENDTAB
  0
ENDSEC
  0
SECTION
  2
BLOCKS
  0
BLOCK
  8
0
  2
$MODEL_SPACE
 70
     0
 10
0.0
 20
0.0
 30
0.0
  3
$MODEL_SPACE
  1

  0
ENDBLK
  5
21
  8
0
  0
BLOCK
 67
     1
  8
0
  2
$PAPER_SPACE
 70
     0
 10
0.0
 20
0.0
 30
0.0
  3
$PAPER_SPACE
  1

  0
ENDBLK
  5
1D
 67
     1
  8
0
  0
BLOCK
  8
0
  2
_FILLED
 70
     0
 10
0.0
 20
0.0
 30
0.0
  3
_FILLED
  1

  0
SOLID
  5
2ABDA
  8
0
  6
BYBLOCK
 62
     0
 10
0.0
 20
0.0
 30
0.0
 11
-1.0
 21
0.1666666667
 31
0.0
 12
-1.0
 22
-0.1666666667
 32
0.0
 13
-1.0
 23
-0.1666666667
 33
0.0
  0
ENDBLK
  5
2ABDB
  8
0
  6
BYBLOCK
 62
     0
  0
ENDSEC
  0
SECTION
  2
ENTITIES
  0
ATTDEF
  5
2E5A2
  8
DEFPOINTS
 10
2950.9146504397008357
 20
135.0121469984582063
 30
0.0
 40
0.001
  1
K-5888T-YC05
  3

  2
MODELNUMBER
 70
     0
1001
ACDBATTR
1070
     0
1070
     1
  0
ATTDEF
  5
2E5A3
  8
DEFPOINTS
 10
2950.9146504397008357
 20
135.0104803317915128
 30
0.0
 40
0.001
  1
STRUKTURA
  3

  2
TRADENAME
 70
     0
1001
ACDBATTR
1070
     0
1070
     1
  0
ATTDEF
  5
2E5A4
  8
DEFPOINTS
 10
2950.9146504397008357
 20
135.0088136651247908
 30
0.0
 40
0.001
  1
URINAL
  3

  2
PRODUCT
 70
     0
1001
ACDBATTR
1070
     0
1070
     1
  0
LINE
  5
2E761
  8
0
 10
2944.3671341609619958
 20
174.1889404132093091
 30
0.0
 11
2957.4612196566981765
 21
174.1889404132093091
 31
0.0
  0
ARC
  5
2E762
  8
0
 10
2944.3732401812289936
 20
174.0885290268001029
 30
0.0
 40
0.1005968687589893
 50
93.4798734134124345
 51
180.0774655730209872
  0
LINE
  5
2E763
  8
0
 10
2944.2726434044138841
 20
174.0883930169268865
 30
0.0
 11
2945.736349561490897
 21
146.5806714292093034
 31
0.0
  0
ARC
  5
2E764
  8
0
 10
2945.8843224760908015
 20
146.5904107661687874
 30
0.0
 40
0.1482930818996987
 50
183.7656837169151061
 51
250.5232719753796005
  0
ARC
  5
2E765
  8
0
 10
3594.4863599830441672
 20
2049.2324805047810514
 30
0.0
 40
2010.3053540884338872
 50
251.1759416785631913
 51
251.2831435580625055
  0
ARC
  5
2E766
  8
0
 10
2950.6145350592960312
 20
148.6197849781570994
 30
0.0
 40
3.5924092064949882
 50
250.1748319227476998
 51
264.1385780729688122
  0
ARC
  5
2E767
  8
0
 10
2951.0108104217188156
 20
153.138341693617491
 30
0.0
 40
8.1280889153185658
 50
264.6125933870357017
 51
269.3188038487019753
  0
ARC
  5
2E768
  8
0
 10
2944.554342334895864
 20
174.0227004717139891
 30
0.0
 40
0.187238082092116
 50
117.3952841879041955
 51
162.5859745972111057
  0
ARC
  5
2E769
  8
0
 10
3036.6928013651868241
 20
184.6830538204580989
 30
0.0
 40
92.924169947128533
 50
186.5527536291544948
 51
191.0968859796597883
  0
ARC
  5
2E76A
  8
0
 10
2984.7297623901599763
 20
174.6778407986089121
 30
0.0
 40
40.0074067182091895
 50
191.359121609213787
 51
197.4687841745594028
  0
ARC
  5
2E76B
  8
0
 10
2953.3535823125271236
 20
164.4795470733926095
 30
0.0
 40
7.0237012664772527
 50
194.9451811604201055
 51
228.4951124784726062
  0
ARC
  5
2E76C
  8
0
 10
2950.747334867767222
 20
161.7727964440111919
 30
0.0
 40
3.273319731060262
 50
231.2634901131262097
 51
261.1859281601243765
  0
ARC
  5
2E76D
  8
0
 10
2950.9065655804652124
 20
162.608590218133287
 30
0.0
 40
4.1237460915537092
 50
260.7790654547849272
 51
270.1057526893562795
  0
ARC
  5
2E76E
  8
0
 10
2951.1018116487139196
 20
162.8472754593774141
 30
0.0
 40
4.0980565470168751
 50
252.226141469609388
 51
267.3757222804355251
  0
ARC
  5
2E76F
  8
0
 10
2951.0237623134407841
 20
162.0960148178025122
 30
0.0
 40
3.3624038877306131
 50
223.9511960125259122
 51
249.5838745939618093
  0
ARC
  5
2E770
  8
0
 10
2954.3995847476880954
 20
164.9273774052535941
 30
0.0
 40
7.7638351134832888
 50
193.8711490218296092
 51
221.7028143091949914
  0
ARC
  5
2E771
  8
0
 10
2999.9992039350290725
 20
178.5016265523728123
 30
0.0
 40
55.3335438519196572
 50
187.996182493773091
 51
196.1978200252638089
  0
ARC
  5
2E772
  8
0
 10
3078.789537300480788
 20
190.2018090981381135
 30
0.0
 40
134.9868563959171013
 50
186.8497918353668013
 51
188.2619468086807899
  0
ARC
  5
2E773
  8
0
 10
2944.6372286818618704
 20
174.0499146326029916
 30
0.0
 40
0.1392105080852627
 50
22.1284561592033597
 51
87.048006418792184
  0
CIRCLE
  5
2E774
  8
0
 10
2950.9145157272409961
 20
170.3889432410593088
 30
0.0
 40
0.8861660923855952
  0
ARC
  5
2E775
  8
0
 10
2957.4551136364298145
 20
174.0885290268001029
 30
0.0
 40
0.1005968687589914
 50
359.9225344269789844
 51
86.5201265865875797
  0
LINE
  5
2E776
  8
0
 10
2957.555710413244924
 20
174.0883930169268865
 30
0.0
 11
2956.0920042561679111
 21
146.5806714292093034
 31
0.0
  0
ARC
  5
2E777
  8
0
 10
2955.9440313415689161
 20
146.5904107661687874
 30
0.0
 40
0.1482930818996987
 50
289.4767280246205132
 51
356.2343162830849224
  0
ARC
  5
2E778
  8
0
 10
2307.3419938346160052
 20
2049.2324805047810514
 30
0.0
 40
2010.3053540884338872
 50
288.716856441937523
 51
288.8240583214367803
  0
ARC
  5
2E779
  8
0
 10
2951.2138187583627769
 20
148.6197849781570994
 30
0.0
 40
3.5924092064949882
 50
275.8614219270311878
 51
289.8251680772522718
  0
ARC
  5
2E77A
  8
0
 10
2950.8697144578859479
 20
152.1541327212104022
 30
0.0
 40
7.1434438662798438
 50
270.3566245193193254
 51
275.7119782449411218
  0
ARC
  5
2E77B
  8
0
 10
2957.2740114827629441
 20
174.0227004717139891
 30
0.0
 40
0.187238082092116
 50
17.4140254027904184
 51
62.6047158120958187
  0
ARC
  5
2E77C
  8
0
 10
2865.135552452471984
 20
184.6830538204580989
 30
0.0
 40
92.924169947128533
 50
348.9031140203385917
 51
353.4472463708455052
  0
ARC
  5
2E77D
  8
0
 10
2917.098591427500196
 20
174.6778407986089121
 30
0.0
 40
40.0074067182091895
 50
342.5312158254404835
 51
348.640878390786213
  0
ARC
  5
2E77E
  8
0
 10
2948.4747715051330488
 20
164.4795470733926095
 30
0.0
 40
7.0237012664772527
 50
311.5048875215273938
 51
345.054818839579923
  0
ARC
  5
2E77F
  8
0
 10
2951.0810189498920408
 20
161.7727964440111919
 30
0.0
 40
3.273319731060262
 50
278.8140718398756235
 51
308.7365098868738755
  0
ARC
  5
2E780
  8
0
 10
2950.9217882389880288
 20
162.6085901956332123
 30
0.0
 40
4.123746069057046
 50
269.8942472851617254
 51
279.2209345707134958
  0
ARC
  5
2E781
  8
0
 10
2950.726542168945798
 20
162.8472754593774141
 30
0.0
 40
4.098056547016899
 50
272.6242777195644749
 51
287.773858530390612
  0
ARC
  5
2E782
  8
0
 10
2950.8045915042180241
 20
162.0960148178025122
 30
0.0
 40
3.3624038877306131
 50
290.416125406038077
 51
316.0488039874741162
  0
ARC
  5
2E783
  8
0
 10
2947.428769069972077
 20
164.9273774052535941
 30
0.0
 40
7.7638351134832888
 50
318.2971856908050086
 51
346.1288509781703056
  0
ARC
  5
2E784
  8
0
 10
2901.8291498826301904
 20
178.5016265523728123
 30
0.0
 40
55.3335438519196572
 50
343.8021799747361911
 51
352.0038175062268238
  0
ARC
  5
2E785
  8
0
 10
2823.0388165171789296
 20
190.2018090981381135
 30
0.0
 40
134.9868563959171013
 50
351.7380531913191817
 51
353.1502081646331135
  0
ARC
  5
2E786
  8
0
 10
2957.1911251357969377
 20
174.0499146326029916
 30
0.0
 40
0.1392105080852627
 50
92.951993581207816
 51
157.8715438407965905
  0
ENDSEC
  0
EOF
