  0
SECTION
  2
HEADER
  9
$ACADVER
  1
AC1009
  9
$INSBASE
 10
2983.4539229548331605
 20
135.0085017950393933
 30
0.0
  9
$EXTMIN
 10
2969.2610002077799436
 20
135.0057512176825014
 30
-0.0000000000000058
  9
$EXTMAX
 10
2983.6012940663968038
 20
174.1973678858147139
 30
0.0000000000000104
  9
$LIMMIN
 10
0.0
 20
0.0
  9
$LIMMAX
 10
11.6929133858000007
 20
8.2677165353999982
  9
$ORTHOMODE
 70
     1
  9
$REGENMODE
 70
     1
  9
$FILLMODE
 70
     1
  9
$QTEXTMODE
 70
     0
  9
$MIRRTEXT
 70
     0
  9
$DRAGMODE
 70
     2
  9
$LTSCALE
 40
0.6431102362
  9
$OSMODE
 70
  2039
  9
$ATTMODE
 70
     1
  9
$TEXTSIZE
 40
0.2
  9
$TRACEWID
 40
0.05
  9
$TEXTSTYLE
  7
STANDARD
  9
$CLAYER
  8
0
  9
$CELTYPE
  6
BYLAYER
  9
$CECOLOR
 62
   256
  9
$DIMSCALE
 40
1.0
  9
$DIMASZ
 40
0.1875
  9
$DIMEXO
 40
0.0625
  9
$DIMDLI
 40
0.4443307087
  9
$DIMRND
 40
0.0
  9
$DIMDLE
 40
0.0
  9
$DIMEXE
 40
0.125
  9
$DIMTP
 40
0.01
  9
$DIMTM
 40
0.01
  9
$DIMTXT
 40
2.0
  9
$DIMCEN
 40
0.1052362205
  9
$DIMTSZ
 40
0.0
  9
$DIMTOL
 70
     1
  9
$DIMLIM
 70
     0
  9
$DIMTIH
 70
     1
  9
$DIMTOH
 70
     1
  9
$DIMSE1
 70
     0
  9
$DIMSE2
 70
     0
  9
$DIMTAD
 70
     0
  9
$DIMZIN
 70
     0
  9
$DIMBLK
  1

  9
$DIMASO
 70
     1
  9
$DIMSHO
 70
     1
  9
$DIMPOST
  1
\X
  9
$DIMAPOST
  1

  9
$DIMALT
 70
     1
  9
$DIMALTD
 70
     2
  9
$DIMALTF
 40
25.3999999999999986
  9
$DIMLFAC
 40
1.0
  9
$DIMTOFL
 70
     0
  9
$DIMTVP
 40
0.0
  9
$DIMTIX
 70
     0
  9
$DIMSOXD
 70
     0
  9
$DIMSAH
 70
     0
  9
$DIMBLK1
  1

  9
$DIMBLK2
  1

  9
$DIMSTYLE
  2
STANDARD
  9
$DIMCLRD
 70
     0
  9
$DIMCLRE
 70
     0
  9
$DIMCLRT
 70
     0
  9
$DIMTFAC
 40
1.0
  9
$DIMGAP
 40
0.09
  9
$LUNITS
 70
     2
  9
$LUPREC
 70
     4
  9
$SKETCHINC
 40
0.1
  9
$FILLETRAD
 40
0.0
  9
$AUNITS
 70
     0
  9
$AUPREC
 70
     0
  9
$MENU
  1
.
  9
$ELEVATION
 40
0.0
  9
$PELEVATION
 40
0.0
  9
$THICKNESS
 40
0.0
  9
$LIMCHECK
 70
     0
  9
$BLIPMODE
 70
     0
  9
$CHAMFERA
 40
0.0
  9
$CHAMFERB
 40
0.0
  9
$SKPOLY
 70
     0
  9
$TDCREATE
 40
2458060.468368056230247
  9
$TDUPDATE
 40
2459297.828263889066875
  9
$TDINDWG
 40
0.6454931712999999
  9
$TDUSRTIMER
 40
0.6454931712999999
  9
$USRTIMER
 70
     1
  9
$ANGBASE
 50
0.0
  9
$ANGDIR
 70
     0
  9
$PDMODE
 70
     0
  9
$PDSIZE
 40
0.3125
  9
$PLINEWID
 40
0.0
  9
$COORDS
 70
     1
  9
$SPLFRAME
 70
     0
  9
$SPLINETYPE
 70
     6
  9
$SPLINESEGS
 70
     8
  9
$ATTDIA
 70
     1
  9
$ATTREQ
 70
     1
  9
$HANDLING
 70
     1
  9
$HANDSEED
  5
2EBD2
  9
$SURFTAB1
 70
     6
  9
$SURFTAB2
 70
     6
  9
$SURFTYPE
 70
     6
  9
$SURFU
 70
     6
  9
$SURFV
 70
     6
  9
$UCSNAME
  2

  9
$UCSORG
 10
0.0
 20
0.0
 30
0.0
  9
$UCSXDIR
 10
1.0
 20
0.0
 30
0.0
  9
$UCSYDIR
 10
0.0
 20
1.0
 30
0.0
  9
$PUCSNAME
  2

  9
$PUCSORG
 10
0.0
 20
0.0
 30
0.0
  9
$PUCSXDIR
 10
1.0
 20
0.0
 30
0.0
  9
$PUCSYDIR
 10
0.0
 20
1.0
 30
0.0
  9
$USERI1
 70
     0
  9
$USERI2
 70
     0
  9
$USERI3
 70
     0
  9
$USERI4
 70
     0
  9
$USERI5
 70
     0
  9
$USERR1
 40
0.0
  9
$USERR2
 40
0.0
  9
$USERR3
 40
0.0
  9
$USERR4
 40
0.0
  9
$USERR5
 40
0.0
  9
$WORLDVIEW
 70
     1
  9
$SHADEDGE
 70
     3
  9
$SHADEDIF
 70
    70
  9
$TILEMODE
 70
     1
  9
$MAXACTVP
 70
    64
  9
$PLIMCHECK
 70
     0
  9
$PEXTMIN
 10
1.0000000000000000E+20
 20
1.0000000000000000E+20
 30
1.0000000000000000E+20
  9
$PEXTMAX
 10
-1.0000000000000000E+20
 20
-1.0000000000000000E+20
 30
-1.0000000000000000E+20
  9
$PLIMMIN
 10
0.0
 20
0.0
  9
$PLIMMAX
 10
12.0
 20
9.0
  9
$UNITMODE
 70
     0
  9
$VISRETAIN
 70
     1
  9
$PLINEGEN
 70
     0
  9
$PSLTSCALE
 70
     1
  0
ENDSEC
  0
SECTION
  2
TABLES
  0
TABLE
  2
VPORT
 70
     1
  0
VPORT
  2
*ACTIVE
 70
     0
 10
0.0
 20
0.0
 11
1.0
 21
1.0
 12
-327.2619680972866263
 22
-40.6599520241391303
 13
0.0
 23
0.0
 14
1.0
 24
1.0
 15
0.0
 25
0.0
 16
0.0
 26
0.0
 36
96.5995694866707311
 17
3303.693115234375
 27
195.2615115758877096
 37
0.0
 40
39.5177604961610527
 41
2.6486111111111108
 42
50.0
 43
0.0
 44
0.0
 50
0.0
 51
0.0
 71
     0
 72
   100
 73
     1
 74
     1
 75
     0
 76
     0
 77
     0
 78
     0
  0
ENDTAB
  0
TABLE
  2
LTYPE
 70
     2
  0
LTYPE
  2
CONTINUOUS
 70
     0
  3
Solid line
 72
    65
 73
     0
 40
0.0
  0
LTYPE
  2
PHANTOM2
 70
     0
  3
___ _ _ ___ _ _ ___ _ _ ___ _ _
 72
    65
 73
     6
 40
1.25
 49
0.625
 49
-0.125
 49
0.125
 49
-0.125
 49
0.125
 49
-0.125
  0
ENDTAB
  0
TABLE
  2
LAYER
 70
     2
  0
LAYER
  2
0
 70
     0
 62
   255
  6
CONTINUOUS
  0
LAYER
  2
DEFPOINTS
 70
     0
 62
     7
  6
CONTINUOUS
  0
ENDTAB
  0
TABLE
  2
STYLE
 70
     1
  0
STYLE
  2
STANDARD
 70
     0
 40
0.0
 41
0.8
 50
0.0
 71
     0
 42
0.2
  3
txt
  4

  0
ENDTAB
  0
TABLE
  2
VIEW
 70
     0
  0
ENDTAB
  0
TABLE
  2
UCS
 70
     0
  0
ENDTAB
  0
TABLE
  2
APPID
 70
     9
  0
APPID
  2
ACAD
 70
     0
  0
APPID
  2
ACAD_MLEADERVER
 70
     0
  0
APPID
  2
ACAD_EXEMPT_FROM_CAD_STANDARDS
 70
     0
  0
APPID
  2
ACAD_NAV_VCDISPLAY
 70
     0
  0
APPID
  2
ACAECLAYERSTANDARD
 70
     0
  0
APPID
  2
ACCMTRANSPARENCY
 70
     0
  0
APPID
  2
ACAD_DSTYLE_DIMJAG
 70
     0
  0
APPID
  2
ACAD_DSTYLE_DIMTALN
 70
     0
  0
APPID
  2
ACDBATTR
 70
     0
  0
ENDTAB
  0
TABLE
  2
DIMSTYLE
 70
     1
  0
DIMSTYLE
  2
STANDARD
 70
     0
  3

  4

  5

  6

  7

 40
1.0
 41
0.1875
 42
0.0625
 43
0.38
 44
0.125
 45
0.0
 46
0.0
 47
0.01
 48
0.01
140
0.15625
141
0.09
142
0.0
143
25.3999999999999986
144
1.0
145
0.0
146
1.0
147
0.09
 71
     1
 72
     0
 73
     1
 74
     1
 75
     0
 76
     0
 77
     0
 78
     4
170
     0
171
     2
172
     0
173
     0
174
     0
175
     0
176
     0
177
     0
178
     0
  0
ENDTAB
  0
ENDSEC
  0
SECTION
  2
BLOCKS
  0
BLOCK
  8
0
  2
$MODEL_SPACE
 70
     0
 10
0.0
 20
0.0
 30
0.0
  3
$MODEL_SPACE
  1

  0
ENDBLK
  5
21
  8
0
  0
BLOCK
 67
     1
  8
0
  2
$PAPER_SPACE
 70
     0
 10
0.0
 20
0.0
 30
0.0
  3
$PAPER_SPACE
  1

  0
ENDBLK
  5
1D
 67
     1
  8
0
  0
BLOCK
  8
0
  2
_FILLED
 70
     0
 10
0.0
 20
0.0
 30
0.0
  3
_FILLED
  1

  0
SOLID
  5
2ABDA
  8
0
  6
BYBLOCK
 62
     0
 10
0.0
 20
0.0
 30
0.0
 11
-1.0
 21
0.1666666667
 31
0.0
 12
-1.0
 22
-0.1666666667
 32
0.0
 13
-1.0
 23
-0.1666666667
 33
0.0
  0
ENDBLK
  5
2ABDB
  8
0
  6
BYBLOCK
 62
     0
  0
ENDSEC
  0
SECTION
  2
ENTITIES
  0
ATTDEF
  5
2DB20
  8
DEFPOINTS
 10
2983.4540316055640687
 20
135.0121469984582063
 30
0.0
 40
0.001
  1
K-5888T-YC05
  3

  2
MODELNUMBER
 70
     0
1001
ACDBATTR
1070
     0
1070
     1
  0
ATTDEF
  5
2DB21
  8
DEFPOINTS
 10
2983.4540316055640687
 20
135.0104803317915128
 30
0.0
 40
0.001
  1
STRUKTURA
  3

  2
TRADENAME
 70
     0
1001
ACDBATTR
1070
     0
1070
     1
  0
ATTDEF
  5
2DB22
  8
DEFPOINTS
 10
2983.4540316055640687
 20
135.0088136651247908
 30
0.0
 40
0.001
  1
URINAL
  3

  2
PRODUCT
 70
     0
1001
ACDBATTR
1070
     0
1070
     1
  0
LINE
  5
2E819
  8
0
 10
2973.5031174446080513
 20
145.0134060914390943
 30
0.0
 11
2983.3382721033080998
 21
146.7505095515390963
 31
0.0
  0
ARC
  5
2E81A
  8
0
 10
2983.3139213856002243
 20
146.8883787574997086
 30
0.0
 40
0.1400031264119748
 50
280.0163859078161863
 51
359.9969124564510139
  0
LINE
  5
2E81B
  8
0
 10
2983.4539245118080544
 20
146.8883712130391075
 30
0.0
 11
2983.4539217672081577
 21
174.0710100247391097
 31
0.0
  0
ARC
  5
2E81C
  8
0
 10
2983.3118853816281444
 20
174.0711613738905896
 30
0.0
 40
0.1420364662162001
 50
359.9389475851676252
 51
48.0071216101001497
  0
ARC
  5
2E81D
  8
0
 10
2983.3575992091741682
 20
174.0870590887307117
 30
0.0
 40
0.1023336605260587
 50
61.190810812203523
 51
89.9989373619963544
  0
LINE
  5
2E81E
  8
0
 10
2983.3576011071081666
 20
174.1893927492390901
 30
0.0
 11
2975.7018155920081881
 21
174.1893854330390923
 31
0.0
  0
ARC
  5
2E81F
  8
0
 10
2975.7022417390057853
 20
174.1263544550513132
 30
0.0
 40
0.0630324185428828
 50
90.3873659143667965
 51
176.3779492498090065
  0
ARC
  5
2E820
  8
0
 10
2938.8001741338161992
 20
175.7856983086172136
 30
0.0
 40
36.8763340485242921
 50
346.7981798413561023
 51
357.4271540359839037
  0
ARC
  5
2E821
  8
0
 10
2956.4977650042010282
 20
171.6286813238752984
 30
0.0
 40
18.6970750852477501
 50
332.1196413323025922
 51
346.8145630123581213
  0
ARC
  5
2E822
  8
0
 10
2963.1309405698270893
 20
167.8495331598880114
 30
0.0
 40
11.0691803981358294
 50
311.0846654072524871
 51
333.3549558916673163
  0
ARC
  5
2E823
  8
0
 10
2963.5204365650511136
 20
167.8560222677382114
 30
0.0
 40
10.8222043449884904
 50
302.7934167731586967
 51
309.5076025277855933
  0
ARC
  5
2E824
  8
0
 10
2969.6284274851568625
 20
158.5668069297661873
 30
0.0
 40
0.3123502512590805
 50
142.1264683093642134
 51
195.1281634334349917
  0
LINE
  5
2E825
  8
0
 10
2969.3269018990708901
 20
158.4852900579093955
 30
0.0
 11
2973.3446852189081255
 21
145.1109980035390947
 31
0.0
  0
ARC
  5
2E826
  8
0
 10
2973.478772005510109
 20
145.1512799513965888
 30
0.0
 40
0.1400067914940236
 50
196.7211603889332991
 51
280.0139273738146244
  0
ARC
  5
2E827
  8
0
 10
2976.3261835954122034
 20
174.1385451526348049
 30
0.0
 40
0.0521122147384546
 50
37.0010531192491996
 51
77.3200527935004516
  0
ARC
  5
2E828
  8
0
 10
2976.1207774793028875
 20
174.0474571522688052
 30
0.0
 40
0.2757084086190393
 50
10.3005156401787605
 51
26.3677602461356209
  0
LINE
  5
2E829
  8
0
 10
2976.3920424137090777
 20
174.0967568677390886
 30
0.0
 11
2981.7105928476080408
 21
146.5983163683391126
 31
0.0
  0
ARC
  5
2E82A
  8
0
 10
2981.1438655882689091
 20
146.5196446871595128
 30
0.0
 40
0.5721617078219962
 50
354.3686883004963875
 51
7.903151760213464
  0
ARC
  5
2E82B
  8
0
 10
2970.8703275311049765
 20
159.3779947478898862
 30
0.0
 40
0.5029714994863697
 50
167.737150268856908
 51
198.3140141715304878
  0
LINE
  5
2E82C
  8
0
 10
2970.392832217708019
 20
159.2199486945391129
 30
0.0
 11
2974.6759580261091287
 21
145.3486677315391091
 31
0.0
  0
ARC
  5
2E82D
  8
0
 10
2974.8534683039579249
 20
145.397520491402986
 30
0.0
 40
0.1841267397196178
 50
195.2238175614741067
 51
241.165023607180899
  0
CIRCLE
  5
2E82E
  8
0
 10
2982.0759690113081888
 20
158.9893915862390941
 30
0.0
 40
0.5437419538999994
  0
ARC
  5
2E82F
  8
0
 10
2982.0773800001011296
 20
159.116250226078904
 30
0.0
 40
0.8782094961189478
 50
25.2323474957856
 51
81.1513616622328726
  0
ARC
  5
2E830
  8
0
 10
2981.6872229670871093
 20
158.932387144891095
 30
0.0
 40
1.309519295490764
 50
353.5604112727501729
 51
25.2323474957856
  0
ARC
  5
2E831
  8
0
 10
2982.0846821811937843
 20
158.8875268481264129
 30
0.0
 40
0.9095364544790667
 50
301.388654208133687
 51
353.5604112727501729
  0
ARC
  5
2E832
  8
0
 10
2982.0739933483810091
 20
158.9823184227518027
 30
0.0
 40
0.9968356370507564
 50
239.3630834756245065
 51
299.0747370544124806
  0
ARC
  5
2E833
  8
0
 10
2982.0759826472080931
 20
158.9893915862390941
 30
0.0
 40
1.0039370079000141
 50
177.0470757478585142
 51
239.4711096858814869
  0
ARC
  5
2E834
  8
0
 10
2982.0759826472240093
 20
158.9893915862315055
 30
0.0
 40
1.003937007915884
 50
82.1863033599792061
 51
177.0470757474668915
  0
ENDSEC
  0
EOF
