  0
SECTION
  2
HEADER
  9
$ACADVER
  1
AC1009
  9
$INSBASE
 10
4306.6683053272508914
 20
208.0451987464439014
 30
0.0
  9
$EXTMIN
 10
4305.3806131784240279
 20
208.0433307214545096
 30
-0.0015258207003583
  9
$EXTMAX
 10
4311.9398887785719126
 20
237.3414360065677045
 30
0.0000000349246037
  9
$LIMMIN
 10
0.0
 20
0.0
  9
$LIMMAX
 10
11.6929133858000007
 20
8.2677165353999982
  9
$ORTHOMODE
 70
     0
  9
$REGENMODE
 70
     1
  9
$FILLMODE
 70
     1
  9
$QTEXTMODE
 70
     0
  9
$MIRRTEXT
 70
     0
  9
$DRAGMODE
 70
     2
  9
$LTSCALE
 40
0.6431102362
  9
$OSMODE
 70
  4095
  9
$ATTMODE
 70
     1
  9
$TEXTSIZE
 40
0.2
  9
$TRACEWID
 40
0.05
  9
$TEXTSTYLE
  7
STANDARD
  9
$CLAYER
  8
0
  9
$CELTYPE
  6
BYLAYER
  9
$CECOLOR
 62
   256
  9
$DIMSCALE
 40
1.0
  9
$DIMASZ
 40
0.1875
  9
$DIMEXO
 40
0.0625
  9
$DIMDLI
 40
0.4443307087
  9
$DIMRND
 40
0.0
  9
$DIMDLE
 40
0.0
  9
$DIMEXE
 40
0.125
  9
$DIMTP
 40
0.01
  9
$DIMTM
 40
0.01
  9
$DIMTXT
 40
2.0
  9
$DIMCEN
 40
0.1052362205
  9
$DIMTSZ
 40
0.0
  9
$DIMTOL
 70
     1
  9
$DIMLIM
 70
     0
  9
$DIMTIH
 70
     1
  9
$DIMTOH
 70
     1
  9
$DIMSE1
 70
     0
  9
$DIMSE2
 70
     0
  9
$DIMTAD
 70
     0
  9
$DIMZIN
 70
     0
  9
$DIMBLK
  1

  9
$DIMASO
 70
     1
  9
$DIMSHO
 70
     1
  9
$DIMPOST
  1
\X
  9
$DIMAPOST
  1

  9
$DIMALT
 70
     1
  9
$DIMALTD
 70
     2
  9
$DIMALTF
 40
25.3999999999999986
  9
$DIMLFAC
 40
1.0
  9
$DIMTOFL
 70
     0
  9
$DIMTVP
 40
0.0
  9
$DIMTIX
 70
     0
  9
$DIMSOXD
 70
     0
  9
$DIMSAH
 70
     0
  9
$DIMBLK1
  1

  9
$DIMBLK2
  1

  9
$DIMSTYLE
  2
STANDARD
  9
$DIMCLRD
 70
     0
  9
$DIMCLRE
 70
     0
  9
$DIMCLRT
 70
     0
  9
$DIMTFAC
 40
1.0
  9
$DIMGAP
 40
0.09
  9
$LUNITS
 70
     2
  9
$LUPREC
 70
     4
  9
$SKETCHINC
 40
0.1
  9
$FILLETRAD
 40
0.0
  9
$AUNITS
 70
     0
  9
$AUPREC
 70
     0
  9
$MENU
  1
.
  9
$ELEVATION
 40
0.0
  9
$PELEVATION
 40
0.0
  9
$THICKNESS
 40
0.0
  9
$LIMCHECK
 70
     0
  9
$BLIPMODE
 70
     0
  9
$CHAMFERA
 40
0.0
  9
$CHAMFERB
 40
0.0
  9
$SKPOLY
 70
     0
  9
$TDCREATE
 40
2458060.468368056230247
  9
$TDUPDATE
 40
2459193.0122916670516133
  9
$TDINDWG
 40
0.6111991898
  9
$TDUSRTIMER
 40
0.6111991898
  9
$USRTIMER
 70
     1
  9
$ANGBASE
 50
0.0
  9
$ANGDIR
 70
     0
  9
$PDMODE
 70
     0
  9
$PDSIZE
 40
0.3125
  9
$PLINEWID
 40
0.0
  9
$COORDS
 70
     1
  9
$SPLFRAME
 70
     0
  9
$SPLINETYPE
 70
     6
  9
$SPLINESEGS
 70
     8
  9
$ATTDIA
 70
     1
  9
$ATTREQ
 70
     1
  9
$HANDLING
 70
     1
  9
$HANDSEED
  5
11762
  9
$SURFTAB1
 70
     6
  9
$SURFTAB2
 70
     6
  9
$SURFTYPE
 70
     6
  9
$SURFU
 70
     6
  9
$SURFV
 70
     6
  9
$UCSNAME
  2

  9
$UCSORG
 10
0.0
 20
0.0
 30
0.0
  9
$UCSXDIR
 10
1.0
 20
0.0
 30
0.0
  9
$UCSYDIR
 10
0.0
 20
1.0
 30
0.0
  9
$PUCSNAME
  2

  9
$PUCSORG
 10
0.0
 20
0.0
 30
0.0
  9
$PUCSXDIR
 10
1.0
 20
0.0
 30
0.0
  9
$PUCSYDIR
 10
0.0
 20
1.0
 30
0.0
  9
$USERI1
 70
     0
  9
$USERI2
 70
     0
  9
$USERI3
 70
     0
  9
$USERI4
 70
     0
  9
$USERI5
 70
     0
  9
$USERR1
 40
0.0
  9
$USERR2
 40
0.0
  9
$USERR3
 40
0.0
  9
$USERR4
 40
0.0
  9
$USERR5
 40
0.0
  9
$WORLDVIEW
 70
     1
  9
$SHADEDGE
 70
     3
  9
$SHADEDIF
 70
    70
  9
$TILEMODE
 70
     1
  9
$MAXACTVP
 70
    64
  9
$PLIMCHECK
 70
     0
  9
$PEXTMIN
 10
1.0000000000000000E+20
 20
1.0000000000000000E+20
 30
1.0000000000000000E+20
  9
$PEXTMAX
 10
-1.0000000000000000E+20
 20
-1.0000000000000000E+20
 30
-1.0000000000000000E+20
  9
$PLIMMIN
 10
0.0
 20
0.0
  9
$PLIMMAX
 10
12.0
 20
9.0
  9
$UNITMODE
 70
     0
  9
$VISRETAIN
 70
     1
  9
$PLINEGEN
 70
     0
  9
$PSLTSCALE
 70
     1
  0
ENDSEC
  0
SECTION
  2
TABLES
  0
TABLE
  2
VPORT
 70
     1
  0
VPORT
  2
*ACTIVE
 70
     0
 10
0.0
 20
0.0
 11
1.0
 21
1.0
 12
147.1038544941229134
 22
-3.4184488503443609
 13
0.0
 23
0.0
 14
1.0
 24
1.0
 15
0.0
 25
0.0
 16
0.0
 26
0.0
 36
202.37134017897489
 17
4161.556396484375
 27
226.1108322143554972
 37
0.0
 40
29.6882324219308416
 41
2.887234042553191
 42
50.0
 43
0.0
 44
0.0
 50
0.0
 51
0.0
 71
     0
 72
   100
 73
     1
 74
     1
 75
     0
 76
     0
 77
     0
 78
     0
  0
ENDTAB
  0
TABLE
  2
LTYPE
 70
     2
  0
LTYPE
  2
CONTINUOUS
 70
     0
  3
Solid line
 72
    65
 73
     0
 40
0.0
  0
LTYPE
  2
PHANTOM2
 70
     0
  3
___ _ _ ___ _ _ ___ _ _ ___ _ _
 72
    65
 73
     6
 40
1.25
 49
0.625
 49
-0.125
 49
0.125
 49
-0.125
 49
0.125
 49
-0.125
  0
ENDTAB
  0
TABLE
  2
LAYER
 70
     2
  0
LAYER
  2
0
 70
     0
 62
   255
  6
CONTINUOUS
  0
LAYER
  2
DEFPOINTS
 70
     0
 62
     7
  6
CONTINUOUS
  0
ENDTAB
  0
TABLE
  2
STYLE
 70
     1
  0
STYLE
  2
STANDARD
 70
     0
 40
0.0
 41
0.8
 50
0.0
 71
     0
 42
0.2
  3
txt
  4

  0
ENDTAB
  0
TABLE
  2
VIEW
 70
     0
  0
ENDTAB
  0
TABLE
  2
UCS
 70
     0
  0
ENDTAB
  0
TABLE
  2
APPID
 70
     9
  0
APPID
  2
ACAD
 70
     0
  0
APPID
  2
ACAD_MLEADERVER
 70
     0
  0
APPID
  2
ACAD_EXEMPT_FROM_CAD_STANDARDS
 70
     0
  0
APPID
  2
ACAD_NAV_VCDISPLAY
 70
     0
  0
APPID
  2
ACAECLAYERSTANDARD
 70
     0
  0
APPID
  2
ACCMTRANSPARENCY
 70
     0
  0
APPID
  2
ACAD_DSTYLE_DIMJAG
 70
     0
  0
APPID
  2
ACAD_DSTYLE_DIMTALN
 70
     0
  0
APPID
  2
ACDBATTR
 70
     0
  0
ENDTAB
  0
TABLE
  2
DIMSTYLE
 70
     1
  0
DIMSTYLE
  2
STANDARD
 70
     0
  3

  4

  5

  6

  7

 40
1.0
 41
0.1875
 42
0.0625
 43
0.38
 44
0.125
 45
0.0
 46
0.0
 47
0.01
 48
0.01
140
0.15625
141
0.09
142
0.0
143
25.3999999999999986
144
1.0
145
0.0
146
1.0
147
0.09
 71
     1
 72
     0
 73
     1
 74
     1
 75
     0
 76
     0
 77
     0
 78
     4
170
     0
171
     2
172
     0
173
     0
174
     0
175
     0
176
     0
177
     0
178
     0
  0
ENDTAB
  0
ENDSEC
  0
SECTION
  2
BLOCKS
  0
BLOCK
  8
0
  2
$MODEL_SPACE
 70
     0
 10
0.0
 20
0.0
 30
0.0
  3
$MODEL_SPACE
  1

  0
ENDBLK
  5
21
  8
0
  0
BLOCK
 67
     1
  8
0
  2
$PAPER_SPACE
 70
     0
 10
0.0
 20
0.0
 30
0.0
  3
$PAPER_SPACE
  1

  0
ENDBLK
  5
1D
 67
     1
  8
0
  0
ENDSEC
  0
SECTION
  2
ENTITIES
  0
ATTDEF
  5
3930
  8
DEFPOINTS
 10
4306.6649096199316773
 20
208.0506191577258903
 30
0.0
 40
0.001
  1
K-607T
  3

  2
MODELNUMBER
 70
     0
1001
ACDBATTR
1070
     0
1070
     1
  0
ATTDEF
  5
3931
  8
DEFPOINTS
 10
4306.6649096199316773
 20
208.0489524910591967
 30
0.0
 40
0.001
  1
FINIAL
  3

  2
TRADENAME
 70
     0
1001
ACDBATTR
1070
     0
1070
     1
  0
ATTDEF
  5
3932
  8
DEFPOINTS
 10
4306.6649096199316773
 20
208.0472858243925032
 30
0.0
 40
0.001
  1
RISER TUBE
  3

  2
PRODUCT
 70
     0
1001
ACDBATTR
1070
     0
1070
     1
  0
LINE
  5
115E6
  8
0
 10
4307.7433053272989127
 20
208.0451987464452088
 30
0.0
 11
4305.5933053271992321
 21
208.0451987464450099
 31
0.0
  0
LINE
  5
115E7
  8
0
 10
4307.7883053272989855
 20
208.0901987464451111
 30
0.0
 11
4307.7883053272989855
 21
208.1712888141244093
 31
0.0
  0
LINE
  5
115E8
  8
0
 10
4307.7557090083137155
 20
208.2145455904407925
 30
0.0
 11
4307.3434979652702168
 21
208.3327452050249917
 31
0.0
  0
LINE
  5
115E9
  8
0
 10
4307.2783053272996767
 20
208.4192587576575875
 30
0.0
 11
4307.2783053272996767
 21
208.6751987464450906
 31
0.0
  0
LINE
  5
115EA
  8
0
 10
4307.218305327300186
 20
208.7351987464450929
 30
0.0
 11
4306.1183053271988683
 21
208.7351987464450929
 31
0.0
  0
LINE
  5
115EB
  8
0
 10
4307.0816911539986904
 20
208.7351987464450929
 30
0.0
 11
4307.0816911539986904
 21
224.9005137070450928
 31
0.0
  0
LINE
  5
115EC
  8
0
 10
4307.0816911539986904
 20
225.5255137070450075
 30
0.0
 11
4307.0816911539986904
 21
236.7431419265695922
 31
0.0
  0
LINE
  5
115ED
  8
0
 10
4307.0816911539986904
 20
236.7785990235695976
 30
0.0
 11
4307.0816911539986904
 21
236.8145686425233123
 31
0.0
  0
LINE
  5
115EE
  8
0
 10
4307.0816911539986904
 20
236.850025739523204
 30
0.0
 11
4307.0816911539986904
 21
236.8856452165441056
 31
0.0
  0
LINE
  5
115EF
  8
0
 10
4307.0816911539986904
 20
236.921102313544111
 30
0.0
 11
4307.0816911539986904
 21
236.957555096388603
 31
0.0
  0
LINE
  5
115F0
  8
0
 10
4307.0816911539986904
 20
236.9930121933886085
 30
0.0
 11
4307.0816911539986904
 21
237.0280599318012094
 31
0.0
  0
LINE
  5
115F1
  8
0
 10
4307.0816911539986904
 20
237.0635170288013001
 30
0.0
 11
4307.0816911539986904
 21
237.0990922717575131
 31
0.0
  0
LINE
  5
115F2
  8
0
 10
4307.0816911539986904
 20
237.1345493687574901
 30
0.0
 11
4307.0816911539986904
 21
237.1710694086978037
 31
0.0
  0
LINE
  5
115F3
  8
0
 10
4307.0816911539986904
 20
237.2065265056978092
 30
0.0
 11
4307.0816911539986904
 21
237.241915006289787
 31
0.0
  0
ARC
  5
115F4
  8
0
 10
4307.7433053272989127
 20
208.0901987464451111
 30
0.0
 40
0.045
 50
270.0
 51
0.0000000000016284
  0
ARC
  5
115F5
  8
0
 10
4307.7433053272989127
 20
208.1712888141244093
 30
0.0
 40
0.045
 50
0.0000000000016284
 51
73.9999999958391612
  0
ARC
  5
115F6
  8
0
 10
4307.3683053272998222
 20
208.4192587576575875
 30
0.0
 40
0.09
 50
180.0
 51
253.9999999958390902
  0
ARC
  5
115F7
  8
0
 10
4307.218305327300186
 20
208.6751987464450906
 30
0.0
 40
0.06
 50
0.0
 51
90.0
  0
LINE
  5
115F8
  8
0
 10
4305.5483053271991594
 20
208.0901987464451111
 30
0.0
 11
4305.5483053271991594
 21
208.1712888141244093
 31
0.0
  0
LINE
  5
115F9
  8
0
 10
4305.5809016461862484
 20
208.2145455904407925
 30
0.0
 11
4305.993112689229747
 21
208.3327452050249917
 31
0.0
  0
LINE
  5
115FA
  8
0
 10
4306.0583053272002871
 20
208.4192587576575875
 30
0.0
 11
4306.0583053272002871
 21
208.6751987464450906
 31
0.0
  0
ARC
  5
115FB
  8
0
 10
4305.5933053271992321
 20
208.0901987464451111
 30
0.0
 40
0.045
 50
179.9999999999984084
 51
270.0
  0
ARC
  5
115FC
  8
0
 10
4305.5933053271992321
 20
208.1712888141244093
 30
0.0
 40
0.045
 50
106.0000000041607962
 51
179.9999999999984084
  0
ARC
  5
115FD
  8
0
 10
4305.9683053272001416
 20
208.4192587576575875
 30
0.0
 40
0.09
 50
286.0000000041608246
 51
0.0
  0
ARC
  5
115FE
  8
0
 10
4306.1183053271988683
 20
208.6751987464450906
 30
0.0
 40
0.06
 50
90.0
 51
180.0
  0
LINE
  5
115FF
  8
0
 10
4306.2549195004994544
 20
208.7351987464450929
 30
0.0
 11
4306.2549195004994544
 21
224.9005137070450928
 31
0.0
  0
LINE
  5
11600
  8
0
 10
4306.2549195004994544
 20
225.5255137070450075
 30
0.0
 11
4306.2549195004994544
 21
236.6547968140399973
 31
0.0
  0
LINE
  5
11601
  8
0
 10
4306.2549195004994544
 20
236.689371267994602
 30
0.0
 11
4306.2549195004994544
 21
236.7075448029239055
 31
0.0
  0
LINE
  5
11602
  8
0
 10
4307.7557090083137155
 20
208.2145455904407925
 30
0.0
 11
4305.5809016461862484
 21
208.2145455904407925
 31
0.0
  0
LINE
  5
11603
  8
0
 10
4307.3434979652702168
 20
208.3327452050249065
 30
0.0
 11
4305.993112689229747
 21
208.3327452050249917
 31
0.0
  0
LINE
  5
11604
  8
0
 10
4306.313974618598877
 20
237.3365373290450862
 30
0.0
 11
4307.0226360359001774
 21
237.3365373290450862
 31
0.0
  0
LINE
  5
11605
  8
0
 10
4307.0226360359001774
 20
237.3365373290450862
 30
0.0
 11
4307.0816911539986904
 21
237.2774822109450952
 31
0.0
  0
LINE
  5
11606
  8
0
 10
4306.313974618598877
 20
237.3365373290450862
 30
0.0
 11
4306.2549195004994544
 21
237.2774822109450952
 31
0.0
  0
LINE
  5
11607
  8
0
 10
4307.0816911539986904
 20
236.7431419265695922
 30
0.0
 11
4307.0514676813991173
 21
236.7608744588696084
 31
0.0
  0
LINE
  5
11608
  8
0
 10
4307.0514676813991173
 20
236.7608744588696084
 30
0.0
 11
4307.0816911539986904
 21
236.7785990235695976
 31
0.0
  0
LINE
  5
11609
  8
0
 10
4307.0816911539986904
 20
236.8145686425233123
 30
0.0
 11
4307.0514676813991173
 21
236.8323011748231863
 31
0.0
  0
LINE
  5
1160A
  8
0
 10
4307.0514676813991173
 20
236.8323011748231863
 30
0.0
 11
4307.0816911539986904
 21
236.850025739523204
 31
0.0
  0
LINE
  5
1160B
  8
0
 10
4307.0816911539986904
 20
236.8856452165441056
 30
0.0
 11
4307.0514676813991173
 21
236.903377748844008
 31
0.0
  0
LINE
  5
1160C
  8
0
 10
4307.0514676813991173
 20
236.903377748844008
 30
0.0
 11
4307.0816911539986904
 21
236.921102313544111
 31
0.0
  0
LINE
  5
1160D
  8
0
 10
4307.0816911539986904
 20
236.957555096388603
 30
0.0
 11
4307.0514676813991173
 21
236.9752876286885908
 31
0.0
  0
LINE
  5
1160E
  8
0
 10
4307.0514676813991173
 20
236.9752876286885908
 30
0.0
 11
4307.0816911539986904
 21
236.9930121933886085
 31
0.0
  0
LINE
  5
1160F
  8
0
 10
4307.0816911539986904
 20
237.0280599318012094
 30
0.0
 11
4307.0514676813991173
 21
237.0457924641013108
 31
0.0
  0
LINE
  5
11610
  8
0
 10
4307.0514676813991173
 20
237.0457924641013108
 30
0.0
 11
4307.0816911539986904
 21
237.0635170288013001
 31
0.0
  0
LINE
  5
11611
  8
0
 10
4307.0816911539986904
 20
237.0990922717575131
 30
0.0
 11
4307.0514676813991173
 21
237.1168248040575008
 31
0.0
  0
LINE
  5
11612
  8
0
 10
4307.0514676813991173
 20
237.1168248040575008
 30
0.0
 11
4307.0816911539986904
 21
237.1345493687574901
 31
0.0
  0
LINE
  5
11613
  8
0
 10
4307.0816911539986904
 20
237.1710694086978037
 30
0.0
 11
4307.0514676813991173
 21
237.1888019409977915
 31
0.0
  0
LINE
  5
11614
  8
0
 10
4307.0514676813991173
 20
237.1888019409977915
 30
0.0
 11
4307.0816911539986904
 21
237.2065265056978092
 31
0.0
  0
LINE
  5
11615
  8
0
 10
4307.0816911539986904
 20
237.241915006289787
 30
0.0
 11
4307.0514676813991173
 21
237.2596475385898884
 31
0.0
  0
LINE
  5
11616
  8
0
 10
4307.0514676813991173
 20
237.2596475385898884
 30
0.0
 11
4307.0816911539986904
 21
237.2774822109450952
 31
0.0
  0
LINE
  5
11617
  8
0
 10
4306.2549195004994544
 20
236.743001899923911
 30
0.0
 11
4306.2549195004994544
 21
236.7787163469484142
 31
0.0
  0
LINE
  5
11618
  8
0
 10
4306.2549195004994544
 20
236.8141734439483912
 30
0.0
 11
4306.2549195004994544
 21
236.8501430629021058
 31
0.0
  0
LINE
  5
11619
  8
0
 10
4306.2549195004994544
 20
236.8856001599019976
 30
0.0
 11
4306.2549195004994544
 21
236.9212196369228138
 31
0.0
  0
LINE
  5
1161A
  8
0
 10
4306.2549195004994544
 20
236.9566767339227908
 30
0.0
 11
4306.2549195004994544
 21
236.9931295167673966
 31
0.0
  0
LINE
  5
1161B
  8
0
 10
4306.2549195004994544
 20
237.028586613767402
 30
0.0
 11
4306.2549195004994544
 21
237.0636343521800029
 31
0.0
  0
LINE
  5
1161C
  8
0
 10
4306.2549195004994544
 20
237.0990914491800083
 30
0.0
 11
4306.2549195004994544
 21
237.1346666921363067
 31
0.0
  0
LINE
  5
1161D
  8
0
 10
4306.2549195004994544
 20
237.1701237891361984
 30
0.0
 11
4306.2549195004994544
 21
237.2066438290765973
 31
0.0
  0
LINE
  5
1161E
  8
0
 10
4306.2549195004994544
 20
237.2421009260766027
 30
0.0
 11
4306.2549195004994544
 21
237.2774822109450952
 31
0.0
  0
LINE
  5
1161F
  8
0
 10
4306.2549195004994544
 20
236.7075448029239055
 30
0.0
 11
4306.2851429730990276
 21
236.7252773352238933
 31
0.0
  0
LINE
  5
11620
  8
0
 10
4306.2851429730990276
 20
236.7252773352238933
 30
0.0
 11
4306.2549195004994544
 21
236.743001899923911
 31
0.0
  0
LINE
  5
11621
  8
0
 10
4306.2549195004994544
 20
236.7787163469484142
 30
0.0
 11
4306.2851429730990276
 21
236.7964488792484019
 31
0.0
  0
LINE
  5
11622
  8
0
 10
4306.2851429730990276
 20
236.7964488792484019
 30
0.0
 11
4306.2549195004994544
 21
236.8141734439483912
 31
0.0
  0
LINE
  5
11623
  8
0
 10
4306.2549195004994544
 20
236.8501430629021058
 30
0.0
 11
4306.2851429730990276
 21
236.8678755952020936
 31
0.0
  0
LINE
  5
11624
  8
0
 10
4306.2851429730990276
 20
236.8678755952020936
 30
0.0
 11
4306.2549195004994544
 21
236.8856001599019976
 31
0.0
  0
LINE
  5
11625
  8
0
 10
4306.2549195004994544
 20
236.9212196369228138
 30
0.0
 11
4306.2851429730990276
 21
236.9389521692228016
 31
0.0
  0
LINE
  5
11626
  8
0
 10
4306.2851429730990276
 20
236.9389521692228016
 30
0.0
 11
4306.2549195004994544
 21
236.9566767339227908
 31
0.0
  0
LINE
  5
11627
  8
0
 10
4306.2549195004994544
 20
236.9931295167673966
 30
0.0
 11
4306.2851429730990276
 21
237.0108620490674127
 31
0.0
  0
LINE
  5
11628
  8
0
 10
4306.2851429730990276
 20
237.0108620490674127
 30
0.0
 11
4306.2549195004994544
 21
237.028586613767402
 31
0.0
  0
LINE
  5
11629
  8
0
 10
4306.2549195004994544
 20
237.0636343521800029
 30
0.0
 11
4306.2851429730990276
 21
237.0813668844799906
 31
0.0
  0
LINE
  5
1162A
  8
0
 10
4306.2851429730990276
 20
237.0813668844799906
 30
0.0
 11
4306.2549195004994544
 21
237.0990914491800083
 31
0.0
  0
LINE
  5
1162B
  8
0
 10
4306.2549195004994544
 20
237.1346666921363067
 30
0.0
 11
4306.2851429730990276
 21
237.1523992244362091
 31
0.0
  0
LINE
  5
1162C
  8
0
 10
4306.2851429730990276
 20
237.1523992244362091
 30
0.0
 11
4306.2549195004994544
 21
237.1701237891361984
 31
0.0
  0
LINE
  5
1162D
  8
0
 10
4306.2549195004994544
 20
237.2066438290765973
 30
0.0
 11
4306.2851429730990276
 21
237.2243763613766134
 31
0.0
  0
LINE
  5
1162E
  8
0
 10
4306.2851429730990276
 20
237.2243763613766134
 30
0.0
 11
4306.2549195004994544
 21
237.2421009260766027
 31
0.0
  0
LINE
  5
1162F
  8
0
 10
4307.0514676813991173
 20
236.7608744588696084
 30
0.0
 11
4306.2851429730990276
 21
236.7252773352238933
 31
0.0
  0
LINE
  5
11630
  8
0
 10
4306.2549195004994544
 20
236.7075448029239055
 30
0.0
 11
4307.0816911539986904
 21
236.7431419265695922
 31
0.0
  0
LINE
  5
11631
  8
0
 10
4307.0816911539986904
 20
236.7785990235695976
 30
0.0
 11
4306.2549195004994544
 21
236.743001899923911
 31
0.0
  0
LINE
  5
11632
  8
0
 10
4306.2549195004994544
 20
236.7787163469484142
 30
0.0
 11
4307.0816911539986904
 21
236.8145686425233123
 31
0.0
  0
LINE
  5
11633
  8
0
 10
4307.0816911539986904
 20
236.850025739523204
 30
0.0
 11
4306.2549195004994544
 21
236.8141734439483912
 31
0.0
  0
LINE
  5
11634
  8
0
 10
4306.2549195004994544
 20
236.8501430629021058
 30
0.0
 11
4307.0816911539986904
 21
236.8856452165441056
 31
0.0
  0
LINE
  5
11635
  8
0
 10
4307.0514676813991173
 20
236.903377748844008
 30
0.0
 11
4306.2851429730990276
 21
236.8678755952020936
 31
0.0
  0
LINE
  5
11636
  8
0
 10
4306.2549195004994544
 20
236.8856001599019976
 30
0.0
 11
4307.0816911539986904
 21
236.921102313544111
 31
0.0
  0
LINE
  5
11637
  8
0
 10
4307.0816911539986904
 20
236.957555096388603
 30
0.0
 11
4306.2549195004994544
 21
236.9212196369228138
 31
0.0
  0
LINE
  5
11638
  8
0
 10
4306.2851429730990276
 20
236.9389521692228016
 30
0.0
 11
4307.0514676813991173
 21
236.9752876286885908
 31
0.0
  0
LINE
  5
11639
  8
0
 10
4307.0816911539986904
 20
236.9930121933886085
 30
0.0
 11
4306.2549195004994544
 21
236.9566767339227908
 31
0.0
  0
LINE
  5
1163A
  8
0
 10
4306.2851429730990276
 20
236.7964488792484019
 30
0.0
 11
4307.0514676813991173
 21
236.8323011748231863
 31
0.0
  0
LINE
  5
1163B
  8
0
 10
4307.0816911539986904
 20
237.0280599318012094
 30
0.0
 11
4306.2549195004994544
 21
236.9931295167673966
 31
0.0
  0
LINE
  5
1163C
  8
0
 10
4306.2851429730990276
 20
237.0108620490674127
 30
0.0
 11
4307.0514676813991173
 21
237.0457924641013108
 31
0.0
  0
LINE
  5
1163D
  8
0
 10
4307.0816911539986904
 20
237.0635170288013001
 30
0.0
 11
4306.2549195004994544
 21
237.028586613767402
 31
0.0
  0
LINE
  5
1163E
  8
0
 10
4306.2549195004994544
 20
237.0636343521800029
 30
0.0
 11
4307.0816911539986904
 21
237.0990922717575131
 31
0.0
  0
LINE
  5
1163F
  8
0
 10
4307.0514676813991173
 20
237.1168248040575008
 30
0.0
 11
4306.2851429730990276
 21
237.0813668844799906
 31
0.0
  0
LINE
  5
11640
  8
0
 10
4306.2549195004994544
 20
237.0990914491800083
 30
0.0
 11
4307.0816911539986904
 21
237.1345493687574901
 31
0.0
  0
LINE
  5
11641
  8
0
 10
4307.0816911539986904
 20
237.1710694086978037
 30
0.0
 11
4306.2549195004994544
 21
237.1346666921363067
 31
0.0
  0
LINE
  5
11642
  8
0
 10
4306.2851429730990276
 20
237.1523992244362091
 30
0.0
 11
4307.0514676813991173
 21
237.1888019409977915
 31
0.0
  0
LINE
  5
11643
  8
0
 10
4307.0816911539986904
 20
237.2065265056978092
 30
0.0
 11
4306.2549195004994544
 21
237.1701237891361984
 31
0.0
  0
LINE
  5
11644
  8
0
 10
4306.2549195004994544
 20
237.2066438290765973
 30
0.0
 11
4307.0816911539986904
 21
237.241915006289787
 31
0.0
  0
LINE
  5
11645
  8
0
 10
4307.0514676813991173
 20
237.2596475385898884
 30
0.0
 11
4306.2851429730990276
 21
237.2243763613766134
 31
0.0
  0
LINE
  5
11646
  8
0
 10
4306.2549195004994544
 20
237.2421009260766027
 30
0.0
 11
4307.0816911539986904
 21
237.2774822109450952
 31
0.0
  0
LINE
  5
11647
  8
0
 10
4306.2549195004994544
 20
237.2774822109450952
 30
0.0
 11
4307.0816911539986904
 21
237.2774822109450952
 31
0.0
  0
LINE
  5
11648
  8
0
 10
4306.2549195004994544
 20
236.689371267994602
 30
0.0
 11
4306.2662161001999266
 21
236.6869310298451126
 31
0.0
  0
LINE
  5
11649
  8
0
 10
4306.2662161001999266
 20
236.6869310298451126
 30
0.0
 11
4306.2662161001999266
 21
236.6514979590450025
 31
0.0
  0
LINE
  5
1164A
  8
0
 10
4306.2662161001999266
 20
236.6514979590450025
 30
0.0
 11
4306.2549195004994544
 21
236.6547968140399973
 31
0.0
  0
LINE
  5
1164B
  8
0
 10
4306.1631521327135488
 20
225.5255137070450075
 30
0.0
 11
4307.1734585218846405
 21
225.5255137070450075
 31
0.0
  0
LINE
  5
1164C
  8
0
 10
4306.1631521327135488
 20
224.9005137070450928
 30
0.0
 11
4307.1734585218846405
 21
224.9005137070450928
 31
0.0
  0
ARC
  5
1164D
  8
0
 10
4306.6683053273000041
 20
225.2130137070450928
 30
0.0
 40
0.5940000000000002
 50
328.2580613673624157
 51
31.7419386326375701
  0
ARC
  5
1164E
  8
0
 10
4306.6683053273000041
 20
225.2130137070450928
 30
0.0
 40
0.5940000000000002
 50
148.2580613673623873
 51
211.7419386326376127
  0
CIRCLE
  5
1164F
  8
0
 10
4306.6683053273000041
 20
225.2130137070450928
 30
0.0
 40
0.0680000000000002
  0
ARC
  5
11650
  8
0
 10
4307.2033873748996484
 20
225.8972844340451047
 30
0.0
 40
0.2999999999999987
 50
246.0678789950414966
 51
331.3017161129038755
  0
LINE
  5
11651
  8
0
 10
4307.4665355389643082
 20
225.7532252665141073
 30
0.0
 11
4307.7060794977023761
 21
225.7680135009040043
 31
0.0
  0
LINE
  5
11652
  8
0
 10
4307.7060794977023761
 20
225.7680135009040043
 30
0.0
 11
4307.927483061044768
 21
225.5723571129985032
 31
0.0
  0
LINE
  5
11653
  8
0
 10
4307.927483061044768
 20
225.5723571129985032
 30
0.0
 11
4307.9631260467986067
 21
225.0124163387451119
 31
0.0
  0
LINE
  5
11654
  8
0
 10
4307.9343485583704023
 20
225.4645021786787993
 30
0.0
 11
4307.9862971039001422
 21
225.4677092195449859
 31
0.0
  0
LINE
  5
11655
  8
0
 10
4307.9862971039001422
 20
225.4677092195449859
 30
0.0
 11
4308.0961973525991198
 21
225.5045510196451062
 31
0.0
  0
LINE
  5
11656
  8
0
 10
4308.0961973525991198
 20
225.5045510196451062
 30
0.0
 11
4310.4927118442001301
 21
225.652499722845107
 31
0.0
  0
LINE
  5
11657
  8
0
 10
4310.4927118442001301
 20
225.652499722845107
 30
0.0
 11
4310.6063091514988628
 21
225.6294555332451068
 31
0.0
  0
LINE
  5
11658
  8
0
 10
4310.6063091514988628
 20
225.6294555332451068
 30
0.0
 11
4311.10535906540008
 21
225.6602643549231004
 31
0.0
  0
LINE
  5
11659
  8
0
 10
4311.10535906540008
 20
225.6602643549231004
 30
0.0
 11
4311.1278346377994239
 21
225.685697574245097
 31
0.0
  0
LINE
  5
1165A
  8
0
 10
4311.1278346377994239
 20
225.685697574245097
 30
0.0
 11
4311.1534354217001237
 21
225.6872780373450951
 31
0.0
  0
LINE
  5
1165B
  8
0
 10
4311.1534354217001237
 20
225.6872780373450951
 30
0.0
 11
4311.1729526507388073
 21
225.6588786258132018
 31
0.0
  0
LINE
  5
1165C
  8
0
 10
4311.1729526507388073
 20
225.6588786258132018
 30
0.0
 11
4311.1877462767988618
 21
225.6884217299451052
 31
0.0
  0
LINE
  5
1165D
  8
0
 10
4311.1877462767988618
 20
225.6884217299451052
 30
0.0
 11
4311.2245678010003758
 21
225.6916693912451137
 31
0.0
  0
LINE
  5
1165E
  8
0
 10
4311.2245678010003758
 20
225.6916693912451137
 30
0.0
 11
4311.2440761640491473
 21
225.6632688168988068
 31
0.0
  0
LINE
  5
1165F
  8
0
 10
4311.2440761640491473
 20
225.6632688168988068
 30
0.0
 11
4311.259933542998624
 21
225.6938526935450966
 31
0.0
  0
LINE
  5
11660
  8
0
 10
4311.259933542998624
 20
225.6938526935450966
 30
0.0
 11
4311.2961166790810239
 21
225.6959516895136915
 31
0.0
  0
LINE
  5
11661
  8
0
 10
4311.2961166790810239
 20
225.6959516895136915
 30
0.0
 11
4311.3151915344133158
 21
225.6676594904598971
 31
0.0
  0
LINE
  5
11662
  8
0
 10
4311.3151915344133158
 20
225.6676594904598971
 30
0.0
 11
4311.3310579794997466
 21
225.6982435571451049
 31
0.0
  0
LINE
  5
11663
  8
0
 10
4311.3310579794997466
 20
225.6982435571451049
 30
0.0
 11
4311.3668166740762899
 21
225.700451118343608
 31
0.0
  0
LINE
  5
11664
  8
0
 10
4311.3668166740762899
 20
225.700451118343608
 30
0.0
 11
4311.3863162105390074
 21
225.6720505266995929
 31
0.0
  0
LINE
  5
11665
  8
0
 10
4311.3863162105390074
 20
225.6720505266995929
 30
0.0
 11
4311.4021824159990501
 21
225.7026344206450972
 31
0.0
  0
LINE
  5
11666
  8
0
 10
4311.4021824159990501
 20
225.7026344206450972
 30
0.0
 11
4311.4377446342987241
 21
225.7048298524451013
 31
0.0
  0
LINE
  5
11667
  8
0
 10
4311.4377446342987241
 20
225.7048298524451013
 30
0.0
 11
4311.480663191900021
 21
225.6669023239450951
 31
0.0
  0
LINE
  5
11668
  8
0
 10
4311.480663191900021
 20
225.6669023239450951
 30
0.0
 11
4311.6054256703000647
 21
225.6746045294451051
 31
0.0
  0
LINE
  5
11669
  8
0
 10
4311.6054256703000647
 20
225.6746045294451051
 30
0.0
 11
4311.6247119927038511
 21
225.3621992832813135
 31
0.0
  0
ARC
  5
1166A
  8
0
 10
4307.2834903111934182
 20
224.5997546581168081
 30
0.0
 40
0.2999999999999987
 50
35.7636213837467807
 51
132.2729970155968999
  0
LINE
  5
1166B
  8
0
 10
4307.526920829399387
 20
224.7750874354458119
 30
0.0
 11
4307.7664647881356359
 21
224.7898756698540126
 31
0.0
  0
LINE
  5
1166C
  8
0
 10
4307.7664647881356359
 20
224.7898756698540126
 30
0.0
 11
4307.9621211760986625
 21
225.0112792331460128
 31
0.0
  0
LINE
  5
1166D
  8
0
 10
4308.1212141157793667
 20
225.099322489643896
 30
0.0
 11
4310.5177286073849245
 21
225.2472711927441935
 31
0.0
  0
LINE
  5
1166E
  8
0
 10
4310.5177286073849245
 20
225.2472711927441935
 30
0.0
 11
4310.6276288560839021
 21
225.2841129928669091
 31
0.0
  0
LINE
  5
1166F
  8
0
 10
4310.6276288560839021
 20
225.2841129928669091
 30
0.0
 11
4311.1266787699878478
 21
225.3149218145019006
 31
0.0
  0
LINE
  5
11670
  8
0
 10
4311.15819729121813
 20
225.3227597278441863
 30
0.0
 11
4311.1775242395988244
 21
225.2940150661451071
 31
0.0
  0
LINE
  5
11671
  8
0
 10
4311.1775242395988244
 20
225.2940150661451071
 30
0.0
 11
4311.2130350689703846
 21
225.2962073253600863
 31
0.0
  0
LINE
  5
11672
  8
0
 10
4311.2130350689703846
 20
225.2962073253600863
 30
0.0
 11
4311.228910935177737
 21
225.3267917278697894
 31
0.0
  0
LINE
  5
11673
  8
0
 10
4311.228910935177737
 20
225.3267917278697894
 30
0.0
 11
4311.2472260611612001
 21
225.2992925909013877
 31
0.0
  0
LINE
  5
11674
  8
0
 10
4311.2472260611612001
 20
225.2992925909013877
 30
0.0
 11
4311.2841674482697272
 21
225.3005986792686883
 31
0.0
  0
LINE
  5
11675
  8
0
 10
4311.2841674482697272
 20
225.3005986792686883
 30
0.0
 11
4311.3000343727826476
 21
225.3311831452363094
 31
0.0
  0
LINE
  5
11676
  8
0
 10
4311.3000343727826476
 20
225.3311831452363094
 30
0.0
 11
4311.3195331902661565
 21
225.3027819816213082
 31
0.0
  0
LINE
  5
11677
  8
0
 10
4311.3195331902661565
 20
225.3027819816213082
 30
0.0
 11
4311.3556997497153134
 21
225.3051494905141112
 31
0.0
  0
LINE
  5
11678
  8
0
 10
4311.3556997497153134
 20
225.3051494905141112
 30
0.0
 11
4311.3711497886206416
 21
225.335573082199403
 31
0.0
  0
LINE
  5
11679
  8
0
 10
4311.3711497886206416
 20
225.335573082199403
 30
0.0
 11
4311.390657626770917
 21
225.3071728451334934
 31
0.0
  0
LINE
  5
1167A
  8
0
 10
4311.390657626770917
 20
225.3071728451334934
 30
0.0
 11
4311.4264163213438223
 21
225.3093804064031929
 31
0.0
  0
LINE
  5
1167B
  8
0
 10
4311.4264163213438223
 20
225.3093804064031929
 30
0.0
 11
4311.4422744841667736
 21
225.3399638038571027
 31
0.0
  0
LINE
  5
1167C
  8
0
 10
4311.4422744841667736
 20
225.3399638038571027
 30
0.0
 11
4311.4618812666876693
 21
225.3114192835118956
 31
0.0
  0
LINE
  5
1167D
  8
0
 10
4311.4618812666876693
 20
225.3114192835118956
 30
0.0
 11
4311.4999495142483283
 21
225.354497077958996
 31
0.0
  0
LINE
  5
1167E
  8
0
 10
4311.4999495142483283
 20
225.354497077958996
 30
0.0
 11
4311.6247119927038511
 21
225.3621992832813135
 31
0.0
  0
LINE
  5
1167F
  8
0
 10
4307.9563287150949691
 20
225.1192004113098903
 30
0.0
 11
4308.0076168084797246
 21
225.122366679221102
 31
0.0
  0
LINE
  5
11680
  8
0
 10
4308.0076168084797246
 20
225.122366679221102
 30
0.0
 11
4308.1212141157793667
 21
225.0993224896438107
 31
0.0
  0
LINE
  5
11681
  8
0
 10
4311.1266787699878478
 20
225.3149218145019006
 30
0.0
 11
4311.1459610234542197
 21
225.298408899316513
 31
0.0
  0
LINE
  5
11682
  8
0
 10
4311.1459610234542197
 20
225.298408899316513
 30
0.0
 11
4311.15819729121813
 21
225.3227597278441863
 31
0.0
  0
LINE
  5
11683
  8
0
 10
4311.4999495142483283
 20
225.354497077958996
 30
0.0
 11
4311.4806631916726474
 21
225.6669023239311116
 31
0.0
  0
LINE
  5
11684
  8
0
 10
4311.4377446342987241
 20
225.7048298524451013
 30
0.0
 11
4311.4828719594688664
 21
225.335172222164914
 31
0.0
  0
LINE
  5
11685
  8
0
 10
4311.1278346377994239
 20
225.685697574245097
 30
0.0
 11
4311.1775242395988244
 21
225.2940150661451071
 31
0.0
  0
LINE
  5
11686
  8
0
 10
4311.2130350689703846
 20
225.2962073253600863
 30
0.0
 11
4311.1534354217001237
 21
225.6872780373450951
 31
0.0
  0
LINE
  5
11687
  8
0
 10
4311.1729526507388073
 20
225.6588786258132018
 30
0.0
 11
4311.228910935177737
 21
225.3267917278697894
 31
0.0
  0
LINE
  5
11688
  8
0
 10
4311.2472260611612001
 20
225.2992925909013877
 30
0.0
 11
4311.1877462767988618
 21
225.6884217299451052
 31
0.0
  0
LINE
  5
11689
  8
0
 10
4311.2245678010003758
 20
225.6916693912451137
 30
0.0
 11
4311.2841674482697272
 21
225.3005986792686883
 31
0.0
  0
LINE
  5
1168A
  8
0
 10
4311.3000343727826476
 20
225.3311831452363094
 30
0.0
 11
4311.2440761640491473
 21
225.6632688168988068
 31
0.0
  0
LINE
  5
1168B
  8
0
 10
4311.259933542998624
 20
225.6938526935450966
 30
0.0
 11
4311.3195331902661565
 21
225.3027819816213082
 31
0.0
  0
LINE
  5
1168C
  8
0
 10
4311.3556997497153134
 20
225.3051494905141112
 30
0.0
 11
4311.2961166790810239
 21
225.6959516895136915
 31
0.0
  0
LINE
  5
1168D
  8
0
 10
4311.3151915344133158
 20
225.6676594904598971
 30
0.0
 11
4311.3711497886206416
 21
225.335573082199403
 31
0.0
  0
LINE
  5
1168E
  8
0
 10
4311.390657626770917
 20
225.3071728451334934
 30
0.0
 11
4311.3310579794997466
 21
225.6982435571451049
 31
0.0
  0
LINE
  5
1168F
  8
0
 10
4311.3668166740762899
 20
225.700451118343608
 30
0.0
 11
4311.4264163213438223
 21
225.3093804064031929
 31
0.0
  0
LINE
  5
11690
  8
0
 10
4311.4264163213438223
 20
225.3093804064031929
 30
0.0
 11
4311.4422744841667736
 21
225.3399638038571027
 31
0.0
  0
LINE
  5
11691
  8
0
 10
4311.4422744841667736
 20
225.3399638038571027
 30
0.0
 11
4311.3863162105390074
 21
225.6720505266995929
 31
0.0
  0
LINE
  5
11692
  8
0
 10
4311.4021824159990501
 20
225.7026344206450972
 30
0.0
 11
4311.4618812666876693
 21
225.3114192835118956
 31
0.0
  0
LINE
  5
11693
  8
0
 10
4311.15819729121813
 20
225.3227597278441863
 30
0.0
 11
4311.10535906540008
 21
225.6602643549231004
 31
0.0
  0
LINE
  5
11694
  8
0
 10
4311.1459610234542197
 20
225.298408899316513
 30
0.0
 11
4311.10535906540008
 21
225.6602643549231004
 31
0.0
  0
LINE
  5
11695
  8
0
 10
4311.10535906540008
 20
225.6602643549231004
 30
0.0
 11
4311.1266787699878478
 21
225.3149218145019006
 31
0.0
  0
LINE
  5
11696
  8
0
 10
4310.6276288560839021
 20
225.2841129928669091
 30
0.0
 11
4310.6063091514852204
 21
225.6294555332441121
 31
0.0
  0
LINE
  5
11697
  8
0
 10
4310.5177286073849245
 20
225.2472711927441935
 30
0.0
 11
4310.4927118441910352
 21
225.6524997228445955
 31
0.0
  0
LINE
  5
11698
  8
0
 10
4308.1212141157793667
 20
225.0993224896438107
 30
0.0
 11
4308.0961973525909343
 21
225.5045510196445093
 31
0.0
  0
LINE
  5
11699
  8
0
 10
4307.9862971039001422
 20
225.4677092195449859
 30
0.0
 11
4308.0076168084797246
 21
225.122366679221102
 31
0.0
  0
LINE
  5
1169A
  8
0
 10
4307.7664647881356359
 20
224.7898756698540126
 30
0.0
 11
4307.7060794977396654
 21
225.7680135009063918
 31
0.0
  0
LINE
  5
1169B
  8
0
 10
4307.4665355389643082
 20
225.7532252665141073
 30
0.0
 11
4307.5269208294357668
 21
224.7750874354481141
 31
0.0
  0
ENDSEC
  0
EOF
